ISO-10303-21;
HEADER;
FILE_DESCRIPTION (( 'STEP AP203' ),
    '1' );
FILE_NAME ('54532.step',
    '2021-09-03T07:49:16',
    ( '' ),
    ( '' ),
    'SwSTEP 2.0',
    'SolidWorks 2019',
    '' );
FILE_SCHEMA (( 'CONFIG_CONTROL_DESIGN' ));
ENDSEC;

DATA;
#1 = CARTESIAN_POINT ( 'NONE',  ( 2.569919707261081455E-15, -9.014064914366100799E-17, 0.7360542583087664736 ) ) ;
#2 = PRODUCT_DEFINITION_SHAPE ( 'NONE', 'NONE',  #295 ) ;
#3 = DIRECTION ( 'NONE',  ( -3.491481338843133355E-15, 1.224646799147353207E-16, -1.000000000000000000 ) ) ;
#4 = FACE_OUTER_BOUND ( 'NONE', #264, .T. ) ;
#5 = EDGE_CURVE ( 'NONE', #128, #101, #267, .T. ) ;
#6 = UNCERTAINTY_MEASURE_WITH_UNIT (LENGTH_MEASURE( 1.000000000000000082E-05 ), #215, 'distance_accuracy_value', 'NONE');
#7 = CARTESIAN_POINT ( 'NONE',  ( 0.0000000000000000000, 0.0000000000000000000, 0.0000000000000000000 ) ) ;
#8 = CC_DESIGN_APPROVAL ( #175, ( #312 ) ) ;
#9 = DIRECTION ( 'NONE',  ( 4.275831445896958607E-31, 1.000000000000000000, 1.224646799147353207E-16 ) ) ;
#10 = EDGE_CURVE ( 'NONE', #101, #128, #293, .T. ) ;
#11 = CARTESIAN_POINT ( 'NONE',  ( 0.0000000000000000000, 0.0000000000000000000, 0.0000000000000000000 ) ) ;
#12 = DIRECTION ( 'NONE',  ( -3.491481338843133355E-15, 1.224646799147353207E-16, -1.000000000000000000 ) ) ;
#13 = CIRCLE ( 'NONE', #201, 1.225000000000000089 ) ;
#14 = DATE_AND_TIME ( #97, #64 ) ;
#15 = PERSON_AND_ORGANIZATION ( #229, #111 ) ;
#16 = ORIENTED_EDGE ( 'NONE', *, *, #192, .T. ) ;
#17 = APPROVAL ( #68, 'UNSPECIFIED' ) ;
#18 = DATE_AND_TIME ( #73, #154 ) ;
#19 = VERTEX_POINT ( 'NONE', #200 ) ;
#20 = AXIS2_PLACEMENT_3D ( 'NONE', #52, #79, #155 ) ;
#21 = VECTOR ( 'NONE', #308, 1000.000000000000000 ) ;
#22 = ORIENTED_EDGE ( 'NONE', *, *, #186, .T. ) ;
#23 = SHAPE_DEFINITION_REPRESENTATION ( #2, #30 ) ;
#24 = ORIENTED_EDGE ( 'NONE', *, *, #139, .T. ) ;
#25 = EDGE_LOOP ( 'NONE', ( #99, #46, #231, #325 ) ) ;
#26 = PRODUCT_DEFINITION_FORMATION_WITH_SPECIFIED_SOURCE ( 'ANY', '', #137, .NOT_KNOWN. ) ;
#27 = CARTESIAN_POINT ( 'NONE',  ( 1.501336975702547217E-13, 6.936388994811014803E-33, 43.00000000000000000 ) ) ;
#28 = FACE_OUTER_BOUND ( 'NONE', #25, .T. ) ;
#29 = PLANE ( 'NONE',  #75 ) ;
#30 = ADVANCED_BREP_SHAPE_REPRESENTATION ( '54532', ( #210, #324, #288 ), #232 ) ;
#31 = DIRECTION ( 'NONE',  ( -3.144375419407744856E-31, -1.000000000000000000, -8.850629979473541757E-17 ) ) ;
#32 = CARTESIAN_POINT ( 'NONE',  ( 3.840629472727446691E-14, 9.186028668803829952E-33, 11.00000000000000000 ) ) ;
#33 = DIRECTION ( 'NONE',  ( -4.275831445896958607E-31, -1.000000000000000000, -1.224646799147353207E-16 ) ) ;
#34 = DIRECTION ( 'NONE',  ( -3.491481338843133355E-15, 1.224646799147353207E-16, -1.000000000000000000 ) ) ;
#35 = CIRCLE ( 'NONE', #326, 1.225000000000000089 ) ;
#36 = AXIS2_PLACEMENT_3D ( 'NONE', #74, #151, #102 ) ;
#37 = CARTESIAN_POINT ( 'NONE',  ( 5.237893521223755857E-31, 1.224999999999995648, 1.500192328955502262E-16 ) ) ;
#38 = DIRECTION ( 'NONE',  ( -3.491481338843133355E-15, 1.224646799147353207E-16, -1.000000000000000000 ) ) ;
#39 = VECTOR ( 'NONE', #110, 1000.000000000000000 ) ;
#40 = CALENDAR_DATE ( 2021, 3, 9 ) ;
#41 = ORIENTED_EDGE ( 'NONE', *, *, #10, .T. ) ;
#42 = ADVANCED_FACE ( 'NONE', ( #51 ), #82, .T. ) ;
#43 = APPLICATION_CONTEXT ( 'configuration controlled 3d designs of mechanical parts and assemblies' ) ;
#44 = ORIENTED_EDGE ( 'NONE', *, *, #129, .F. ) ;
#45 = PERSON_AND_ORGANIZATION_ROLE ( 'design_supplier' ) ;
#46 = ORIENTED_EDGE ( 'NONE', *, *, #285, .T. ) ;
#47 = CC_DESIGN_APPROVAL ( #114, ( #26 ) ) ;
#48 = ADVANCED_FACE ( 'NONE', ( #260 ), #149, .T. ) ;
#49 = PERSON_AND_ORGANIZATION_ROLE ( 'design_owner' ) ;
#50 = DIRECTION ( 'NONE',  ( -3.491481338843133355E-15, 1.224646799147353207E-16, -1.000000000000000000 ) ) ;
#51 = FACE_OUTER_BOUND ( 'NONE', #249, .T. ) ;
#52 = CARTESIAN_POINT ( 'NONE',  ( 1.501336975702547217E-13, -5.265981236333618470E-15, 43.00000000000000000 ) ) ;
#53 = CC_DESIGN_SECURITY_CLASSIFICATION ( #312, ( #26 ) ) ;
#54 = CARTESIAN_POINT ( 'NONE',  ( 0.0000000000000000000, 0.0000000000000000000, 0.0000000000000000000 ) ) ;
#55 = ADVANCED_FACE ( 'NONE', ( #281 ), #206, .T. ) ;
#56 = CARTESIAN_POINT ( 'NONE',  ( 9.389629318083361551E-14, -1.224999999999997646, 11.00000000000000000 ) ) ;
#57 = DIRECTION ( 'NONE',  ( 4.275831445896958607E-31, 1.000000000000000000, 1.224646799147353207E-16 ) ) ;
#58 = LOCAL_TIME ( 9, 49, 16.00000000000000000, #322 ) ;
#59 = PLANE ( 'NONE',  #164 ) ;
#60 = DIRECTION ( 'NONE',  ( 0.0000000000000000000, 1.000000000000000000, 0.0000000000000000000 ) ) ;
#61 = DIRECTION ( 'NONE',  ( 0.0000000000000000000, 1.000000000000000000, 0.0000000000000000000 ) ) ;
#62 = ORIENTED_EDGE ( 'NONE', *, *, #84, .T. ) ;
#63 = CIRCLE ( 'NONE', #276, 1.224999999999994982 ) ;
#64 = LOCAL_TIME ( 9, 49, 16.00000000000000000, #100 ) ;
#65 = CARTESIAN_POINT ( 'NONE',  ( 3.840629472727446691E-14, -1.347111479062088405E-15, 11.00000000000000000 ) ) ;
#66 = LINE ( 'NONE', #189, #271 ) ;
#67 = ADVANCED_FACE ( 'NONE', ( #81 ), #83, .T. ) ;
#68 = APPROVAL_STATUS ( 'not_yet_approved' ) ;
#69 = ORIENTED_EDGE ( 'NONE', *, *, #291, .T. ) ;
#70 = CIRCLE ( 'NONE', #113, 1.224999999999994982 ) ;
#71 = DATE_AND_TIME ( #300, #237 ) ;
#72 = ORIENTED_EDGE ( 'NONE', *, *, #192, .F. ) ;
#73 = CALENDAR_DATE ( 2021, 3, 9 ) ;
#74 = CARTESIAN_POINT ( 'NONE',  ( 3.840629472727446691E-14, -1.347111479062088405E-15, 11.00000000000000000 ) ) ;
#75 = AXIS2_PLACEMENT_3D ( 'NONE', #32, #311, #202 ) ;
#76 = VERTEX_POINT ( 'NONE', #335 ) ;
#77 = DIRECTION ( 'NONE',  ( 0.0000000000000000000, 1.000000000000000000, 0.0000000000000000000 ) ) ;
#78 = ADVANCED_FACE ( 'NONE', ( #208 ), #59, .F. ) ;
#79 = DIRECTION ( 'NONE',  ( -3.491481338843133355E-15, 1.224646799147353207E-16, -1.000000000000000000 ) ) ;
#80 = AXIS2_PLACEMENT_3D ( 'NONE', #7, #239, #9 ) ;
#81 = FACE_OUTER_BOUND ( 'NONE', #145, .T. ) ;
#82 = CONICAL_SURFACE ( 'NONE', #91, 1.224999999999994982, 1.029744258676649649 ) ;
#83 = CYLINDRICAL_SURFACE ( 'NONE', #313, 1.224999999999998312 ) ;
#84 = EDGE_CURVE ( 'NONE', #118, #174, #35, .T. ) ;
#85 = LINE ( 'NONE', #104, #224 ) ;
#86 = APPROVAL_PERSON_ORGANIZATION ( #144, #114, #330 ) ;
#87 = LINE ( 'NONE', #263, #143 ) ;
#88 = APPLICATION_PROTOCOL_DEFINITION ( 'international standard', 'config_control_design', 1994, #43 ) ;
#89 = EDGE_CURVE ( 'NONE', #95, #118, #336, .T. ) ;
#90 = DIRECTION ( 'NONE',  ( 0.0000000000000000000, 1.000000000000000000, 0.0000000000000000000 ) ) ;
#91 = AXIS2_PLACEMENT_3D ( 'NONE', #254, #153, #136 ) ;
#92 = LINE ( 'NONE', #37, #103 ) ;
#93 = EDGE_LOOP ( 'NONE', ( #251, #278, #275, #124 ) ) ;
#94 = PERSON_AND_ORGANIZATION ( #229, #111 ) ;
#95 = VERTEX_POINT ( 'NONE', #105 ) ;
#96 = CLOSED_SHELL ( 'NONE', ( #318, #67, #279, #246, #48, #78 ) ) ;
#97 = CALENDAR_DATE ( 2021, 3, 9 ) ;
#98 = CC_DESIGN_PERSON_AND_ORGANIZATION_ASSIGNMENT ( #15, #283, ( #312 ) ) ;
#99 = ORIENTED_EDGE ( 'NONE', *, *, #320, .T. ) ;
#100 = COORDINATED_UNIVERSAL_TIME_OFFSET ( 1, 0, .AHEAD. ) ;
#101 = VERTEX_POINT ( 'NONE', #135 ) ;
#102 = DIRECTION ( 'NONE',  ( 0.0000000000000000000, 1.000000000000000000, 0.0000000000000000000 ) ) ;
#103 = VECTOR ( 'NONE', #213, 1000.000000000000000 ) ;
#104 = CARTESIAN_POINT ( 'NONE',  ( 2.719938940156632248E-15, 1.224999999999994982, 0.7360542583087665847 ) ) ;
#105 = CARTESIAN_POINT ( 'NONE',  ( 1.501336975702547217E-13, 0.9249999999999950484, 43.00000000000000000 ) ) ;
#106 = APPROVAL_PERSON_ORGANIZATION ( #247, #17, #245 ) ;
#107 = DIRECTION ( 'NONE',  ( -3.491481338843133355E-15, 1.224646799147353207E-16, -1.000000000000000000 ) ) ;
#108 = ADVANCED_FACE ( 'NONE', ( #28 ), #315, .T. ) ;
#109 = DIRECTION ( 'NONE',  ( 4.275831445896958607E-31, 1.000000000000000000, 1.224646799147353207E-16 ) ) ;
#110 = DIRECTION ( 'NONE',  ( -3.491481338843133355E-15, 1.224646799147353207E-16, -1.000000000000000000 ) ) ;
#111 = ORGANIZATION ( 'UNSPECIFIED', 'UNSPECIFIED', '' ) ;
#112 =( NAMED_UNIT ( * ) PLANE_ANGLE_UNIT ( ) SI_UNIT ( $, .RADIAN. ) );
#113 = AXIS2_PLACEMENT_3D ( 'NONE', #1, #107, #207 ) ;
#114 = APPROVAL ( #303, 'UNSPECIFIED' ) ;
#115 = LINE ( 'NONE', #243, #39 ) ;
#116 = ORIENTED_EDGE ( 'NONE', *, *, #89, .F. ) ;
#117 = DIRECTION ( 'NONE',  ( 0.0000000000000000000, 0.0000000000000000000, 1.000000000000000000 ) ) ;
#118 = VERTEX_POINT ( 'NONE', #157 ) ;
#119 = CARTESIAN_POINT ( 'NONE',  ( 2.569919707261081061E-15, -1.224999999999994982, 0.7360542583087663626 ) ) ;
#120 = PRODUCT_RELATED_PRODUCT_CATEGORY ( 'detail', '', ( #137 ) ) ;
#121 = DATE_AND_TIME ( #40, #58 ) ;
#122 = COORDINATED_UNIVERSAL_TIME_OFFSET ( 1, 0, .AHEAD. ) ;
#123 = VERTEX_POINT ( 'NONE', #309 ) ;
#124 = ORIENTED_EDGE ( 'NONE', *, *, #5, .F. ) ;
#125 = DIRECTION ( 'NONE',  ( 1.000000000000000000, 0.0000000000000000000, 0.0000000000000000000 ) ) ;
#126 = DIRECTION ( 'NONE',  ( 0.0000000000000000000, 1.000000000000000000, 0.0000000000000000000 ) ) ;
#127 = CARTESIAN_POINT ( 'NONE',  ( 3.840629472727446691E-14, -1.347111479062088405E-15, 11.00000000000000000 ) ) ;
#128 = VERTEX_POINT ( 'NONE', #56 ) ;
#129 = EDGE_CURVE ( 'NONE', #191, #123, #85, .T. ) ;
#130 = AXIS2_PLACEMENT_3D ( 'NONE', #294, #270, #33 ) ;
#131 = DIRECTION ( 'NONE',  ( 3.491481338843133355E-15, -1.224646799147353207E-16, 1.000000000000000000 ) ) ;
#132 = LINE ( 'NONE', #156, #217 ) ;
#133 = EDGE_CURVE ( 'NONE', #95, #19, #162, .T. ) ;
#134 = DIRECTION ( 'NONE',  ( -2.382254525458724175E-15, -0.7071067811865452413, -0.7071067811865497932 ) ) ;
#135 = CARTESIAN_POINT ( 'NONE',  ( 3.840629472727446691E-14, 1.224999999999994982, 11.00000000000000000 ) ) ;
#136 = DIRECTION ( 'NONE',  ( -3.144375419407744856E-31, -1.000000000000000000, -8.850629979473541757E-17 ) ) ;
#137 = PRODUCT ( '54532', '54532', '', ( #297 ) ) ;
#138 = CARTESIAN_POINT ( 'NONE',  ( 3.840629472727446691E-14, -1.347111479062088405E-15, 11.00000000000000000 ) ) ;
#139 = EDGE_CURVE ( 'NONE', #123, #227, #63, .T. ) ;
#140 = AXIS2_PLACEMENT_3D ( 'NONE', #280, #3, #77 ) ;
#141 = DIRECTION ( 'NONE',  ( -3.491481338843133355E-15, 1.224646799147353207E-16, -1.000000000000000000 ) ) ;
#142 = CYLINDRICAL_SURFACE ( 'NONE', #80, 1.224999999999998312 ) ;
#143 = VECTOR ( 'NONE', #296, 1000.000000000000000 ) ;
#144 = PERSON_AND_ORGANIZATION ( #229, #111 ) ;
#145 = EDGE_LOOP ( 'NONE', ( #62, #273, #304, #306 ) ) ;
#146 = APPLICATION_PROTOCOL_DEFINITION ( 'international standard', 'config_control_design', 1994, #190 ) ;
#147 = ORIENTED_EDGE ( 'NONE', *, *, #133, .T. ) ;
#148 = COORDINATED_UNIVERSAL_TIME_OFFSET ( 1, 0, .AHEAD. ) ;
#149 = CONICAL_SURFACE ( 'NONE', #140, 0.9250000000000003775, 0.7853981633974452814 ) ;
#150 = PERSON_AND_ORGANIZATION ( #229, #111 ) ;
#151 = DIRECTION ( 'NONE',  ( -3.491481338843133355E-15, 1.224646799147353207E-16, -1.000000000000000000 ) ) ;
#152 = ORIENTED_EDGE ( 'NONE', *, *, #307, .F. ) ;
#153 = DIRECTION ( 'NONE',  ( 3.491481338843133355E-15, -1.224646799147353207E-16, 1.000000000000000000 ) ) ;
#154 = LOCAL_TIME ( 9, 49, 16.00000000000000000, #122 ) ;
#155 = DIRECTION ( 'NONE',  ( 0.0000000000000000000, 1.000000000000000000, 0.0000000000000000000 ) ) ;
#156 = CARTESIAN_POINT ( 'NONE',  ( 2.569919707261081061E-15, -1.224999999999994982, 0.7360542583087663626 ) ) ;
#157 = CARTESIAN_POINT ( 'NONE',  ( 1.490862531686017753E-13, 1.224999999999994982, 42.69999999999999574 ) ) ;
#158 = AXIS2_PLACEMENT_3D ( 'NONE', #65, #211, #90 ) ;
#159 = DIRECTION ( 'NONE',  ( -3.491481338843133355E-15, 1.224646799147353207E-16, -1.000000000000000000 ) ) ;
#160 = EDGE_CURVE ( 'NONE', #191, #227, #132, .T. ) ;
#161 = DIRECTION ( 'NONE',  ( 4.275831445896958607E-31, 1.000000000000000000, 1.224646799147353207E-16 ) ) ;
#162 = CIRCLE ( 'NONE', #20, 0.9250000000000003775 ) ;
#163 = AXIS2_PLACEMENT_3D ( 'NONE', #292, #166, #187 ) ;
#164 = AXIS2_PLACEMENT_3D ( 'NONE', #27, #183, #57 ) ;
#165 = ADVANCED_FACE ( 'NONE', ( #262 ), #29, .T. ) ;
#166 = DIRECTION ( 'NONE',  ( -3.491481338843133355E-15, 1.224646799147353207E-16, -1.000000000000000000 ) ) ;
#167 = PLANE ( 'NONE',  #130 ) ;
#168 = PERSON_AND_ORGANIZATION_ROLE ( 'creator' ) ;
#169 = EDGE_LOOP ( 'NONE', ( #147, #22, #177, #116 ) ) ;
#170 = PERSON_AND_ORGANIZATION ( #229, #111 ) ;
#171 = ORIENTED_EDGE ( 'NONE', *, *, #265, .F. ) ;
#172 = CC_DESIGN_DATE_AND_TIME_ASSIGNMENT ( #272, #176, ( #295 ) ) ;
#173 = ORIENTED_EDGE ( 'NONE', *, *, #160, .F. ) ;
#174 = VERTEX_POINT ( 'NONE', #182 ) ;
#175 = APPROVAL ( #305, 'UNSPECIFIED' ) ;
#176 = DATE_TIME_ROLE ( 'creation_date' ) ;
#177 = ORIENTED_EDGE ( 'NONE', *, *, #84, .F. ) ;
#178 = CARTESIAN_POINT ( 'NONE',  ( 1.501336975702547217E-13, 0.9249999999999950484, 43.00000000000000000 ) ) ;
#179 = DIRECTION ( 'NONE',  ( -3.491481338843133355E-15, 1.224646799147353207E-16, -1.000000000000000000 ) ) ;
#180 = CIRCLE ( 'NONE', #261, 1.224999999999996314 ) ;
#181 = AXIS2_PLACEMENT_3D ( 'NONE', #127, #50, #126 ) ;
#182 = CARTESIAN_POINT ( 'NONE',  ( 9.389629318083348929E-14, -1.225000000000005418, 42.69999999999999574 ) ) ;
#183 = DIRECTION ( 'NONE',  ( -3.491481338843133355E-15, 1.224646799147353207E-16, -1.000000000000000000 ) ) ;
#184 = DIRECTION ( 'NONE',  ( 3.144375419407744856E-31, 1.000000000000000000, 8.850629979473541757E-17 ) ) ;
#185 = CONICAL_SURFACE ( 'NONE', #299, 0.9250000000000003775, 0.7853981633974452814 ) ;
#186 = EDGE_CURVE ( 'NONE', #19, #174, #284, .T. ) ;
#187 = DIRECTION ( 'NONE',  ( 0.0000000000000000000, 1.000000000000000000, 0.0000000000000000000 ) ) ;
#188 = CYLINDRICAL_SURFACE ( 'NONE', #244, 1.224999999999995648 ) ;
#189 = CARTESIAN_POINT ( 'NONE',  ( 5.237893521223767243E-31, 1.224999999999998312, 1.500192328955505466E-16 ) ) ;
#190 = APPLICATION_CONTEXT ( 'configuration controlled 3d designs of mechanical parts and assemblies' ) ;
#191 = VERTEX_POINT ( 'NONE', #236 ) ;
#192 = EDGE_CURVE ( 'NONE', #227, #123, #70, .T. ) ;
#193 = APPROVAL_ROLE ( '' ) ;
#194 = LOCAL_TIME ( 9, 49, 16.00000000000000000, #228 ) ;
#195 = EDGE_LOOP ( 'NONE', ( #298, #329 ) ) ;
#196 = ORIENTED_EDGE ( 'NONE', *, *, #160, .T. ) ;
#197 = PERSON_AND_ORGANIZATION_ROLE ( 'creator' ) ;
#198 = EDGE_LOOP ( 'NONE', ( #225, #171 ) ) ;
#199 = CALENDAR_DATE ( 2021, 3, 9 ) ;
#200 = CARTESIAN_POINT ( 'NONE',  ( 1.497416249003365806E-13, -0.9250000000000057065, 43.00000000000000000 ) ) ;
#201 = AXIS2_PLACEMENT_3D ( 'NONE', #289, #319, #61 ) ;
#202 = DIRECTION ( 'NONE',  ( -4.275831445896958607E-31, -1.000000000000000000, -1.224646799147353207E-16 ) ) ;
#203 = DIRECTION ( 'NONE',  ( 4.275831445896958607E-31, 1.000000000000000000, 1.224646799147353207E-16 ) ) ;
#204 = CC_DESIGN_PERSON_AND_ORGANIZATION_ASSIGNMENT ( #223, #45, ( #26 ) ) ;
#205 = DIRECTION ( 'NONE',  ( 1.903218546456022717E-15, 0.8571673007021097801, 0.5150380749100585964 ) ) ;
#206 = CONICAL_SURFACE ( 'NONE', #310, 1.224999999999994982, 1.029744258676649649 ) ;
#207 = DIRECTION ( 'NONE',  ( 3.144375419407744856E-31, 1.000000000000000000, 8.850629979473541757E-17 ) ) ;
#208 = FACE_OUTER_BOUND ( 'NONE', #198, .T. ) ;
#209 = ADVANCED_FACE ( 'NONE', ( #314 ), #188, .T. ) ;
#210 = MANIFOLD_SOLID_BREP ( 'Corps-Déplacer/Copier1[1]', #96 ) ;
#211 = DIRECTION ( 'NONE',  ( -3.491481338843133355E-15, 1.224646799147353207E-16, -1.000000000000000000 ) ) ;
#212 = VECTOR ( 'NONE', #134, 1000.000000000000000 ) ;
#213 = DIRECTION ( 'NONE',  ( -3.491481338843133355E-15, 1.224646799147353207E-16, -1.000000000000000000 ) ) ;
#214 = FACE_OUTER_BOUND ( 'NONE', #169, .T. ) ;
#215 =( LENGTH_UNIT ( ) NAMED_UNIT ( * ) SI_UNIT ( .MILLI., .METRE. ) );
#216 = ORIENTED_EDGE ( 'NONE', *, *, #5, .T. ) ;
#217 = VECTOR ( 'NONE', #235, 1000.000000000000000 ) ;
#218 = CARTESIAN_POINT ( 'NONE',  ( 0.0000000000000000000, 0.0000000000000000000, 0.0000000000000000000 ) ) ;
#219 = APPROVAL_DATE_TIME ( #14, #17 ) ;
#220 = CC_DESIGN_PERSON_AND_ORGANIZATION_ASSIGNMENT ( #94, #49, ( #137 ) ) ;
#221 = PERSON_AND_ORGANIZATION ( #229, #111 ) ;
#222 = ORIENTED_EDGE ( 'NONE', *, *, #265, .T. ) ;
#223 = PERSON_AND_ORGANIZATION ( #229, #111 ) ;
#224 = VECTOR ( 'NONE', #205, 999.9999999999998863 ) ;
#225 = ORIENTED_EDGE ( 'NONE', *, *, #133, .F. ) ;
#226 = APPROVAL_DATE_TIME ( #121, #114 ) ;
#227 = VERTEX_POINT ( 'NONE', #119 ) ;
#228 = COORDINATED_UNIVERSAL_TIME_OFFSET ( 1, 0, .AHEAD. ) ;
#229 = PERSON ( 'UNSPECIFIED', 'UNSPECIFIED', 'UNSPECIFIED', ('UNSPECIFIED'), ('UNSPECIFIED'), ('UNSPECIFIED') ) ;
#230 = ORIENTED_EDGE ( 'NONE', *, *, #89, .T. ) ;
#231 = ORIENTED_EDGE ( 'NONE', *, *, #139, .F. ) ;
#232 =( GEOMETRIC_REPRESENTATION_CONTEXT ( 3 ) GLOBAL_UNCERTAINTY_ASSIGNED_CONTEXT ( ( #6 ) ) GLOBAL_UNIT_ASSIGNED_CONTEXT ( ( #215, #112, #242 ) ) REPRESENTATION_CONTEXT ( 'NONE', 'WORKASPACE' ) );
#233 = DIRECTION ( 'NONE',  ( 0.0000000000000000000, 1.000000000000000000, 0.0000000000000000000 ) ) ;
#234 = EDGE_CURVE ( 'NONE', #174, #128, #87, .T. ) ;
#235 = DIRECTION ( 'NONE',  ( 1.798245827342160317E-15, -0.8571673007021098911, 0.5150380749100582634 ) ) ;
#236 = CARTESIAN_POINT ( 'NONE',  ( 0.0000000000000000000, 0.0000000000000000000, 0.0000000000000000000 ) ) ;
#237 = LOCAL_TIME ( 9, 49, 16.00000000000000000, #148 ) ;
#238 = CARTESIAN_POINT ( 'NONE',  ( 2.569919707261081455E-15, -9.014064914366100799E-17, 0.7360542583087664736 ) ) ;
#239 = DIRECTION ( 'NONE',  ( -3.491481338843133355E-15, 1.224646799147353207E-16, -1.000000000000000000 ) ) ;
#240 = CIRCLE ( 'NONE', #158, 1.224999999999996314 ) ;
#241 = DIRECTION ( 'NONE',  ( 0.0000000000000000000, 1.000000000000000000, 0.0000000000000000000 ) ) ;
#242 =( NAMED_UNIT ( * ) SI_UNIT ( $, .STERADIAN. ) SOLID_ANGLE_UNIT ( ) );
#243 = CARTESIAN_POINT ( 'NONE',  ( 1.500192328955497331E-16, -1.224999999999995648, -1.500192328955507438E-16 ) ) ;
#244 = AXIS2_PLACEMENT_3D ( 'NONE', #218, #38, #161 ) ;
#245 = APPROVAL_ROLE ( '' ) ;
#246 = ADVANCED_FACE ( 'NONE', ( #321 ), #142, .T. ) ;
#247 = PERSON_AND_ORGANIZATION ( #229, #111 ) ;
#248 = EDGE_LOOP ( 'NONE', ( #331, #222, #230, #152 ) ) ;
#249 = EDGE_LOOP ( 'NONE', ( #173, #274, #24 ) ) ;
#250 = APPROVAL_DATE_TIME ( #71, #175 ) ;
#251 = ORIENTED_EDGE ( 'NONE', *, *, #234, .F. ) ;
#252 = SECURITY_CLASSIFICATION_LEVEL ( 'unclassified' ) ;
#253 = ORIENTED_EDGE ( 'NONE', *, *, #285, .F. ) ;
#254 = CARTESIAN_POINT ( 'NONE',  ( 2.569919707261081455E-15, -9.014064914366100799E-17, 0.7360542583087664736 ) ) ;
#255 = DIRECTION ( 'NONE',  ( -3.491481338843133355E-15, 1.224646799147353207E-16, -1.000000000000000000 ) ) ;
#256 = EDGE_CURVE ( 'NONE', #277, #123, #92, .T. ) ;
#257 = DIRECTION ( 'NONE',  ( -3.491481338843133355E-15, 1.224646799147353207E-16, -1.000000000000000000 ) ) ;
#258 = CARTESIAN_POINT ( 'NONE',  ( 1.502469773991758599E-13, -0.9250000000000057065, 43.00000000000000000 ) ) ;
#259 = CC_DESIGN_DATE_AND_TIME_ASSIGNMENT ( #18, #323, ( #312 ) ) ;
#260 = FACE_OUTER_BOUND ( 'NONE', #248, .T. ) ;
#261 = AXIS2_PLACEMENT_3D ( 'NONE', #138, #141, #241 ) ;
#262 = FACE_OUTER_BOUND ( 'NONE', #195, .T. ) ;
#263 = CARTESIAN_POINT ( 'NONE',  ( 1.500192328955500289E-16, -1.224999999999998312, -1.500192328955510643E-16 ) ) ;
#264 = EDGE_LOOP ( 'NONE', ( #41, #216 ) ) ;
#265 = EDGE_CURVE ( 'NONE', #19, #95, #317, .T. ) ;
#266 = AXIS2_PLACEMENT_3D ( 'NONE', #54, #159, #203 ) ;
#267 = CIRCLE ( 'NONE', #181, 1.224999999999996314 ) ;
#268 = CARTESIAN_POINT ( 'NONE',  ( 3.840629472727446691E-14, 1.224999999999994982, 11.00000000000000000 ) ) ;
#269 = EDGE_CURVE ( 'NONE', #118, #101, #66, .T. ) ;
#270 = DIRECTION ( 'NONE',  ( 3.491481338843133355E-15, -1.224646799147353207E-16, 1.000000000000000000 ) ) ;
#271 = VECTOR ( 'NONE', #34, 1000.000000000000000 ) ;
#272 = DATE_AND_TIME ( #199, #194 ) ;
#273 = ORIENTED_EDGE ( 'NONE', *, *, #234, .T. ) ;
#274 = ORIENTED_EDGE ( 'NONE', *, *, #129, .T. ) ;
#275 = ORIENTED_EDGE ( 'NONE', *, *, #269, .T. ) ;
#276 = AXIS2_PLACEMENT_3D ( 'NONE', #238, #257, #184 ) ;
#277 = VERTEX_POINT ( 'NONE', #268 ) ;
#278 = ORIENTED_EDGE ( 'NONE', *, *, #307, .T. ) ;
#279 = ADVANCED_FACE ( 'NONE', ( #4 ), #167, .F. ) ;
#280 = CARTESIAN_POINT ( 'NONE',  ( 1.501336975702547217E-13, -5.265981236333618470E-15, 43.00000000000000000 ) ) ;
#281 = FACE_OUTER_BOUND ( 'NONE', #301, .T. ) ;
#282 = CLOSED_SHELL ( 'NONE', ( #108, #42, #55, #209, #165 ) ) ;
#283 = PERSON_AND_ORGANIZATION_ROLE ( 'classification_officer' ) ;
#284 = LINE ( 'NONE', #258, #212 ) ;
#285 = EDGE_CURVE ( 'NONE', #76, #227, #115, .T. ) ;
#286 = CARTESIAN_POINT ( 'NONE',  ( 0.0000000000000000000, 0.0000000000000000000, 0.0000000000000000000 ) ) ;
#287 = CARTESIAN_POINT ( 'NONE',  ( 2.569919707261081455E-15, -9.014064914366100799E-17, 0.7360542583087664736 ) ) ;
#288 = AXIS2_PLACEMENT_3D ( 'NONE', #11, #117, #125 ) ;
#289 = CARTESIAN_POINT ( 'NONE',  ( 1.490862531686017753E-13, -5.229241832359197610E-15, 42.69999999999999574 ) ) ;
#290 = DESIGN_CONTEXT ( 'detailed design', #190, 'design' ) ;
#291 = EDGE_CURVE ( 'NONE', #76, #277, #180, .T. ) ;
#292 = CARTESIAN_POINT ( 'NONE',  ( 1.501336975702547217E-13, -5.265981236333618470E-15, 43.00000000000000000 ) ) ;
#293 = CIRCLE ( 'NONE', #36, 1.224999999999996314 ) ;
#294 = CARTESIAN_POINT ( 'NONE',  ( 3.840629472727446691E-14, 9.186028668803829952E-33, 11.00000000000000000 ) ) ;
#295 = PRODUCT_DEFINITION ( 'UNKNOWN', '', #26, #290 ) ;
#296 = DIRECTION ( 'NONE',  ( -3.491481338843133355E-15, 1.224646799147353207E-16, -1.000000000000000000 ) ) ;
#297 = MECHANICAL_CONTEXT ( 'NONE', #43, 'mechanical' ) ;
#298 = ORIENTED_EDGE ( 'NONE', *, *, #320, .F. ) ;
#299 = AXIS2_PLACEMENT_3D ( 'NONE', #316, #12, #60 ) ;
#300 = CALENDAR_DATE ( 2021, 3, 9 ) ;
#301 = EDGE_LOOP ( 'NONE', ( #44, #196, #16 ) ) ;
#302 = EDGE_LOOP ( 'NONE', ( #253, #69, #332, #72 ) ) ;
#303 = APPROVAL_STATUS ( 'not_yet_approved' ) ;
#304 = ORIENTED_EDGE ( 'NONE', *, *, #10, .F. ) ;
#305 = APPROVAL_STATUS ( 'not_yet_approved' ) ;
#306 = ORIENTED_EDGE ( 'NONE', *, *, #269, .F. ) ;
#307 = EDGE_CURVE ( 'NONE', #174, #118, #13, .T. ) ;
#308 = DIRECTION ( 'NONE',  ( -2.468850131082272443E-15, 0.7071067811865454633, -0.7071067811865495711 ) ) ;
#309 = CARTESIAN_POINT ( 'NONE',  ( 2.719938940156632248E-15, 1.224999999999994982, 0.7360542583087665847 ) ) ;
#310 = AXIS2_PLACEMENT_3D ( 'NONE', #287, #131, #31 ) ;
#311 = DIRECTION ( 'NONE',  ( 3.491481338843133355E-15, -1.224646799147353207E-16, 1.000000000000000000 ) ) ;
#312 = SECURITY_CLASSIFICATION ( '', '', #252 ) ;
#313 = AXIS2_PLACEMENT_3D ( 'NONE', #286, #255, #109 ) ;
#314 = FACE_OUTER_BOUND ( 'NONE', #302, .T. ) ;
#315 = CYLINDRICAL_SURFACE ( 'NONE', #266, 1.224999999999995648 ) ;
#316 = CARTESIAN_POINT ( 'NONE',  ( 1.501336975702547217E-13, -5.265981236333618470E-15, 43.00000000000000000 ) ) ;
#317 = CIRCLE ( 'NONE', #163, 0.9250000000000003775 ) ;
#318 = ADVANCED_FACE ( 'NONE', ( #214 ), #185, .T. ) ;
#319 = DIRECTION ( 'NONE',  ( -3.491481338843133355E-15, 1.224646799147353207E-16, -1.000000000000000000 ) ) ;
#320 = EDGE_CURVE ( 'NONE', #277, #76, #240, .T. ) ;
#321 = FACE_OUTER_BOUND ( 'NONE', #93, .T. ) ;
#322 = COORDINATED_UNIVERSAL_TIME_OFFSET ( 1, 0, .AHEAD. ) ;
#323 = DATE_TIME_ROLE ( 'classification_date' ) ;
#324 = MANIFOLD_SOLID_BREP ( 'Corps-Déplacer/Copier1[2]', #282 ) ;
#325 = ORIENTED_EDGE ( 'NONE', *, *, #256, .F. ) ;
#326 = AXIS2_PLACEMENT_3D ( 'NONE', #337, #179, #233 ) ;
#327 = CC_DESIGN_APPROVAL ( #17, ( #295 ) ) ;
#328 = CC_DESIGN_PERSON_AND_ORGANIZATION_ASSIGNMENT ( #150, #168, ( #295 ) ) ;
#329 = ORIENTED_EDGE ( 'NONE', *, *, #291, .F. ) ;
#330 = APPROVAL_ROLE ( '' ) ;
#331 = ORIENTED_EDGE ( 'NONE', *, *, #186, .F. ) ;
#332 = ORIENTED_EDGE ( 'NONE', *, *, #256, .T. ) ;
#333 = CC_DESIGN_PERSON_AND_ORGANIZATION_ASSIGNMENT ( #221, #197, ( #26 ) ) ;
#334 = APPROVAL_PERSON_ORGANIZATION ( #170, #175, #193 ) ;
#335 = CARTESIAN_POINT ( 'NONE',  ( 2.063812645016330269E-14, -1.224999999999997646, 11.00000000000000000 ) ) ;
#336 = LINE ( 'NONE', #178, #21 ) ;
#337 = CARTESIAN_POINT ( 'NONE',  ( 1.490862531686017753E-13, -5.229241832359197610E-15, 42.69999999999999574 ) ) ;
ENDSEC;
END-ISO-10303-21;
