ISO-10303-21;
HEADER;
FILE_DESCRIPTION (( 'STEP AP203' ),
    '1' );
FILE_NAME ('54531.step',
    '2021-09-03T07:49:14',
    ( '' ),
    ( '' ),
    'SwSTEP 2.0',
    'SolidWorks 2019',
    '' );
FILE_SCHEMA (( 'CONFIG_CONTROL_DESIGN' ));
ENDSEC;

DATA;
#1 = AXIS2_PLACEMENT_3D ( 'NONE', #38, #187, #296 ) ;
#2 = AXIS2_PLACEMENT_3D ( 'NONE', #248, #336, #50 ) ;
#3 = PERSON_AND_ORGANIZATION ( #225, #282 ) ;
#4 = ORIENTED_EDGE ( 'NONE', *, *, #181, .F. ) ;
#5 = ORIENTED_EDGE ( 'NONE', *, *, #118, .F. ) ;
#6 = CC_DESIGN_PERSON_AND_ORGANIZATION_ASSIGNMENT ( #311, #79, ( #314 ) ) ;
#7 = SHAPE_DEFINITION_REPRESENTATION ( #240, #305 ) ;
#8 = AXIS2_PLACEMENT_3D ( 'NONE', #330, #170, #274 ) ;
#9 = DIRECTION ( 'NONE',  ( -3.491481338843133355E-15, 1.224646799147353207E-16, -1.000000000000000000 ) ) ;
#10 = FACE_OUTER_BOUND ( 'NONE', #318, .T. ) ;
#11 = EDGE_CURVE ( 'NONE', #84, #238, #97, .T. ) ;
#12 = ORIENTED_EDGE ( 'NONE', *, *, #287, .T. ) ;
#13 = ORIENTED_EDGE ( 'NONE', *, *, #11, .T. ) ;
#14 = DIRECTION ( 'NONE',  ( 4.275831445896957731E-31, 1.000000000000000000, 1.224646799147353207E-16 ) ) ;
#15 = CC_DESIGN_PERSON_AND_ORGANIZATION_ASSIGNMENT ( #165, #266, ( #46 ) ) ;
#16 = LINE ( 'NONE', #199, #275 ) ;
#17 = AXIS2_PLACEMENT_3D ( 'NONE', #209, #65, #234 ) ;
#18 = CARTESIAN_POINT ( 'NONE',  ( 3.840629472727446691E-14, -1.347111479062088405E-15, 11.00000000000000000 ) ) ;
#19 = AXIS2_PLACEMENT_3D ( 'NONE', #95, #196, #197 ) ;
#20 = CARTESIAN_POINT ( 'NONE',  ( 3.840629472727446691E-14, 1.199999999999995071, 11.00000000000000000 ) ) ;
#21 = LINE ( 'NONE', #72, #228 ) ;
#22 = CARTESIAN_POINT ( 'NONE',  ( 1.469576158976816897E-16, -1.199999999999998401, -1.469576158976826758E-16 ) ) ;
#23 = AXIS2_PLACEMENT_3D ( 'NONE', #18, #271, #217 ) ;
#24 = PERSON_AND_ORGANIZATION ( #225, #282 ) ;
#25 = ADVANCED_FACE ( 'NONE', ( #321 ), #113, .T. ) ;
#26 = ORIENTED_EDGE ( 'NONE', *, *, #233, .T. ) ;
#27 = COORDINATED_UNIVERSAL_TIME_OFFSET ( 1, 0, .AHEAD. ) ;
#28 = VERTEX_POINT ( 'NONE', #90 ) ;
#29 = AXIS2_PLACEMENT_3D ( 'NONE', #77, #229, #158 ) ;
#30 = ADVANCED_FACE ( 'NONE', ( #323 ), #91, .T. ) ;
#31 = CALENDAR_DATE ( 2021, 3, 9 ) ;
#32 = ORIENTED_EDGE ( 'NONE', *, *, #215, .F. ) ;
#33 = CARTESIAN_POINT ( 'NONE',  ( 0.0000000000000000000, 0.0000000000000000000, 0.0000000000000000000 ) ) ;
#34 = CIRCLE ( 'NONE', #159, 0.9000000000000004663 ) ;
#35 = APPROVAL_PERSON_ORGANIZATION ( #200, #148, #124 ) ;
#36 = ORIENTED_EDGE ( 'NONE', *, *, #132, .T. ) ;
#37 = EDGE_CURVE ( 'NONE', #106, #254, #265, .T. ) ;
#38 = CARTESIAN_POINT ( 'NONE',  ( 3.840629472727446691E-14, 8.998558695971099120E-33, 11.00000000000000000 ) ) ;
#39 = CARTESIAN_POINT ( 'NONE',  ( 0.0000000000000000000, 0.0000000000000000000, 0.0000000000000000000 ) ) ;
#40 = APPROVAL ( #335, 'UNSPECIFIED' ) ;
#41 = FACE_OUTER_BOUND ( 'NONE', #214, .T. ) ;
#42 = FACE_OUTER_BOUND ( 'NONE', #211, .T. ) ;
#43 = DIRECTION ( 'NONE',  ( 0.0000000000000000000, 1.000000000000000000, 0.0000000000000000000 ) ) ;
#44 = AXIS2_PLACEMENT_3D ( 'NONE', #121, #149, #96 ) ;
#45 = FACE_OUTER_BOUND ( 'NONE', #292, .T. ) ;
#46 = SECURITY_CLASSIFICATION ( '', '', #268 ) ;
#47 = FACE_OUTER_BOUND ( 'NONE', #164, .T. ) ;
#48 = CARTESIAN_POINT ( 'NONE',  ( 1.501336975702547217E-13, -5.265981236333618470E-15, 43.00000000000000000 ) ) ;
#49 = LOCAL_TIME ( 9, 49, 14.00000000000000000, #135 ) ;
#50 = DIRECTION ( 'NONE',  ( -3.209883240645406372E-31, -1.000000000000000000, -9.035018104045907672E-17 ) ) ;
#51 = ORIENTED_EDGE ( 'NONE', *, *, #233, .F. ) ;
#52 = ORIENTED_EDGE ( 'NONE', *, *, #193, .T. ) ;
#53 = PRODUCT_RELATED_PRODUCT_CATEGORY ( 'detail', '', ( #317 ) ) ;
#54 = CYLINDRICAL_SURFACE ( 'NONE', #29, 1.199999999999998401 ) ;
#55 = APPROVAL_DATE_TIME ( #156, #40 ) ;
#56 = ORIENTED_EDGE ( 'NONE', *, *, #223, .F. ) ;
#57 = DIRECTION ( 'NONE',  ( 4.275831445896958607E-31, 1.000000000000000000, 1.224646799147353207E-16 ) ) ;
#58 = ORIENTED_EDGE ( 'NONE', *, *, #250, .F. ) ;
#59 = EDGE_CURVE ( 'NONE', #254, #125, #261, .T. ) ;
#60 = CLOSED_SHELL ( 'NONE', ( #30, #273, #246, #104, #86 ) ) ;
#61 = AXIS2_PLACEMENT_3D ( 'NONE', #119, #218, #194 ) ;
#62 = DESIGN_CONTEXT ( 'detailed design', #333, 'design' ) ;
#63 = DIRECTION ( 'NONE',  ( -3.491481338843133355E-15, 1.224646799147353207E-16, -1.000000000000000000 ) ) ;
#64 = DATE_AND_TIME ( #210, #49 ) ;
#65 = DIRECTION ( 'NONE',  ( -3.491481338843133355E-15, 1.224646799147353207E-16, -1.000000000000000000 ) ) ;
#66 = ADVANCED_FACE ( 'NONE', ( #299 ), #89, .T. ) ;
#67 = DIRECTION ( 'NONE',  ( -3.491481338843133355E-15, 1.224646799147353207E-16, -1.000000000000000000 ) ) ;
#68 = AXIS2_PLACEMENT_3D ( 'NONE', #115, #136, #186 ) ;
#69 = DIRECTION ( 'NONE',  ( 1.798245827342160317E-15, -0.8571673007021098911, 0.5150380749100582634 ) ) ;
#70 = CARTESIAN_POINT ( 'NONE',  ( 2.517472366296569645E-15, -8.830104405909649359E-17, 0.7210327428330773891 ) ) ;
#71 = CARTESIAN_POINT ( 'NONE',  ( 1.469576158976813446E-16, -1.199999999999995737, -1.469576158976823553E-16 ) ) ;
#72 = CARTESIAN_POINT ( 'NONE',  ( 5.130997735076342796E-31, 1.199999999999998401, 1.469576158976821827E-16 ) ) ;
#73 = CC_DESIGN_PERSON_AND_ORGANIZATION_ASSIGNMENT ( #3, #312, ( #317 ) ) ;
#74 = PERSON_AND_ORGANIZATION ( #225, #282 ) ;
#75 = AXIS2_PLACEMENT_3D ( 'NONE', #242, #144, #150 ) ;
#76 = ORIENTED_EDGE ( 'NONE', *, *, #155, .F. ) ;
#77 = CARTESIAN_POINT ( 'NONE',  ( 0.0000000000000000000, 0.0000000000000000000, 0.0000000000000000000 ) ) ;
#78 = ORIENTED_EDGE ( 'NONE', *, *, #145, .F. ) ;
#79 = PERSON_AND_ORGANIZATION_ROLE ( 'creator' ) ;
#80 = CC_DESIGN_DATE_AND_TIME_ASSIGNMENT ( #127, #99, ( #301 ) ) ;
#81 = MECHANICAL_CONTEXT ( 'NONE', #257, 'mechanical' ) ;
#82 = ORIENTED_EDGE ( 'NONE', *, *, #219, .F. ) ;
#83 = CIRCLE ( 'NONE', #8, 1.200000000000000400 ) ;
#84 = VERTEX_POINT ( 'NONE', #260 ) ;
#85 = PERSON_AND_ORGANIZATION_ROLE ( 'design_supplier' ) ;
#86 = ADVANCED_FACE ( 'NONE', ( #10 ), #111, .T. ) ;
#87 = ORIENTED_EDGE ( 'NONE', *, *, #256, .F. ) ;
#88 = DATE_AND_TIME ( #259, #206 ) ;
#89 = CYLINDRICAL_SURFACE ( 'NONE', #251, 1.199999999999998401 ) ;
#90 = CARTESIAN_POINT ( 'NONE',  ( 1.490862531686017501E-13, 1.199999999999995071, 42.69999999999998863 ) ) ;
#91 = CYLINDRICAL_SURFACE ( 'NONE', #237, 1.199999999999995737 ) ;
#92 = CARTESIAN_POINT ( 'NONE',  ( 9.389323156383574145E-14, -1.199999999999997735, 11.00000000000000000 ) ) ;
#93 = FACE_OUTER_BOUND ( 'NONE', #137, .T. ) ;
#94 = EDGE_CURVE ( 'NONE', #84, #254, #216, .T. ) ;
#95 = CARTESIAN_POINT ( 'NONE',  ( 3.840629472727446691E-14, -1.347111479062088405E-15, 11.00000000000000000 ) ) ;
#96 = DIRECTION ( 'NONE',  ( -4.275831445896958607E-31, -1.000000000000000000, -1.224646799147353207E-16 ) ) ;
#97 = CIRCLE ( 'NONE', #289, 1.199999999999996403 ) ;
#98 = DIRECTION ( 'NONE',  ( 0.0000000000000000000, 1.000000000000000000, 0.0000000000000000000 ) ) ;
#99 = DATE_TIME_ROLE ( 'creation_date' ) ;
#100 = CARTESIAN_POINT ( 'NONE',  ( 1.502439157821779858E-13, -0.9000000000000057954, 43.00000000000000000 ) ) ;
#101 = CC_DESIGN_APPROVAL ( #291, ( #46 ) ) ;
#102 = ORIENTED_EDGE ( 'NONE', *, *, #215, .T. ) ;
#103 = APPROVAL_DATE_TIME ( #202, #148 ) ;
#104 = ADVANCED_FACE ( 'NONE', ( #41 ), #324, .T. ) ;
#105 = APPLICATION_PROTOCOL_DEFINITION ( 'international standard', 'config_control_design', 1994, #333 ) ;
#106 = VERTEX_POINT ( 'NONE', #33 ) ;
#107 = AXIS2_PLACEMENT_3D ( 'NONE', #39, #67, #57 ) ;
#108 = VECTOR ( 'NONE', #224, 999.9999999999998863 ) ;
#109 = COORDINATED_UNIVERSAL_TIME_OFFSET ( 1, 0, .AHEAD. ) ;
#110 = ORIENTED_EDGE ( 'NONE', *, *, #322, .T. ) ;
#111 = PLANE ( 'NONE',  #1 ) ;
#112 = DIRECTION ( 'NONE',  ( 0.0000000000000000000, 1.000000000000000000, 0.0000000000000000000 ) ) ;
#113 = CONICAL_SURFACE ( 'NONE', #17, 0.9000000000000004663, 0.7853981633974336241 ) ;
#114 = ORIENTED_EDGE ( 'NONE', *, *, #219, .T. ) ;
#115 = CARTESIAN_POINT ( 'NONE',  ( 2.517472366296569645E-15, -8.830104405909649359E-17, 0.7210327428330773891 ) ) ;
#116 = DIRECTION ( 'NONE',  ( -3.491481338843133355E-15, 1.224646799147353207E-16, -1.000000000000000000 ) ) ;
#117 = VECTOR ( 'NONE', #302, 1000.000000000000000 ) ;
#118 = EDGE_CURVE ( 'NONE', #184, #227, #34, .T. ) ;
#119 = CARTESIAN_POINT ( 'NONE',  ( 2.517472366296569645E-15, -8.830104405909649359E-17, 0.7210327428330773891 ) ) ;
#120 = CARTESIAN_POINT ( 'NONE',  ( 1.497385632833387065E-13, -0.9000000000000057954, 43.00000000000000000 ) ) ;
#121 = CARTESIAN_POINT ( 'NONE',  ( 3.840629472727446691E-14, 8.998558695971099120E-33, 11.00000000000000000 ) ) ;
#122 = CARTESIAN_POINT ( 'NONE',  ( 1.490862531686017501E-13, -5.229241832359196822E-15, 42.69999999999998863 ) ) ;
#123 = LINE ( 'NONE', #100, #262 ) ;
#124 = APPROVAL_ROLE ( '' ) ;
#125 = VERTEX_POINT ( 'NONE', #146 ) ;
#126 = ADVANCED_FACE ( 'NONE', ( #42 ), #325, .T. ) ;
#127 = DATE_AND_TIME ( #31, #276 ) ;
#128 = VECTOR ( 'NONE', #63, 1000.000000000000000 ) ;
#129 = EDGE_LOOP ( 'NONE', ( #52, #337, #51, #32 ) ) ;
#130 =( NAMED_UNIT ( * ) SI_UNIT ( $, .STERADIAN. ) SOLID_ANGLE_UNIT ( ) );
#131 = CARTESIAN_POINT ( 'NONE',  ( 1.501336975702547217E-13, 0.8999999999999952482, 43.00000000000000000 ) ) ;
#132 = EDGE_CURVE ( 'NONE', #238, #84, #281, .T. ) ;
#133 = CARTESIAN_POINT ( 'NONE',  ( 1.501336975702547217E-13, -5.265981236333618470E-15, 43.00000000000000000 ) ) ;
#134 = AXIS2_PLACEMENT_3D ( 'NONE', #48, #116, #169 ) ;
#135 = COORDINATED_UNIVERSAL_TIME_OFFSET ( 1, 0, .AHEAD. ) ;
#136 = DIRECTION ( 'NONE',  ( -3.491481338843133355E-15, 1.224646799147353207E-16, -1.000000000000000000 ) ) ;
#137 = EDGE_LOOP ( 'NONE', ( #231, #114, #286 ) ) ;
#138 = CC_DESIGN_PERSON_AND_ORGANIZATION_ASSIGNMENT ( #74, #258, ( #301 ) ) ;
#139 = ORIENTED_EDGE ( 'NONE', *, *, #94, .T. ) ;
#140 = CIRCLE ( 'NONE', #134, 0.9000000000000004663 ) ;
#141 = LOCAL_TIME ( 9, 49, 14.00000000000000000, #283 ) ;
#142 = CC_DESIGN_APPROVAL ( #40, ( #301 ) ) ;
#143 = EDGE_LOOP ( 'NONE', ( #78, #315, #102, #58 ) ) ;
#144 = DIRECTION ( 'NONE',  ( -3.491481338843133355E-15, 1.224646799147353207E-16, -1.000000000000000000 ) ) ;
#145 = EDGE_CURVE ( 'NONE', #284, #232, #249, .T. ) ;
#146 = CARTESIAN_POINT ( 'NONE',  ( 2.517472366296569251E-15, -1.199999999999995071, 0.7210327428330772781 ) ) ;
#147 = APPROVAL_PERSON_ORGANIZATION ( #24, #40, #288 ) ;
#148 = APPROVAL ( #253, 'UNSPECIFIED' ) ;
#149 = DIRECTION ( 'NONE',  ( 3.491481338843133355E-15, -1.224646799147353207E-16, 1.000000000000000000 ) ) ;
#150 = DIRECTION ( 'NONE',  ( 0.0000000000000000000, 1.000000000000000000, 0.0000000000000000000 ) ) ;
#151 = CONICAL_SURFACE ( 'NONE', #61, 1.199999999999995071, 1.029744258676649649 ) ;
#152 = DIRECTION ( 'NONE',  ( -2.382254525458753757E-15, -0.7071067811865370256, -0.7071067811865580088 ) ) ;
#153 = UNCERTAINTY_MEASURE_WITH_UNIT (LENGTH_MEASURE( 1.000000000000000082E-05 ), #160, 'distance_accuracy_value', 'NONE');
#154 = EDGE_LOOP ( 'NONE', ( #13, #230, #307, #255 ) ) ;
#155 = EDGE_CURVE ( 'NONE', #227, #184, #140, .T. ) ;
#156 = DATE_AND_TIME ( #290, #245 ) ;
#157 = VERTEX_POINT ( 'NONE', #20 ) ;
#158 = DIRECTION ( 'NONE',  ( 4.275831445896957731E-31, 1.000000000000000000, 1.224646799147353207E-16 ) ) ;
#159 = AXIS2_PLACEMENT_3D ( 'NONE', #133, #174, #175 ) ;
#160 =( LENGTH_UNIT ( ) NAMED_UNIT ( * ) SI_UNIT ( .MILLI., .METRE. ) );
#161 = ORIENTED_EDGE ( 'NONE', *, *, #11, .F. ) ;
#162 = DIRECTION ( 'NONE',  ( 4.275831445896958607E-31, 1.000000000000000000, 1.224646799147353207E-16 ) ) ;
#163 = DATE_TIME_ROLE ( 'classification_date' ) ;
#164 = EDGE_LOOP ( 'NONE', ( #82, #293, #207 ) ) ;
#165 = PERSON_AND_ORGANIZATION ( #225, #282 ) ;
#166 = DIRECTION ( 'NONE',  ( -3.491481338843133355E-15, 1.224646799147353207E-16, -1.000000000000000000 ) ) ;
#167 = CARTESIAN_POINT ( 'NONE',  ( 3.840629472727446691E-14, -1.347111479062088405E-15, 11.00000000000000000 ) ) ;
#168 = CONICAL_SURFACE ( 'NONE', #2, 1.199999999999995071, 1.029744258676649649 ) ;
#169 = DIRECTION ( 'NONE',  ( 0.0000000000000000000, 1.000000000000000000, 0.0000000000000000000 ) ) ;
#170 = DIRECTION ( 'NONE',  ( -3.491481338843133355E-15, 1.224646799147353207E-16, -1.000000000000000000 ) ) ;
#171 = DIRECTION ( 'NONE',  ( -3.491481338843133355E-15, 1.224646799147353207E-16, -1.000000000000000000 ) ) ;
#172 = CC_DESIGN_PERSON_AND_ORGANIZATION_ASSIGNMENT ( #235, #85, ( #314 ) ) ;
#173 = CIRCLE ( 'NONE', #19, 1.199999999999996403 ) ;
#174 = DIRECTION ( 'NONE',  ( -3.491481338843133355E-15, 1.224646799147353207E-16, -1.000000000000000000 ) ) ;
#175 = DIRECTION ( 'NONE',  ( 0.0000000000000000000, 1.000000000000000000, 0.0000000000000000000 ) ) ;
#176 = CARTESIAN_POINT ( 'NONE',  ( 0.0000000000000000000, 0.0000000000000000000, 0.0000000000000000000 ) ) ;
#177 = ORIENTED_EDGE ( 'NONE', *, *, #118, .T. ) ;
#178 = APPLICATION_PROTOCOL_DEFINITION ( 'international standard', 'config_control_design', 1994, #257 ) ;
#179 = ORIENTED_EDGE ( 'NONE', *, *, #155, .T. ) ;
#180 =( NAMED_UNIT ( * ) PLANE_ANGLE_UNIT ( ) SI_UNIT ( $, .RADIAN. ) );
#181 = EDGE_CURVE ( 'NONE', #125, #254, #331, .T. ) ;
#182 = CLOSED_SHELL ( 'NONE', ( #126, #66, #203, #310, #25, #189 ) ) ;
#183 = DIRECTION ( 'NONE',  ( 1.000000000000000000, 0.0000000000000000000, 0.0000000000000000000 ) ) ;
#184 = VERTEX_POINT ( 'NONE', #120 ) ;
#185 = CARTESIAN_POINT ( 'NONE',  ( 0.0000000000000000000, 0.0000000000000000000, 0.0000000000000000000 ) ) ;
#186 = DIRECTION ( 'NONE',  ( 3.209883240645406372E-31, 1.000000000000000000, 9.035018104045907672E-17 ) ) ;
#187 = DIRECTION ( 'NONE',  ( 3.491481338843133355E-15, -1.224646799147353207E-16, 1.000000000000000000 ) ) ;
#188 = AXIS2_PLACEMENT_3D ( 'NONE', #328, #277, #222 ) ;
#189 = ADVANCED_FACE ( 'NONE', ( #327 ), #220, .F. ) ;
#190 = APPROVAL_PERSON_ORGANIZATION ( #213, #291, #294 ) ;
#191 = EDGE_LOOP ( 'NONE', ( #236, #177, #12, #56 ) ) ;
#192 = CARTESIAN_POINT ( 'NONE',  ( 0.0000000000000000000, 0.0000000000000000000, 0.0000000000000000000 ) ) ;
#193 = EDGE_CURVE ( 'NONE', #28, #284, #83, .T. ) ;
#194 = DIRECTION ( 'NONE',  ( -3.209883240645406372E-31, -1.000000000000000000, -9.035018104045907672E-17 ) ) ;
#195 = DIRECTION ( 'NONE',  ( -3.491481338843133355E-15, 1.224646799147353207E-16, -1.000000000000000000 ) ) ;
#196 = DIRECTION ( 'NONE',  ( -3.491481338843133355E-15, 1.224646799147353207E-16, -1.000000000000000000 ) ) ;
#197 = DIRECTION ( 'NONE',  ( 0.0000000000000000000, 1.000000000000000000, 0.0000000000000000000 ) ) ;
#198 = VECTOR ( 'NONE', #303, 1000.000000000000000 ) ;
#199 = CARTESIAN_POINT ( 'NONE',  ( 2.517472366296569251E-15, -1.199999999999995071, 0.7210327428330772781 ) ) ;
#200 = PERSON_AND_ORGANIZATION ( #225, #282 ) ;
#201 = AXIS2_PLACEMENT_3D ( 'NONE', #176, #285, #183 ) ;
#202 = DATE_AND_TIME ( #226, #141 ) ;
#203 = ADVANCED_FACE ( 'NONE', ( #45 ), #306, .F. ) ;
#204 = FACE_OUTER_BOUND ( 'NONE', #143, .T. ) ;
#205 = ORIENTED_EDGE ( 'NONE', *, *, #250, .T. ) ;
#206 = LOCAL_TIME ( 9, 49, 14.00000000000000000, #109 ) ;
#207 = ORIENTED_EDGE ( 'NONE', *, *, #59, .T. ) ;
#208 = ORIENTED_EDGE ( 'NONE', *, *, #193, .F. ) ;
#209 = CARTESIAN_POINT ( 'NONE',  ( 1.501336975702547217E-13, -5.265981236333618470E-15, 43.00000000000000000 ) ) ;
#210 = CALENDAR_DATE ( 2021, 3, 9 ) ;
#211 = EDGE_LOOP ( 'NONE', ( #179, #110, #208, #313 ) ) ;
#212 = CC_DESIGN_SECURITY_CLASSIFICATION ( #46, ( #314 ) ) ;
#213 = PERSON_AND_ORGANIZATION ( #225, #282 ) ;
#214 = EDGE_LOOP ( 'NONE', ( #87, #36, #139, #4 ) ) ;
#215 = EDGE_CURVE ( 'NONE', #28, #157, #21, .T. ) ;
#216 = LINE ( 'NONE', #267, #128 ) ;
#217 = DIRECTION ( 'NONE',  ( 0.0000000000000000000, 1.000000000000000000, 0.0000000000000000000 ) ) ;
#218 = DIRECTION ( 'NONE',  ( 3.491481338843133355E-15, -1.224646799147353207E-16, 1.000000000000000000 ) ) ;
#219 = EDGE_CURVE ( 'NONE', #106, #125, #16, .T. ) ;
#220 = PLANE ( 'NONE',  #188 ) ;
#221 = CARTESIAN_POINT ( 'NONE',  ( 3.840629472727446691E-14, -1.347111479062088405E-15, 11.00000000000000000 ) ) ;
#222 = DIRECTION ( 'NONE',  ( 4.275831445896958607E-31, 1.000000000000000000, 1.224646799147353207E-16 ) ) ;
#223 = EDGE_CURVE ( 'NONE', #284, #28, #319, .T. ) ;
#224 = DIRECTION ( 'NONE',  ( -2.468850131082301237E-15, 0.7071067811865372477, -0.7071067811865578978 ) ) ;
#225 = PERSON ( 'UNSPECIFIED', 'UNSPECIFIED', 'UNSPECIFIED', ('UNSPECIFIED'), ('UNSPECIFIED'), ('UNSPECIFIED') ) ;
#226 = CALENDAR_DATE ( 2021, 3, 9 ) ;
#227 = VERTEX_POINT ( 'NONE', #243 ) ;
#228 = VECTOR ( 'NONE', #195, 1000.000000000000000 ) ;
#229 = DIRECTION ( 'NONE',  ( -3.491481338843133355E-15, 1.224646799147353207E-16, -1.000000000000000000 ) ) ;
#230 = ORIENTED_EDGE ( 'NONE', *, *, #256, .T. ) ;
#231 = ORIENTED_EDGE ( 'NONE', *, *, #37, .F. ) ;
#232 = VERTEX_POINT ( 'NONE', #92 ) ;
#233 = EDGE_CURVE ( 'NONE', #157, #232, #252, .T. ) ;
#234 = DIRECTION ( 'NONE',  ( 0.0000000000000000000, 1.000000000000000000, 0.0000000000000000000 ) ) ;
#235 = PERSON_AND_ORGANIZATION ( #225, #282 ) ;
#236 = ORIENTED_EDGE ( 'NONE', *, *, #322, .F. ) ;
#237 = AXIS2_PLACEMENT_3D ( 'NONE', #192, #9, #162 ) ;
#238 = VERTEX_POINT ( 'NONE', #326 ) ;
#239 =( GEOMETRIC_REPRESENTATION_CONTEXT ( 3 ) GLOBAL_UNCERTAINTY_ASSIGNED_CONTEXT ( ( #153 ) ) GLOBAL_UNIT_ASSIGNED_CONTEXT ( ( #160, #180, #130 ) ) REPRESENTATION_CONTEXT ( 'NONE', 'WORKASPACE' ) );
#240 = PRODUCT_DEFINITION_SHAPE ( 'NONE', 'NONE',  #301 ) ;
#241 = EDGE_LOOP ( 'NONE', ( #76, #5 ) ) ;
#242 = CARTESIAN_POINT ( 'NONE',  ( 1.501336975702547217E-13, -5.265981236333618470E-15, 43.00000000000000000 ) ) ;
#243 = CARTESIAN_POINT ( 'NONE',  ( 1.501336975702547217E-13, 0.8999999999999952482, 43.00000000000000000 ) ) ;
#244 = VECTOR ( 'NONE', #263, 999.9999999999998863 ) ;
#245 = LOCAL_TIME ( 9, 49, 14.00000000000000000, #27 ) ;
#246 = ADVANCED_FACE ( 'NONE', ( #93 ), #151, .T. ) ;
#247 = DIRECTION ( 'NONE',  ( -3.491481338843133355E-15, 1.224646799147353207E-16, -1.000000000000000000 ) ) ;
#248 = CARTESIAN_POINT ( 'NONE',  ( 2.517472366296569645E-15, -8.830104405909649359E-17, 0.7210327428330773891 ) ) ;
#249 = LINE ( 'NONE', #22, #117 ) ;
#250 = EDGE_CURVE ( 'NONE', #232, #157, #173, .T. ) ;
#251 = AXIS2_PLACEMENT_3D ( 'NONE', #185, #298, #14 ) ;
#252 = CIRCLE ( 'NONE', #23, 1.199999999999996403 ) ;
#253 = APPROVAL_STATUS ( 'not_yet_approved' ) ;
#254 = VERTEX_POINT ( 'NONE', #300 ) ;
#255 = ORIENTED_EDGE ( 'NONE', *, *, #94, .F. ) ;
#256 = EDGE_CURVE ( 'NONE', #238, #125, #304, .T. ) ;
#257 = APPLICATION_CONTEXT ( 'configuration controlled 3d designs of mechanical parts and assemblies' ) ;
#258 = PERSON_AND_ORGANIZATION_ROLE ( 'creator' ) ;
#259 = CALENDAR_DATE ( 2021, 3, 9 ) ;
#260 = CARTESIAN_POINT ( 'NONE',  ( 3.840629472727446691E-14, 1.199999999999995071, 11.00000000000000000 ) ) ;
#261 = CIRCLE ( 'NONE', #68, 1.199999999999995071 ) ;
#262 = VECTOR ( 'NONE', #152, 1000.000000000000000 ) ;
#263 = DIRECTION ( 'NONE',  ( 1.903218546456022717E-15, 0.8571673007021097801, 0.5150380749100585964 ) ) ;
#264 = APPROVAL_STATUS ( 'not_yet_approved' ) ;
#265 = LINE ( 'NONE', #270, #244 ) ;
#266 = PERSON_AND_ORGANIZATION_ROLE ( 'classification_officer' ) ;
#267 = CARTESIAN_POINT ( 'NONE',  ( 5.130997735076332286E-31, 1.199999999999995737, 1.469576158976818622E-16 ) ) ;
#268 = SECURITY_CLASSIFICATION_LEVEL ( 'unclassified' ) ;
#269 = AXIS2_PLACEMENT_3D ( 'NONE', #221, #247, #98 ) ;
#270 = CARTESIAN_POINT ( 'NONE',  ( 2.664429982194252296E-15, 1.199999999999995071, 0.7210327428330775001 ) ) ;
#271 = DIRECTION ( 'NONE',  ( -3.491481338843133355E-15, 1.224646799147353207E-16, -1.000000000000000000 ) ) ;
#272 = DIRECTION ( 'NONE',  ( -3.491481338843133355E-15, 1.224646799147353207E-16, -1.000000000000000000 ) ) ;
#273 = ADVANCED_FACE ( 'NONE', ( #47 ), #168, .T. ) ;
#274 = DIRECTION ( 'NONE',  ( 0.0000000000000000000, 1.000000000000000000, 0.0000000000000000000 ) ) ;
#275 = VECTOR ( 'NONE', #69, 1000.000000000000000 ) ;
#276 = LOCAL_TIME ( 9, 49, 14.00000000000000000, #334 ) ;
#277 = DIRECTION ( 'NONE',  ( -3.491481338843133355E-15, 1.224646799147353207E-16, -1.000000000000000000 ) ) ;
#278 = CC_DESIGN_DATE_AND_TIME_ASSIGNMENT ( #88, #163, ( #46 ) ) ;
#279 = DIRECTION ( 'NONE',  ( 3.209883240645406372E-31, 1.000000000000000000, 9.035018104045907672E-17 ) ) ;
#280 = LINE ( 'NONE', #131, #108 ) ;
#281 = CIRCLE ( 'NONE', #269, 1.199999999999996403 ) ;
#282 = ORGANIZATION ( 'UNSPECIFIED', 'UNSPECIFIED', '' ) ;
#283 = COORDINATED_UNIVERSAL_TIME_OFFSET ( 1, 0, .AHEAD. ) ;
#284 = VERTEX_POINT ( 'NONE', #309 ) ;
#285 = DIRECTION ( 'NONE',  ( 0.0000000000000000000, 0.0000000000000000000, 1.000000000000000000 ) ) ;
#286 = ORIENTED_EDGE ( 'NONE', *, *, #181, .T. ) ;
#287 = EDGE_CURVE ( 'NONE', #227, #28, #280, .T. ) ;
#288 = APPROVAL_ROLE ( '' ) ;
#289 = AXIS2_PLACEMENT_3D ( 'NONE', #167, #166, #112 ) ;
#290 = CALENDAR_DATE ( 2021, 3, 9 ) ;
#291 = APPROVAL ( #264, 'UNSPECIFIED' ) ;
#292 = EDGE_LOOP ( 'NONE', ( #26, #205 ) ) ;
#293 = ORIENTED_EDGE ( 'NONE', *, *, #37, .T. ) ;
#294 = APPROVAL_ROLE ( '' ) ;
#295 = CC_DESIGN_APPROVAL ( #148, ( #314 ) ) ;
#296 = DIRECTION ( 'NONE',  ( -4.275831445896958607E-31, -1.000000000000000000, -1.224646799147353207E-16 ) ) ;
#297 = APPROVAL_DATE_TIME ( #64, #291 ) ;
#298 = DIRECTION ( 'NONE',  ( -3.491481338843133355E-15, 1.224646799147353207E-16, -1.000000000000000000 ) ) ;
#299 = FACE_OUTER_BOUND ( 'NONE', #129, .T. ) ;
#300 = CARTESIAN_POINT ( 'NONE',  ( 2.664429982194252296E-15, 1.199999999999995071, 0.7210327428330775001 ) ) ;
#301 = PRODUCT_DEFINITION ( 'UNKNOWN', '', #314, #62 ) ;
#302 = DIRECTION ( 'NONE',  ( -3.491481338843133355E-15, 1.224646799147353207E-16, -1.000000000000000000 ) ) ;
#303 = DIRECTION ( 'NONE',  ( -3.491481338843133355E-15, 1.224646799147353207E-16, -1.000000000000000000 ) ) ;
#304 = LINE ( 'NONE', #71, #198 ) ;
#305 = ADVANCED_BREP_SHAPE_REPRESENTATION ( '54531', ( #329, #332, #201 ), #239 ) ;
#306 = PLANE ( 'NONE',  #44 ) ;
#307 = ORIENTED_EDGE ( 'NONE', *, *, #59, .F. ) ;
#308 = AXIS2_PLACEMENT_3D ( 'NONE', #70, #171, #279 ) ;
#309 = CARTESIAN_POINT ( 'NONE',  ( 9.389323156383560261E-14, -1.200000000000005507, 42.69999999999998863 ) ) ;
#310 = ADVANCED_FACE ( 'NONE', ( #204 ), #54, .T. ) ;
#311 = PERSON_AND_ORGANIZATION ( #225, #282 ) ;
#312 = PERSON_AND_ORGANIZATION_ROLE ( 'design_owner' ) ;
#313 = ORIENTED_EDGE ( 'NONE', *, *, #287, .F. ) ;
#314 = PRODUCT_DEFINITION_FORMATION_WITH_SPECIFIED_SOURCE ( 'ANY', '', #317, .NOT_KNOWN. ) ;
#315 = ORIENTED_EDGE ( 'NONE', *, *, #223, .T. ) ;
#316 = ORIENTED_EDGE ( 'NONE', *, *, #132, .F. ) ;
#317 = PRODUCT ( '54531', '54531', '', ( #81 ) ) ;
#318 = EDGE_LOOP ( 'NONE', ( #161, #316 ) ) ;
#319 = CIRCLE ( 'NONE', #320, 1.200000000000000400 ) ;
#320 = AXIS2_PLACEMENT_3D ( 'NONE', #122, #272, #43 ) ;
#321 = FACE_OUTER_BOUND ( 'NONE', #191, .T. ) ;
#322 = EDGE_CURVE ( 'NONE', #184, #284, #123, .T. ) ;
#323 = FACE_OUTER_BOUND ( 'NONE', #154, .T. ) ;
#324 = CYLINDRICAL_SURFACE ( 'NONE', #107, 1.199999999999995737 ) ;
#325 = CONICAL_SURFACE ( 'NONE', #75, 0.9000000000000004663, 0.7853981633974336241 ) ;
#326 = CARTESIAN_POINT ( 'NONE',  ( 2.060884116268318140E-14, -1.199999999999997735, 11.00000000000000000 ) ) ;
#327 = FACE_OUTER_BOUND ( 'NONE', #241, .T. ) ;
#328 = CARTESIAN_POINT ( 'NONE',  ( 1.501336975702547217E-13, 6.748919021978283970E-33, 43.00000000000000000 ) ) ;
#329 = MANIFOLD_SOLID_BREP ( 'Corps-Déplacer/Copier1[1]', #182 ) ;
#330 = CARTESIAN_POINT ( 'NONE',  ( 1.490862531686017501E-13, -5.229241832359196822E-15, 42.69999999999998863 ) ) ;
#331 = CIRCLE ( 'NONE', #308, 1.199999999999995071 ) ;
#332 = MANIFOLD_SOLID_BREP ( 'Corps-Déplacer/Copier1[2]', #60 ) ;
#333 = APPLICATION_CONTEXT ( 'configuration controlled 3d designs of mechanical parts and assemblies' ) ;
#334 = COORDINATED_UNIVERSAL_TIME_OFFSET ( 1, 0, .AHEAD. ) ;
#335 = APPROVAL_STATUS ( 'not_yet_approved' ) ;
#336 = DIRECTION ( 'NONE',  ( 3.491481338843133355E-15, -1.224646799147353207E-16, 1.000000000000000000 ) ) ;
#337 = ORIENTED_EDGE ( 'NONE', *, *, #145, .T. ) ;
ENDSEC;
END-ISO-10303-21;
