ISO-10303-21;
HEADER;
FILE_DESCRIPTION (( 'STEP AP203' ),
    '1' );
FILE_NAME ('54530.STEP',
    '2021-10-05T07:37:16',
    ( '' ),
    ( '' ),
    'SwSTEP 2.0',
    'SolidWorks 2019',
    '' );
FILE_SCHEMA (( 'CONFIG_CONTROL_DESIGN' ));
ENDSEC;

DATA;
#1 = CONICAL_SURFACE ( 'NONE', #172, 0.8749999999999978906, 0.7853981633974452814 ) ;
#2 = CALENDAR_DATE ( 2021, 5, 10 ) ;
#3 = ORIENTED_EDGE ( 'NONE', *, *, #107, .F. ) ;
#4 = APPROVAL_STATUS ( 'not_yet_approved' ) ;
#5 = DIRECTION ( 'NONE',  ( -3.491481338843133355E-15, 1.224646799147353207E-16, -1.000000000000000000 ) ) ;
#6 = DIRECTION ( 'NONE',  ( -3.491481338843133355E-15, 1.224646799147353207E-16, -1.000000000000000000 ) ) ;
#7 = VERTEX_POINT ( 'NONE', #99 ) ;
#8 = AXIS2_PLACEMENT_3D ( 'NONE', #9, #106, #140 ) ;
#9 = CARTESIAN_POINT ( 'NONE',  ( 2.465025025332053496E-15, -8.646143897453183129E-17, 0.7060112273573869723 ) ) ;
#10 = SECURITY_CLASSIFICATION ( '', '', #54 ) ;
#11 = AXIS2_PLACEMENT_3D ( 'NONE', #190, #84, #67 ) ;
#12 = COORDINATED_UNIVERSAL_TIME_OFFSET ( 1, 0, .AHEAD. ) ;
#13 = EDGE_CURVE ( 'NONE', #46, #46, #143, .T. ) ;
#14 = PERSON_AND_ORGANIZATION ( #83, #139 ) ;
#15 = EDGE_LOOP ( 'NONE', ( #3 ) ) ;
#16 = ORIENTED_EDGE ( 'NONE', *, *, #69, .F. ) ;
#17 = CALENDAR_DATE ( 2021, 5, 10 ) ;
#18 = MANIFOLD_SOLID_BREP ( 'Corps-Déplacer/Copier1[1]', #194 ) ;
#19 = MANIFOLD_SOLID_BREP ( 'Corps-Déplacer/Copier1[2]', #28 ) ;
#20 = DIRECTION ( 'NONE',  ( 3.491481338843133355E-15, -1.224646799147353207E-16, 1.000000000000000000 ) ) ;
#21 = AXIS2_PLACEMENT_3D ( 'NONE', #197, #6, #138 ) ;
#22 = DIRECTION ( 'NONE',  ( 4.275831445896959482E-31, 1.000000000000000000, 1.224646799147353207E-16 ) ) ;
#23 = ADVANCED_FACE ( 'NONE', ( #196 ), #121, .T. ) ;
#24 = DIRECTION ( 'NONE',  ( -4.275831445896958607E-31, -1.000000000000000000, -1.224646799147353207E-16 ) ) ;
#25 = APPLICATION_CONTEXT ( 'configuration controlled 3d designs of mechanical parts and assemblies' ) ;
#26 = APPROVAL_DATE_TIME ( #96, #137 ) ;
#27 = APPLICATION_PROTOCOL_DEFINITION ( 'international standard', 'config_control_design', 1994, #188 ) ;
#28 = CLOSED_SHELL ( 'NONE', ( #157, #100, #23 ) ) ;
#29 = DIRECTION ( 'NONE',  ( -3.491481338843133355E-15, 1.224646799147353207E-16, -1.000000000000000000 ) ) ;
#30 = EDGE_CURVE ( 'NONE', #78, #78, #66, .T. ) ;
#31 = LOCAL_TIME ( 9, 37, 16.00000000000000000, #127 ) ;
#32 = APPROVAL ( #4, 'UNSPECIFIED' ) ;
#33 = PERSON_AND_ORGANIZATION_ROLE ( 'design_owner' ) ;
#34 = CALENDAR_DATE ( 2021, 5, 10 ) ;
#35 = EDGE_LOOP ( 'NONE', ( #193 ) ) ;
#36 = ORIENTED_EDGE ( 'NONE', *, *, #13, .F. ) ;
#37 = EDGE_CURVE ( 'NONE', #7, #7, #61, .T. ) ;
#38 = PERSON_AND_ORGANIZATION_ROLE ( 'creator' ) ;
#39 = DIRECTION ( 'NONE',  ( 0.0000000000000000000, 1.000000000000000000, 0.0000000000000000000 ) ) ;
#40 = PERSON_AND_ORGANIZATION_ROLE ( 'classification_officer' ) ;
#41 = ORIENTED_EDGE ( 'NONE', *, *, #107, .T. ) ;
#42 = APPROVAL_STATUS ( 'not_yet_approved' ) ;
#43 = DIRECTION ( 'NONE',  ( -3.491481338843133355E-15, 1.224646799147353207E-16, -1.000000000000000000 ) ) ;
#44 = AXIS2_PLACEMENT_3D ( 'NONE', #103, #164, #74 ) ;
#45 = FACE_OUTER_BOUND ( 'NONE', #180, .T. ) ;
#46 = VERTEX_POINT ( 'NONE', #170 ) ;
#47 = DIRECTION ( 'NONE',  ( -3.278178628744250777E-31, -1.000000000000000000, -9.227252531791582093E-17 ) ) ;
#48 = LOCAL_TIME ( 9, 37, 16.00000000000000000, #105 ) ;
#49 = PRODUCT ( '54530', '54530', '', ( #64 ) ) ;
#50 = EDGE_LOOP ( 'NONE', ( #16 ) ) ;
#51 = AXIS2_PLACEMENT_3D ( 'NONE', #126, #113, #136 ) ;
#52 = PERSON_AND_ORGANIZATION ( #83, #139 ) ;
#53 = EDGE_LOOP ( 'NONE', ( #71 ) ) ;
#54 = SECURITY_CLASSIFICATION_LEVEL ( 'unclassified' ) ;
#55 = EDGE_LOOP ( 'NONE', ( #41 ) ) ;
#56 = ORIENTED_EDGE ( 'NONE', *, *, #37, .T. ) ;
#57 = CARTESIAN_POINT ( 'NONE',  ( 1.386118091520723879E-13, 1.174999999999992939, 39.69999999999999574 ) ) ;
#58 = CC_DESIGN_PERSON_AND_ORGANIZATION_ASSIGNMENT ( #114, #33, ( #49 ) ) ;
#59 = APPROVAL_STATUS ( 'not_yet_approved' ) ;
#61 = CIRCLE ( 'NONE', #51, 0.8749999999999978906 ) ;
#60 = FACE_OUTER_BOUND ( 'NONE', #76, .T. ) ;
#62 = CYLINDRICAL_SURFACE ( 'NONE', #134, 1.174999999999995826 ) ;
#63 = CC_DESIGN_PERSON_AND_ORGANIZATION_ASSIGNMENT ( #14, #40, ( #10 ) ) ;
#64 = MECHANICAL_CONTEXT ( 'NONE', #188, 'mechanical' ) ;
#65 = PRODUCT_DEFINITION_SHAPE ( 'NONE', 'NONE',  #187 ) ;
#66 = CIRCLE ( 'NONE', #85, 1.174999999999994271 ) ;
#67 = DIRECTION ( 'NONE',  ( 1.000000000000000000, 0.0000000000000000000, 0.0000000000000000000 ) ) ;
#68 = PERSON_AND_ORGANIZATION ( #83, #139 ) ;
#69 = EDGE_CURVE ( 'NONE', #149, #149, #133, .T. ) ;
#70 = PRODUCT_DEFINITION_FORMATION_WITH_SPECIFIED_SOURCE ( 'ANY', '', #49, .NOT_KNOWN. ) ;
#71 = ORIENTED_EDGE ( 'NONE', *, *, #69, .T. ) ;
#72 = UNCERTAINTY_MEASURE_WITH_UNIT (LENGTH_MEASURE( 1.000000000000000082E-05 ), #82, 'distance_accuracy_value', 'NONE');
#73 = CARTESIAN_POINT ( 'NONE',  ( 3.491481338843133355E-14, -1.224646799147353256E-15, 10.00000000000000000 ) ) ;
#74 = DIRECTION ( 'NONE',  ( -4.275831445896958607E-31, -1.000000000000000000, -1.224646799147353207E-16 ) ) ;
#75 = APPROVAL_DATE_TIME ( #173, #32 ) ;
#76 = EDGE_LOOP ( 'NONE', ( #36 ) ) ;
#77 = CC_DESIGN_APPROVAL ( #195, ( #187 ) ) ;
#78 = VERTEX_POINT ( 'NONE', #92 ) ;
#79 = DATE_TIME_ROLE ( 'classification_date' ) ;
#80 = CARTESIAN_POINT ( 'NONE',  ( 1.396592535537253342E-13, -4.898587196589413026E-15, 40.00000000000000000 ) ) ;
#81 = FACE_OUTER_BOUND ( 'NONE', #35, .T. ) ;
#82 =( LENGTH_UNIT ( ) NAMED_UNIT ( * ) SI_UNIT ( .MILLI., .METRE. ) );
#83 = PERSON ( 'UNSPECIFIED', 'UNSPECIFIED', 'UNSPECIFIED', ('UNSPECIFIED'), ('UNSPECIFIED'), ('UNSPECIFIED') ) ;
#84 = DIRECTION ( 'NONE',  ( 0.0000000000000000000, 0.0000000000000000000, 1.000000000000000000 ) ) ;
#85 = AXIS2_PLACEMENT_3D ( 'NONE', #104, #165, #94 ) ;
#86 = CALENDAR_DATE ( 2021, 5, 10 ) ;
#87 = ORIENTED_EDGE ( 'NONE', *, *, #30, .F. ) ;
#88 = DATE_AND_TIME ( #86, #186 ) ;
#89 = PERSON_AND_ORGANIZATION_ROLE ( 'design_supplier' ) ;
#90 = PRODUCT_RELATED_PRODUCT_CATEGORY ( 'detail', '', ( #49 ) ) ;
#91 = CIRCLE ( 'NONE', #8, 1.174999999999992939 ) ;
#92 = CARTESIAN_POINT ( 'NONE',  ( 3.491481338843133355E-14, 1.174999999999992939, 10.00000000000000000 ) ) ;
#93 = CYLINDRICAL_SURFACE ( 'NONE', #177, 1.174999999999993605 ) ;
#94 = DIRECTION ( 'NONE',  ( 0.0000000000000000000, 1.000000000000000000, 0.0000000000000000000 ) ) ;
#95 = DIRECTION ( 'NONE',  ( -3.491481338843133355E-15, 1.224646799147353207E-16, -1.000000000000000000 ) ) ;
#96 = DATE_AND_TIME ( #152, #31 ) ;
#97 = LOCAL_TIME ( 9, 37, 16.00000000000000000, #12 ) ;
#98 = DATE_AND_TIME ( #2, #203 ) ;
#99 = CARTESIAN_POINT ( 'NONE',  ( 1.396592535537253342E-13, 0.8749999999999930056, 40.00000000000000000 ) ) ;
#100 = ADVANCED_FACE ( 'NONE', ( #125, #185 ), #93, .T. ) ;
#101 = PERSON_AND_ORGANIZATION ( #83, #139 ) ;
#102 = CC_DESIGN_DATE_AND_TIME_ASSIGNMENT ( #98, #79, ( #10 ) ) ;
#103 = CARTESIAN_POINT ( 'NONE',  ( 3.491481338843133355E-14, 8.811088723138350497E-33, 10.00000000000000000 ) ) ;
#104 = CARTESIAN_POINT ( 'NONE',  ( 3.491481338843133355E-14, -1.224646799147353256E-15, 10.00000000000000000 ) ) ;
#105 = COORDINATED_UNIVERSAL_TIME_OFFSET ( 1, 0, .AHEAD. ) ;
#106 = DIRECTION ( 'NONE',  ( -3.491481338843133355E-15, 1.224646799147353207E-16, -1.000000000000000000 ) ) ;
#107 = EDGE_CURVE ( 'NONE', #169, #169, #91, .T. ) ;
#108 = AXIS2_PLACEMENT_3D ( 'NONE', #110, #20, #24 ) ;
#109 =( NAMED_UNIT ( * ) SI_UNIT ( $, .STERADIAN. ) SOLID_ANGLE_UNIT ( ) );
#110 = CARTESIAN_POINT ( 'NONE',  ( 3.491481338843133355E-14, 8.811088723138350497E-33, 10.00000000000000000 ) ) ;
#111 = FACE_OUTER_BOUND ( 'NONE', #50, .T. ) ;
#112 = PLANE ( 'NONE',  #108 ) ;
#113 = DIRECTION ( 'NONE',  ( -3.491481338843133355E-15, 1.224646799147353207E-16, -1.000000000000000000 ) ) ;
#114 = PERSON_AND_ORGANIZATION ( #83, #139 ) ;
#115 = PERSON_AND_ORGANIZATION ( #83, #139 ) ;
#116 = CC_DESIGN_APPROVAL ( #137, ( #10 ) ) ;
#117 = EDGE_LOOP ( 'NONE', ( #119 ) ) ;
#118 = PERSON_AND_ORGANIZATION_ROLE ( 'creator' ) ;
#119 = ORIENTED_EDGE ( 'NONE', *, *, #30, .T. ) ;
#120 = DATE_TIME_ROLE ( 'creation_date' ) ;
#121 = PLANE ( 'NONE',  #44 ) ;
#122 = APPROVAL_PERSON_ORGANIZATION ( #183, #137, #123 ) ;
#123 = APPROVAL_ROLE ( '' ) ;
#124 = FACE_OUTER_BOUND ( 'NONE', #53, .T. ) ;
#125 = FACE_OUTER_BOUND ( 'NONE', #15, .T. ) ;
#126 = CARTESIAN_POINT ( 'NONE',  ( 1.396592535537253342E-13, -4.898587196589413026E-15, 40.00000000000000000 ) ) ;
#127 = COORDINATED_UNIVERSAL_TIME_OFFSET ( 1, 0, .AHEAD. ) ;
#128 = CARTESIAN_POINT ( 'NONE',  ( 1.396592535537253342E-13, 6.561449049145538085E-33, 40.00000000000000000 ) ) ;
#130 = DIRECTION ( 'NONE',  ( 4.275831445896958607E-31, 1.000000000000000000, 1.224646799147352961E-16 ) ) ;
#129 = CONICAL_SURFACE ( 'NONE', #148, 1.174999999999992939, 1.029744258676649649 ) ;
#131 =( GEOMETRIC_REPRESENTATION_CONTEXT ( 3 ) GLOBAL_UNCERTAINTY_ASSIGNED_CONTEXT ( ( #72 ) ) GLOBAL_UNIT_ASSIGNED_CONTEXT ( ( #82, #181, #109 ) ) REPRESENTATION_CONTEXT ( 'NONE', 'WORKASPACE' ) );
#132 = ORIENTED_EDGE ( 'NONE', *, *, #13, .T. ) ;
#133 = CIRCLE ( 'NONE', #21, 1.174999999999997602 ) ;
#134 = AXIS2_PLACEMENT_3D ( 'NONE', #182, #95, #22 ) ;
#135 = DIRECTION ( 'NONE',  ( -3.491481338843133355E-15, 1.224646799147353207E-16, -1.000000000000000000 ) ) ;
#136 = DIRECTION ( 'NONE',  ( 0.0000000000000000000, 1.000000000000000000, 0.0000000000000000000 ) ) ;
#137 = APPROVAL ( #59, 'UNSPECIFIED' ) ;
#138 = DIRECTION ( 'NONE',  ( 0.0000000000000000000, 1.000000000000000000, 0.0000000000000000000 ) ) ;
#139 = ORGANIZATION ( 'UNSPECIFIED', 'UNSPECIFIED', '' ) ;
#140 = DIRECTION ( 'NONE',  ( 3.278178628744250777E-31, 1.000000000000000000, 9.227252531791582093E-17 ) ) ;
#141 = ADVANCED_FACE ( 'NONE', ( #60, #124 ), #62, .T. ) ;
#142 = APPROVAL_PERSON_ORGANIZATION ( #115, #32, #161 ) ;
#143 = CIRCLE ( 'NONE', #167, 1.174999999999994271 ) ;
#144 = COORDINATED_UNIVERSAL_TIME_OFFSET ( 1, 0, .AHEAD. ) ;
#145 = ADVANCED_FACE ( 'NONE', ( #81 ), #151, .F. ) ;
#146 = EDGE_LOOP ( 'NONE', ( #87 ) ) ;
#147 = DATE_AND_TIME ( #17, #48 ) ;
#148 = AXIS2_PLACEMENT_3D ( 'NONE', #166, #201, #47 ) ;
#149 = VERTEX_POINT ( 'NONE', #57 ) ;
#150 = CC_DESIGN_PERSON_AND_ORGANIZATION_ASSIGNMENT ( #52, #38, ( #187 ) ) ;
#151 = PLANE ( 'NONE',  #158 ) ;
#152 = CALENDAR_DATE ( 2021, 5, 10 ) ;
#153 = FACE_BOUND ( 'NONE', #162, .T. ) ;
#154 = CC_DESIGN_SECURITY_CLASSIFICATION ( #10, ( #70 ) ) ;
#155 = SHAPE_DEFINITION_REPRESENTATION ( #65, #179 ) ;
#156 = CARTESIAN_POINT ( 'NONE',  ( 2.465025025332053891E-15, 1.174999999999992939, 0.7060112273573870834 ) ) ;
#157 = ADVANCED_FACE ( 'NONE', ( #184 ), #129, .T. ) ;
#158 = AXIS2_PLACEMENT_3D ( 'NONE', #128, #43, #168 ) ;
#159 = CC_DESIGN_DATE_AND_TIME_ASSIGNMENT ( #88, #120, ( #187 ) ) ;
#160 = APPLICATION_PROTOCOL_DEFINITION ( 'international standard', 'config_control_design', 1994, #25 ) ;
#161 = APPROVAL_ROLE ( '' ) ;
#162 = EDGE_LOOP ( 'NONE', ( #56 ) ) ;
#163 = DESIGN_CONTEXT ( 'detailed design', #25, 'design' ) ;
#164 = DIRECTION ( 'NONE',  ( 3.491481338843133355E-15, -1.224646799147353207E-16, 1.000000000000000000 ) ) ;
#165 = DIRECTION ( 'NONE',  ( -3.491481338843133355E-15, 1.224646799147353207E-16, -1.000000000000000000 ) ) ;
#166 = CARTESIAN_POINT ( 'NONE',  ( 2.465025025332053496E-15, -8.646143897453183129E-17, 0.7060112273573869723 ) ) ;
#167 = AXIS2_PLACEMENT_3D ( 'NONE', #73, #135, #39 ) ;
#168 = DIRECTION ( 'NONE',  ( 4.275831445896958607E-31, 1.000000000000000000, 1.224646799147353207E-16 ) ) ;
#169 = VERTEX_POINT ( 'NONE', #156 ) ;
#170 = CARTESIAN_POINT ( 'NONE',  ( 3.491481338843133355E-14, 1.174999999999992939, 10.00000000000000000 ) ) ;
#171 = APPROVAL_PERSON_ORGANIZATION ( #68, #195, #178 ) ;
#172 = AXIS2_PLACEMENT_3D ( 'NONE', #80, #5, #198 ) ;
#173 = DATE_AND_TIME ( #34, #97 ) ;
#174 = APPROVAL_DATE_TIME ( #147, #195 ) ;
#175 = ADVANCED_FACE ( 'NONE', ( #45 ), #112, .F. ) ;
#176 = PERSON_AND_ORGANIZATION ( #83, #139 ) ;
#177 = AXIS2_PLACEMENT_3D ( 'NONE', #202, #29, #130 ) ;
#178 = APPROVAL_ROLE ( '' ) ;
#179 = ADVANCED_BREP_SHAPE_REPRESENTATION ( '54530', ( #18, #19, #11 ), #131 ) ;
#180 = EDGE_LOOP ( 'NONE', ( #132 ) ) ;
#181 =( NAMED_UNIT ( * ) PLANE_ANGLE_UNIT ( ) SI_UNIT ( $, .RADIAN. ) );
#182 = CARTESIAN_POINT ( 'NONE',  ( 0.0000000000000000000, 0.0000000000000000000, 0.0000000000000000000 ) ) ;
#183 = PERSON_AND_ORGANIZATION ( #83, #139 ) ;
#184 = FACE_OUTER_BOUND ( 'NONE', #55, .T. ) ;
#185 = FACE_OUTER_BOUND ( 'NONE', #117, .T. ) ;
#186 = LOCAL_TIME ( 9, 37, 16.00000000000000000, #191 ) ;
#187 = PRODUCT_DEFINITION ( 'UNKNOWN', '', #70, #163 ) ;
#188 = APPLICATION_CONTEXT ( 'configuration controlled 3d designs of mechanical parts and assemblies' ) ;
#189 = CC_DESIGN_APPROVAL ( #32, ( #70 ) ) ;
#190 = CARTESIAN_POINT ( 'NONE',  ( 0.0000000000000000000, 0.0000000000000000000, 0.0000000000000000000 ) ) ;
#191 = COORDINATED_UNIVERSAL_TIME_OFFSET ( 1, 0, .AHEAD. ) ;
#192 = ADVANCED_FACE ( 'NONE', ( #111, #153 ), #1, .T. ) ;
#193 = ORIENTED_EDGE ( 'NONE', *, *, #37, .F. ) ;
#194 = CLOSED_SHELL ( 'NONE', ( #175, #141, #192, #145 ) ) ;
#195 = APPROVAL ( #42, 'UNSPECIFIED' ) ;
#196 = FACE_OUTER_BOUND ( 'NONE', #146, .T. ) ;
#197 = CARTESIAN_POINT ( 'NONE',  ( 1.386118091520723879E-13, -4.861847792614992166E-15, 39.69999999999999574 ) ) ;
#198 = DIRECTION ( 'NONE',  ( 0.0000000000000000000, 1.000000000000000000, 0.0000000000000000000 ) ) ;
#199 = CC_DESIGN_PERSON_AND_ORGANIZATION_ASSIGNMENT ( #176, #118, ( #70 ) ) ;
#200 = CC_DESIGN_PERSON_AND_ORGANIZATION_ASSIGNMENT ( #101, #89, ( #70 ) ) ;
#201 = DIRECTION ( 'NONE',  ( 3.491481338843133355E-15, -1.224646799147353207E-16, 1.000000000000000000 ) ) ;
#202 = CARTESIAN_POINT ( 'NONE',  ( 0.0000000000000000000, 0.0000000000000000000, 0.0000000000000000000 ) ) ;
#203 = LOCAL_TIME ( 9, 37, 16.00000000000000000, #144 ) ;
ENDSEC;
END-ISO-10303-21;
