ISO-10303-21;
HEADER;
FILE_DESCRIPTION (( 'STEP AP203' ),
    '1' );
FILE_NAME ('54529.step',
    '2021-09-03T07:49:10',
    ( '' ),
    ( '' ),
    'SwSTEP 2.0',
    'SolidWorks 2019',
    '' );
FILE_SCHEMA (( 'CONFIG_CONTROL_DESIGN' ));
ENDSEC;

DATA;
#1 = ORIENTED_EDGE ( 'NONE', *, *, #157, .T. ) ;
#2 = AXIS2_PLACEMENT_3D ( 'NONE', #28, #327, #329 ) ;
#3 = ORIENTED_EDGE ( 'NONE', *, *, #209, .F. ) ;
#4 = CC_DESIGN_PERSON_AND_ORGANIZATION_ASSIGNMENT ( #38, #148, ( #110 ) ) ;
#5 = CARTESIAN_POINT ( 'NONE',  ( 8.690414565215376449E-14, -1.149999999999998801, 10.00000000000000000 ) ) ;
#6 =( NAMED_UNIT ( * ) PLANE_ANGLE_UNIT ( ) SI_UNIT ( $, .RADIAN. ) );
#7 = AXIS2_PLACEMENT_3D ( 'NONE', #219, #212, #24 ) ;
#8 = FACE_OUTER_BOUND ( 'NONE', #31, .T. ) ;
#9 = UNCERTAINTY_MEASURE_WITH_UNIT (LENGTH_MEASURE( 1.000000000000000082E-05 ), #13, 'distance_accuracy_value', 'NONE');
#10 = LINE ( 'NONE', #244, #254 ) ;
#11 = VERTEX_POINT ( 'NONE', #5 ) ;
#12 = DATE_AND_TIME ( #43, #66 ) ;
#13 =( LENGTH_UNIT ( ) NAMED_UNIT ( * ) SI_UNIT ( .MILLI., .METRE. ) );
#14 = ADVANCED_FACE ( 'NONE', ( #8 ), #210, .T. ) ;
#15 = ORIENTED_EDGE ( 'NONE', *, *, #176, .F. ) ;
#16 = PERSON_AND_ORGANIZATION_ROLE ( 'creator' ) ;
#17 = VERTEX_POINT ( 'NONE', #292 ) ;
#18 = DATE_AND_TIME ( #188, #231 ) ;
#19 = FACE_OUTER_BOUND ( 'NONE', #81, .T. ) ;
#20 = DATE_AND_TIME ( #218, #185 ) ;
#21 = ADVANCED_FACE ( 'NONE', ( #242 ), #62, .F. ) ;
#22 = CARTESIAN_POINT ( 'NONE',  ( 2.412577684367547997E-15, -8.462183388996753877E-17, 0.6909897118816996642 ) ) ;
#23 = AXIS2_PLACEMENT_3D ( 'NONE', #78, #152, #73 ) ;
#24 = DIRECTION ( 'NONE',  ( -4.275831445896958607E-31, -1.000000000000000000, -1.224646799147353207E-16 ) ) ;
#25 = CIRCLE ( 'NONE', #337, 1.149999999999996358 ) ;
#26 = LINE ( 'NONE', #44, #155 ) ;
#27 = PLANE ( 'NONE',  #230 ) ;
#28 = CARTESIAN_POINT ( 'NONE',  ( 1.396592535537253342E-13, -4.898587196589413026E-15, 40.00000000000000000 ) ) ;
#29 = ADVANCED_FACE ( 'NONE', ( #227 ), #27, .T. ) ;
#30 = CIRCLE ( 'NONE', #310, 0.8500000000000011990 ) ;
#31 = EDGE_LOOP ( 'NONE', ( #264, #106, #214, #15 ) ) ;
#32 = ORIENTED_EDGE ( 'NONE', *, *, #202, .T. ) ;
#33 = APPLICATION_PROTOCOL_DEFINITION ( 'international standard', 'config_control_design', 1994, #93 ) ;
#34 = CARTESIAN_POINT ( 'NONE',  ( 1.396592535537253342E-13, 0.8499999999999964251, 40.00000000000000000 ) ) ;
#35 = CLOSED_SHELL ( 'NONE', ( #54, #334, #183, #14, #69, #21 ) ) ;
#36 = AXIS2_PLACEMENT_3D ( 'NONE', #95, #87, #124 ) ;
#37 = EDGE_LOOP ( 'NONE', ( #187, #320, #160 ) ) ;
#38 = PERSON_AND_ORGANIZATION ( #241, #74 ) ;
#39 = DIRECTION ( 'NONE',  ( -3.491481338843133355E-15, 1.224646799147353207E-16, -1.000000000000000000 ) ) ;
#40 = VERTEX_POINT ( 'NONE', #96 ) ;
#41 = COORDINATED_UNIVERSAL_TIME_OFFSET ( 1, 0, .AHEAD. ) ;
#42 = VERTEX_POINT ( 'NONE', #259 ) ;
#43 = CALENDAR_DATE ( 2021, 3, 9 ) ;
#44 = CARTESIAN_POINT ( 'NONE',  ( 1.408343819019450605E-16, -1.149999999999999245, -1.408343819019460219E-16 ) ) ;
#45 = COORDINATED_UNIVERSAL_TIME_OFFSET ( 1, 0, .AHEAD. ) ;
#46 = AXIS2_PLACEMENT_3D ( 'NONE', #199, #316, #253 ) ;
#47 = FACE_OUTER_BOUND ( 'NONE', #94, .T. ) ;
#48 = CARTESIAN_POINT ( 'NONE',  ( 1.386118091520723879E-13, 1.149999999999996358, 39.69999999999999574 ) ) ;
#49 = CLOSED_SHELL ( 'NONE', ( #308, #298, #134, #225, #29 ) ) ;
#50 = CIRCLE ( 'NONE', #326, 1.150000000000001021 ) ;
#51 = DIRECTION ( 'NONE',  ( 0.0000000000000000000, 1.000000000000000000, 0.0000000000000000000 ) ) ;
#52 = CARTESIAN_POINT ( 'NONE',  ( 1.386118091520723879E-13, -4.861847792614992166E-15, 39.69999999999999574 ) ) ;
#53 = CARTESIAN_POINT ( 'NONE',  ( 2.553412066269493575E-15, 1.149999999999996358, 0.6909897118816997752 ) ) ;
#54 = ADVANCED_FACE ( 'NONE', ( #129 ), #156, .T. ) ;
#55 = CIRCLE ( 'NONE', #23, 1.149999999999996358 ) ;
#56 = EDGE_CURVE ( 'NONE', #207, #42, #203, .T. ) ;
#57 = EDGE_LOOP ( 'NONE', ( #271, #137, #312 ) ) ;
#58 = CYLINDRICAL_SURFACE ( 'NONE', #269, 1.149999999999999245 ) ;
#59 = ORIENTED_EDGE ( 'NONE', *, *, #63, .T. ) ;
#60 = DESIGN_CONTEXT ( 'detailed design', #226, 'design' ) ;
#61 = DIRECTION ( 'NONE',  ( 4.275831445896957731E-31, 1.000000000000000000, 1.224646799147353207E-16 ) ) ;
#62 = PLANE ( 'NONE',  #211 ) ;
#63 = EDGE_CURVE ( 'NONE', #170, #40, #222, .T. ) ;
#64 = APPROVAL_ROLE ( '' ) ;
#65 = CIRCLE ( 'NONE', #107, 1.149999999999997691 ) ;
#66 = LOCAL_TIME ( 9, 49, 10.00000000000000000, #41 ) ;
#67 = EDGE_LOOP ( 'NONE', ( #195, #133 ) ) ;
#68 = ORIENTED_EDGE ( 'NONE', *, *, #325, .F. ) ;
#69 = ADVANCED_FACE ( 'NONE', ( #19 ), #194, .T. ) ;
#70 = DIRECTION ( 'NONE',  ( 0.0000000000000000000, 1.000000000000000000, 0.0000000000000000000 ) ) ;
#71 = PERSON_AND_ORGANIZATION ( #241, #74 ) ;
#72 = AXIS2_PLACEMENT_3D ( 'NONE', #289, #86, #190 ) ;
#73 = DIRECTION ( 'NONE',  ( 3.349443381543029480E-31, 1.000000000000000000, 9.427844978134851016E-17 ) ) ;
#74 = ORGANIZATION ( 'UNSPECIFIED', 'UNSPECIFIED', '' ) ;
#75 = LINE ( 'NONE', #332, #82 ) ;
#76 = FACE_OUTER_BOUND ( 'NONE', #247, .T. ) ;
#77 = DIRECTION ( 'NONE',  ( 1.798245827342160317E-15, -0.8571673007021098911, 0.5150380749100582634 ) ) ;
#78 = CARTESIAN_POINT ( 'NONE',  ( 2.412577684367547997E-15, -8.462183388996753877E-17, 0.6909897118816996642 ) ) ;
#79 = CC_DESIGN_PERSON_AND_ORGANIZATION_ASSIGNMENT ( #71, #268, ( #142 ) ) ;
#80 = VECTOR ( 'NONE', #309, 999.9999999999998863 ) ;
#81 = EDGE_LOOP ( 'NONE', ( #317, #1, #114, #167 ) ) ;
#82 = VECTOR ( 'NONE', #84, 1000.000000000000000 ) ;
#83 = EDGE_LOOP ( 'NONE', ( #213, #245, #314, #143 ) ) ;
#84 = DIRECTION ( 'NONE',  ( -3.491481338843133355E-15, 1.224646799147353207E-16, -1.000000000000000000 ) ) ;
#85 = MANIFOLD_SOLID_BREP ( 'Corps-Déplacer/Copier1[1]', #35 ) ;
#86 = DIRECTION ( 'NONE',  ( -3.491481338843133355E-15, 1.224646799147353207E-16, -1.000000000000000000 ) ) ;
#87 = DIRECTION ( 'NONE',  ( 0.0000000000000000000, 0.0000000000000000000, 1.000000000000000000 ) ) ;
#88 = DIRECTION ( 'NONE',  ( 4.275831445896958607E-31, 1.000000000000000000, 1.224646799147353207E-16 ) ) ;
#89 = MANIFOLD_SOLID_BREP ( 'Corps-Déplacer/Copier1[2]', #49 ) ;
#90 = ORIENTED_EDGE ( 'NONE', *, *, #112, .F. ) ;
#91 = DATE_AND_TIME ( #328, #255 ) ;
#92 = AXIS2_PLACEMENT_3D ( 'NONE', #101, #301, #277 ) ;
#93 = APPLICATION_CONTEXT ( 'configuration controlled 3d designs of mechanical parts and assemblies' ) ;
#94 = EDGE_LOOP ( 'NONE', ( #121, #135, #3, #237 ) ) ;
#95 = CARTESIAN_POINT ( 'NONE',  ( 0.0000000000000000000, 0.0000000000000000000, 0.0000000000000000000 ) ) ;
#96 = CARTESIAN_POINT ( 'NONE',  ( 1.392579960328136214E-13, -0.8500000000000060840, 40.00000000000000000 ) ) ;
#97 = APPROVAL_DATE_TIME ( #168, #266 ) ;
#98 = DIRECTION ( 'NONE',  ( -3.491481338843133355E-15, 1.224646799147353207E-16, -1.000000000000000000 ) ) ;
#99 = DIRECTION ( 'NONE',  ( -2.468850131082272443E-15, 0.7071067811865454633, -0.7071067811865495711 ) ) ;
#100 = DIRECTION ( 'NONE',  ( 3.349443381543029480E-31, 1.000000000000000000, 9.427844978134851016E-17 ) ) ;
#101 = CARTESIAN_POINT ( 'NONE',  ( 3.491481338843133355E-14, -1.224646799147353256E-15, 10.00000000000000000 ) ) ;
#102 = CONICAL_SURFACE ( 'NONE', #324, 1.149999999999996358, 1.029744258676649649 ) ;
#103 = CC_DESIGN_APPROVAL ( #104, ( #146 ) ) ;
#104 = APPROVAL ( #246, 'UNSPECIFIED' ) ;
#105 = DIRECTION ( 'NONE',  ( -4.275831445896958607E-31, -1.000000000000000000, -1.224646799147353207E-16 ) ) ;
#106 = ORIENTED_EDGE ( 'NONE', *, *, #313, .T. ) ;
#107 = AXIS2_PLACEMENT_3D ( 'NONE', #139, #232, #252 ) ;
#108 = CC_DESIGN_SECURITY_CLASSIFICATION ( #315, ( #146 ) ) ;
#109 = EDGE_CURVE ( 'NONE', #323, #140, #175, .T. ) ;
#110 = PRODUCT ( '54529', '54529', '', ( #275 ) ) ;
#111 = ORIENTED_EDGE ( 'NONE', *, *, #311, .T. ) ;
#112 = EDGE_CURVE ( 'NONE', #207, #17, #127, .T. ) ;
#113 = APPROVAL_PERSON_ORGANIZATION ( #171, #304, #273 ) ;
#114 = ORIENTED_EDGE ( 'NONE', *, *, #262, .T. ) ;
#115 = DIRECTION ( 'NONE',  ( -3.491481338843133355E-15, 1.224646799147353207E-16, -1.000000000000000000 ) ) ;
#116 = DIRECTION ( 'NONE',  ( 4.275831445896958607E-31, 1.000000000000000000, 1.224646799147353207E-16 ) ) ;
#117 = DATE_TIME_ROLE ( 'creation_date' ) ;
#118 = PLANE ( 'NONE',  #7 ) ;
#119 = ORIENTED_EDGE ( 'NONE', *, *, #153, .F. ) ;
#120 = PERSON_AND_ORGANIZATION ( #241, #74 ) ;
#121 = ORIENTED_EDGE ( 'NONE', *, *, #153, .T. ) ;
#122 = EDGE_CURVE ( 'NONE', #140, #42, #55, .T. ) ;
#123 = CARTESIAN_POINT ( 'NONE',  ( 1.396592535537253342E-13, 0.8499999999999964251, 40.00000000000000000 ) ) ;
#124 = DIRECTION ( 'NONE',  ( 1.000000000000000000, 0.0000000000000000000, 0.0000000000000000000 ) ) ;
#125 = DIRECTION ( 'NONE',  ( -3.491481338843133355E-15, 1.224646799147353207E-16, -1.000000000000000000 ) ) ;
#126 = CC_DESIGN_DATE_AND_TIME_ASSIGNMENT ( #91, #196, ( #315 ) ) ;
#127 = CIRCLE ( 'NONE', #92, 1.149999999999997691 ) ;
#128 = FACE_OUTER_BOUND ( 'NONE', #83, .T. ) ;
#129 = FACE_OUTER_BOUND ( 'NONE', #285, .T. ) ;
#130 = DIRECTION ( 'NONE',  ( 0.0000000000000000000, 1.000000000000000000, 0.0000000000000000000 ) ) ;
#131 = APPROVAL_PERSON_ORGANIZATION ( #248, #104, #64 ) ;
#132 = DIRECTION ( 'NONE',  ( 0.0000000000000000000, 1.000000000000000000, 0.0000000000000000000 ) ) ;
#133 = ORIENTED_EDGE ( 'NONE', *, *, #157, .F. ) ;
#134 = ADVANCED_FACE ( 'NONE', ( #182 ), #102, .T. ) ;
#135 = ORIENTED_EDGE ( 'NONE', *, *, #169, .T. ) ;
#136 = DIRECTION ( 'NONE',  ( -2.382254525458724175E-15, -0.7071067811865452413, -0.7071067811865497932 ) ) ;
#137 = ORIENTED_EDGE ( 'NONE', *, *, #149, .T. ) ;
#138 = COORDINATED_UNIVERSAL_TIME_OFFSET ( 1, 0, .AHEAD. ) ;
#139 = CARTESIAN_POINT ( 'NONE',  ( 3.491481338843133355E-14, -1.224646799147353256E-15, 10.00000000000000000 ) ) ;
#140 = VERTEX_POINT ( 'NONE', #53 ) ;
#141 = APPROVAL_STATUS ( 'not_yet_approved' ) ;
#142 = PRODUCT_DEFINITION ( 'UNKNOWN', '', #146, #60 ) ;
#143 = ORIENTED_EDGE ( 'NONE', *, *, #311, .F. ) ;
#144 = COORDINATED_UNIVERSAL_TIME_OFFSET ( 1, 0, .AHEAD. ) ;
#145 = PRODUCT_DEFINITION_SHAPE ( 'NONE', 'NONE',  #142 ) ;
#146 = PRODUCT_DEFINITION_FORMATION_WITH_SPECIFIED_SOURCE ( 'ANY', '', #110, .NOT_KNOWN. ) ;
#147 = DIRECTION ( 'NONE',  ( 3.491481338843133355E-15, -1.224646799147353207E-16, 1.000000000000000000 ) ) ;
#148 = PERSON_AND_ORGANIZATION_ROLE ( 'design_owner' ) ;
#149 = EDGE_CURVE ( 'NONE', #323, #42, #299, .T. ) ;
#150 = CARTESIAN_POINT ( 'NONE',  ( 8.690414565215365090E-14, -1.150000000000005906, 39.69999999999999574 ) ) ;
#151 = DIRECTION ( 'NONE',  ( -3.491481338843133355E-15, 1.224646799147353207E-16, -1.000000000000000000 ) ) ;
#152 = DIRECTION ( 'NONE',  ( -3.491481338843133355E-15, 1.224646799147353207E-16, -1.000000000000000000 ) ) ;
#153 = EDGE_CURVE ( 'NONE', #265, #272, #179, .T. ) ;
#154 = DIRECTION ( 'NONE',  ( -3.491481338843133355E-15, 1.224646799147353207E-16, -1.000000000000000000 ) ) ;
#155 = VECTOR ( 'NONE', #151, 1000.000000000000000 ) ;
#156 = CONICAL_SURFACE ( 'NONE', #260, 0.8500000000000011990, 0.7853981633974452814 ) ;
#157 = EDGE_CURVE ( 'NONE', #40, #170, #30, .T. ) ;
#158 = VERTEX_POINT ( 'NONE', #281 ) ;
#159 = DIRECTION ( 'NONE',  ( -3.491481338843133355E-15, 1.224646799147353207E-16, -1.000000000000000000 ) ) ;
#160 = ORIENTED_EDGE ( 'NONE', *, *, #122, .T. ) ;
#161 = DIRECTION ( 'NONE',  ( -3.491481338843133355E-15, 1.224646799147353207E-16, -1.000000000000000000 ) ) ;
#162 = CARTESIAN_POINT ( 'NONE',  ( 1.396592535537253342E-13, 6.373979076312831884E-33, 40.00000000000000000 ) ) ;
#163 = CALENDAR_DATE ( 2021, 3, 9 ) ;
#164 = CIRCLE ( 'NONE', #208, 1.149999999999997691 ) ;
#165 = CONICAL_SURFACE ( 'NONE', #46, 1.149999999999996358, 1.029744258676649649 ) ;
#166 = FACE_OUTER_BOUND ( 'NONE', #37, .T. ) ;
#167 = ORIENTED_EDGE ( 'NONE', *, *, #313, .F. ) ;
#168 = DATE_AND_TIME ( #163, #200 ) ;
#169 = EDGE_CURVE ( 'NONE', #272, #11, #26, .T. ) ;
#170 = VERTEX_POINT ( 'NONE', #123 ) ;
#171 = PERSON_AND_ORGANIZATION ( #241, #74 ) ;
#172 = CARTESIAN_POINT ( 'NONE',  ( 2.412577684367547997E-15, -8.462183388996753877E-17, 0.6909897118816996642 ) ) ;
#173 = AXIS2_PLACEMENT_3D ( 'NONE', #198, #205, #70 ) ;
#174 = CC_DESIGN_APPROVAL ( #304, ( #315 ) ) ;
#175 = LINE ( 'NONE', #336, #80 ) ;
#176 = EDGE_CURVE ( 'NONE', #11, #158, #164, .T. ) ;
#177 = CARTESIAN_POINT ( 'NONE',  ( 0.0000000000000000000, 0.0000000000000000000, 0.0000000000000000000 ) ) ;
#178 = DIRECTION ( 'NONE',  ( -3.491481338843133355E-15, 1.224646799147353207E-16, -1.000000000000000000 ) ) ;
#179 = CIRCLE ( 'NONE', #302, 1.150000000000001021 ) ;
#180 = CC_DESIGN_APPROVAL ( #266, ( #142 ) ) ;
#181 = EDGE_CURVE ( 'NONE', #265, #158, #10, .T. ) ;
#182 = FACE_OUTER_BOUND ( 'NONE', #57, .T. ) ;
#183 = ADVANCED_FACE ( 'NONE', ( #279 ), #118, .F. ) ;
#184 = VECTOR ( 'NONE', #99, 1000.000000000000000 ) ;
#185 = LOCAL_TIME ( 9, 49, 10.00000000000000000, #144 ) ;
#186 = DIRECTION ( 'NONE',  ( 0.0000000000000000000, 1.000000000000000000, 0.0000000000000000000 ) ) ;
#187 = ORIENTED_EDGE ( 'NONE', *, *, #149, .F. ) ;
#188 = CALENDAR_DATE ( 2021, 3, 9 ) ;
#189 = DIRECTION ( 'NONE',  ( 0.0000000000000000000, 1.000000000000000000, 0.0000000000000000000 ) ) ;
#190 = DIRECTION ( 'NONE',  ( 4.275831445896958607E-31, 1.000000000000000000, 1.224646799147353207E-16 ) ) ;
#191 = PERSON_AND_ORGANIZATION ( #241, #74 ) ;
#192 = CYLINDRICAL_SURFACE ( 'NONE', #204, 1.149999999999997025 ) ;
#193 = ORIENTED_EDGE ( 'NONE', *, *, #56, .F. ) ;
#194 = CONICAL_SURFACE ( 'NONE', #173, 0.8500000000000011990, 0.7853981633974452814 ) ;
#195 = ORIENTED_EDGE ( 'NONE', *, *, #63, .F. ) ;
#196 = DATE_TIME_ROLE ( 'classification_date' ) ;
#197 = DIRECTION ( 'NONE',  ( -3.349443381543029480E-31, -1.000000000000000000, -9.427844978134851016E-17 ) ) ;
#198 = CARTESIAN_POINT ( 'NONE',  ( 1.396592535537253342E-13, -4.898587196589413026E-15, 40.00000000000000000 ) ) ;
#199 = CARTESIAN_POINT ( 'NONE',  ( 2.412577684367547997E-15, -8.462183388996753877E-17, 0.6909897118816996642 ) ) ;
#200 = LOCAL_TIME ( 9, 49, 10.00000000000000000, #138 ) ;
#201 = LINE ( 'NONE', #322, #280 ) ;
#202 = EDGE_CURVE ( 'NONE', #40, #272, #201, .T. ) ;
#203 = LINE ( 'NONE', #250, #249 ) ;
#204 = AXIS2_PLACEMENT_3D ( 'NONE', #287, #125, #319 ) ;
#205 = DIRECTION ( 'NONE',  ( -3.491481338843133355E-15, 1.224646799147353207E-16, -1.000000000000000000 ) ) ;
#206 = CC_DESIGN_PERSON_AND_ORGANIZATION_ASSIGNMENT ( #215, #318, ( #315 ) ) ;
#207 = VERTEX_POINT ( 'NONE', #305 ) ;
#208 = AXIS2_PLACEMENT_3D ( 'NONE', #233, #333, #189 ) ;
#209 = EDGE_CURVE ( 'NONE', #158, #11, #65, .T. ) ;
#210 = CYLINDRICAL_SURFACE ( 'NONE', #72, 1.149999999999999245 ) ;
#211 = AXIS2_PLACEMENT_3D ( 'NONE', #162, #267, #116 ) ;
#212 = DIRECTION ( 'NONE',  ( 3.491481338843133355E-15, -1.224646799147353207E-16, 1.000000000000000000 ) ) ;
#213 = ORIENTED_EDGE ( 'NONE', *, *, #330, .T. ) ;
#214 = ORIENTED_EDGE ( 'NONE', *, *, #181, .T. ) ;
#215 = PERSON_AND_ORGANIZATION ( #241, #74 ) ;
#216 = CARTESIAN_POINT ( 'NONE',  ( 0.0000000000000000000, 0.0000000000000000000, 0.0000000000000000000 ) ) ;
#217 = ORIENTED_EDGE ( 'NONE', *, *, #262, .F. ) ;
#218 = CALENDAR_DATE ( 2021, 3, 9 ) ;
#219 = CARTESIAN_POINT ( 'NONE',  ( 3.491481338843133355E-14, 8.623618750305644297E-33, 10.00000000000000000 ) ) ;
#220 = ORIENTED_EDGE ( 'NONE', *, *, #330, .F. ) ;
#221 = SECURITY_CLASSIFICATION_LEVEL ( 'unclassified' ) ;
#222 = CIRCLE ( 'NONE', #2, 0.8500000000000011990 ) ;
#223 = CARTESIAN_POINT ( 'NONE',  ( 1.396592535537253342E-13, -4.898587196589413026E-15, 40.00000000000000000 ) ) ;
#224 = APPLICATION_PROTOCOL_DEFINITION ( 'international standard', 'config_control_design', 1994, #226 ) ;
#225 = ADVANCED_FACE ( 'NONE', ( #76 ), #192, .T. ) ;
#226 = APPLICATION_CONTEXT ( 'configuration controlled 3d designs of mechanical parts and assemblies' ) ;
#227 = FACE_OUTER_BOUND ( 'NONE', #238, .T. ) ;
#228 = PERSON_AND_ORGANIZATION_ROLE ( 'design_supplier' ) ;
#229 = CARTESIAN_POINT ( 'NONE',  ( 0.0000000000000000000, 0.0000000000000000000, 0.0000000000000000000 ) ) ;
#230 = AXIS2_PLACEMENT_3D ( 'NONE', #256, #147, #105 ) ;
#231 = LOCAL_TIME ( 9, 49, 10.00000000000000000, #45 ) ;
#232 = DIRECTION ( 'NONE',  ( -3.491481338843133355E-15, 1.224646799147353207E-16, -1.000000000000000000 ) ) ;
#233 = CARTESIAN_POINT ( 'NONE',  ( 3.491481338843133355E-14, -1.224646799147353256E-15, 10.00000000000000000 ) ) ;
#234 = DIRECTION ( 'NONE',  ( -3.491481338843133355E-15, 1.224646799147353207E-16, -1.000000000000000000 ) ) ;
#235 = APPROVAL_PERSON_ORGANIZATION ( #243, #266, #295 ) ;
#236 = EDGE_LOOP ( 'NONE', ( #261, #296 ) ) ;
#237 = ORIENTED_EDGE ( 'NONE', *, *, #181, .F. ) ;
#238 = EDGE_LOOP ( 'NONE', ( #220, #90 ) ) ;
#239 = PRODUCT_RELATED_PRODUCT_CATEGORY ( 'detail', '', ( #110 ) ) ;
#240 = CARTESIAN_POINT ( 'NONE',  ( 1.386118091520723879E-13, -4.861847792614992166E-15, 39.69999999999999574 ) ) ;
#241 = PERSON ( 'UNSPECIFIED', 'UNSPECIFIED', 'UNSPECIFIED', ('UNSPECIFIED'), ('UNSPECIFIED'), ('UNSPECIFIED') ) ;
#242 = FACE_OUTER_BOUND ( 'NONE', #67, .T. ) ;
#243 = PERSON_AND_ORGANIZATION ( #241, #74 ) ;
#244 = CARTESIAN_POINT ( 'NONE',  ( 4.917206162781499157E-31, 1.149999999999999245, 1.408343819019455288E-16 ) ) ;
#245 = ORIENTED_EDGE ( 'NONE', *, *, #56, .T. ) ;
#246 = APPROVAL_STATUS ( 'not_yet_approved' ) ;
#247 = EDGE_LOOP ( 'NONE', ( #193, #294, #111, #68 ) ) ;
#248 = PERSON_AND_ORGANIZATION ( #241, #74 ) ;
#249 = VECTOR ( 'NONE', #98, 1000.000000000000000 ) ;
#250 = CARTESIAN_POINT ( 'NONE',  ( 1.408343819019447646E-16, -1.149999999999997025, -1.408343819019457261E-16 ) ) ;
#251 = APPROVAL_DATE_TIME ( #20, #104 ) ;
#252 = DIRECTION ( 'NONE',  ( 0.0000000000000000000, 1.000000000000000000, 0.0000000000000000000 ) ) ;
#253 = DIRECTION ( 'NONE',  ( -3.349443381543029480E-31, -1.000000000000000000, -9.427844978134851016E-17 ) ) ;
#254 = VECTOR ( 'NONE', #178, 1000.000000000000000 ) ;
#255 = LOCAL_TIME ( 9, 49, 10.00000000000000000, #321 ) ;
#256 = CARTESIAN_POINT ( 'NONE',  ( 3.491481338843133355E-14, 8.623618750305644297E-33, 10.00000000000000000 ) ) ;
#257 = CARTESIAN_POINT ( 'NONE',  ( 1.396592535537253342E-13, -4.898587196589413026E-15, 40.00000000000000000 ) ) ;
#258 = CC_DESIGN_PERSON_AND_ORGANIZATION_ASSIGNMENT ( #191, #16, ( #146 ) ) ;
#259 = CARTESIAN_POINT ( 'NONE',  ( 2.412577684367547603E-15, -1.149999999999996358, 0.6909897118816995532 ) ) ;
#260 = AXIS2_PLACEMENT_3D ( 'NONE', #257, #234, #130 ) ;
#261 = ORIENTED_EDGE ( 'NONE', *, *, #209, .T. ) ;
#262 = EDGE_CURVE ( 'NONE', #170, #265, #331, .T. ) ;
#263 =( GEOMETRIC_REPRESENTATION_CONTEXT ( 3 ) GLOBAL_UNCERTAINTY_ASSIGNED_CONTEXT ( ( #9 ) ) GLOBAL_UNIT_ASSIGNED_CONTEXT ( ( #13, #6, #293 ) ) REPRESENTATION_CONTEXT ( 'NONE', 'WORKASPACE' ) );
#264 = ORIENTED_EDGE ( 'NONE', *, *, #169, .F. ) ;
#265 = VERTEX_POINT ( 'NONE', #48 ) ;
#266 = APPROVAL ( #141, 'UNSPECIFIED' ) ;
#267 = DIRECTION ( 'NONE',  ( -3.491481338843133355E-15, 1.224646799147353207E-16, -1.000000000000000000 ) ) ;
#268 = PERSON_AND_ORGANIZATION_ROLE ( 'creator' ) ;
#269 = AXIS2_PLACEMENT_3D ( 'NONE', #216, #39, #88 ) ;
#270 = DIRECTION ( 'NONE',  ( 0.0000000000000000000, 1.000000000000000000, 0.0000000000000000000 ) ) ;
#271 = ORIENTED_EDGE ( 'NONE', *, *, #109, .F. ) ;
#272 = VERTEX_POINT ( 'NONE', #150 ) ;
#273 = APPROVAL_ROLE ( '' ) ;
#274 = DIRECTION ( 'NONE',  ( -3.491481338843133355E-15, 1.224646799147353207E-16, -1.000000000000000000 ) ) ;
#275 = MECHANICAL_CONTEXT ( 'NONE', #93, 'mechanical' ) ;
#276 = CIRCLE ( 'NONE', #284, 1.149999999999997691 ) ;
#277 = DIRECTION ( 'NONE',  ( 0.0000000000000000000, 1.000000000000000000, 0.0000000000000000000 ) ) ;
#278 = CARTESIAN_POINT ( 'NONE',  ( 3.491481338843133355E-14, -1.224646799147353256E-15, 10.00000000000000000 ) ) ;
#279 = FACE_OUTER_BOUND ( 'NONE', #236, .T. ) ;
#280 = VECTOR ( 'NONE', #136, 1000.000000000000000 ) ;
#281 = CARTESIAN_POINT ( 'NONE',  ( 3.491481338843133355E-14, 1.149999999999996358, 10.00000000000000000 ) ) ;
#282 = CC_DESIGN_DATE_AND_TIME_ASSIGNMENT ( #12, #117, ( #142 ) ) ;
#283 = DIRECTION ( 'NONE',  ( 3.491481338843133355E-15, -1.224646799147353207E-16, 1.000000000000000000 ) ) ;
#284 = AXIS2_PLACEMENT_3D ( 'NONE', #278, #161, #270 ) ;
#285 = EDGE_LOOP ( 'NONE', ( #59, #32, #119, #217 ) ) ;
#286 = AXIS2_PLACEMENT_3D ( 'NONE', #229, #115, #61 ) ;
#287 = CARTESIAN_POINT ( 'NONE',  ( 0.0000000000000000000, 0.0000000000000000000, 0.0000000000000000000 ) ) ;
#288 = CC_DESIGN_PERSON_AND_ORGANIZATION_ASSIGNMENT ( #120, #228, ( #146 ) ) ;
#289 = CARTESIAN_POINT ( 'NONE',  ( 0.0000000000000000000, 0.0000000000000000000, 0.0000000000000000000 ) ) ;
#290 = APPROVAL_DATE_TIME ( #18, #304 ) ;
#291 = DIRECTION ( 'NONE',  ( -3.491481338843133355E-15, 1.224646799147353207E-16, -1.000000000000000000 ) ) ;
#292 = CARTESIAN_POINT ( 'NONE',  ( 3.491481338843133355E-14, 1.149999999999996358, 10.00000000000000000 ) ) ;
#293 =( NAMED_UNIT ( * ) SI_UNIT ( $, .STERADIAN. ) SOLID_ANGLE_UNIT ( ) );
#294 = ORIENTED_EDGE ( 'NONE', *, *, #112, .T. ) ;
#295 = APPROVAL_ROLE ( '' ) ;
#296 = ORIENTED_EDGE ( 'NONE', *, *, #176, .T. ) ;
#297 = APPROVAL_STATUS ( 'not_yet_approved' ) ;
#298 = ADVANCED_FACE ( 'NONE', ( #166 ), #165, .T. ) ;
#299 = LINE ( 'NONE', #307, #335 ) ;
#300 = SHAPE_DEFINITION_REPRESENTATION ( #145, #306 ) ;
#301 = DIRECTION ( 'NONE',  ( -3.491481338843133355E-15, 1.224646799147353207E-16, -1.000000000000000000 ) ) ;
#302 = AXIS2_PLACEMENT_3D ( 'NONE', #52, #154, #132 ) ;
#303 = CYLINDRICAL_SURFACE ( 'NONE', #286, 1.149999999999997025 ) ;
#304 = APPROVAL ( #297, 'UNSPECIFIED' ) ;
#305 = CARTESIAN_POINT ( 'NONE',  ( 1.880452991830136584E-14, -1.149999999999998801, 10.00000000000000000 ) ) ;
#306 = ADVANCED_BREP_SHAPE_REPRESENTATION ( '54529', ( #85, #89, #36 ), #263 ) ;
#307 = CARTESIAN_POINT ( 'NONE',  ( 2.412577684367547603E-15, -1.149999999999996358, 0.6909897118816995532 ) ) ;
#308 = ADVANCED_FACE ( 'NONE', ( #128 ), #303, .T. ) ;
#309 = DIRECTION ( 'NONE',  ( 1.903218546456022717E-15, 0.8571673007021097801, 0.5150380749100585964 ) ) ;
#310 = AXIS2_PLACEMENT_3D ( 'NONE', #223, #274, #51 ) ;
#311 = EDGE_CURVE ( 'NONE', #17, #140, #75, .T. ) ;
#312 = ORIENTED_EDGE ( 'NONE', *, *, #325, .T. ) ;
#313 = EDGE_CURVE ( 'NONE', #272, #265, #50, .T. ) ;
#314 = ORIENTED_EDGE ( 'NONE', *, *, #122, .F. ) ;
#315 = SECURITY_CLASSIFICATION ( '', '', #221 ) ;
#316 = DIRECTION ( 'NONE',  ( 3.491481338843133355E-15, -1.224646799147353207E-16, 1.000000000000000000 ) ) ;
#317 = ORIENTED_EDGE ( 'NONE', *, *, #202, .F. ) ;
#318 = PERSON_AND_ORGANIZATION_ROLE ( 'classification_officer' ) ;
#319 = DIRECTION ( 'NONE',  ( 4.275831445896957731E-31, 1.000000000000000000, 1.224646799147353207E-16 ) ) ;
#320 = ORIENTED_EDGE ( 'NONE', *, *, #109, .T. ) ;
#321 = COORDINATED_UNIVERSAL_TIME_OFFSET ( 1, 0, .AHEAD. ) ;
#322 = CARTESIAN_POINT ( 'NONE',  ( 1.397633485316528503E-13, -0.8500000000000060840, 40.00000000000000000 ) ) ;
#323 = VERTEX_POINT ( 'NONE', #177 ) ;
#324 = AXIS2_PLACEMENT_3D ( 'NONE', #172, #283, #197 ) ;
#325 = EDGE_CURVE ( 'NONE', #42, #140, #25, .T. ) ;
#326 = AXIS2_PLACEMENT_3D ( 'NONE', #240, #159, #186 ) ;
#327 = DIRECTION ( 'NONE',  ( -3.491481338843133355E-15, 1.224646799147353207E-16, -1.000000000000000000 ) ) ;
#328 = CALENDAR_DATE ( 2021, 3, 9 ) ;
#329 = DIRECTION ( 'NONE',  ( 0.0000000000000000000, 1.000000000000000000, 0.0000000000000000000 ) ) ;
#330 = EDGE_CURVE ( 'NONE', #17, #207, #276, .T. ) ;
#331 = LINE ( 'NONE', #34, #184 ) ;
#332 = CARTESIAN_POINT ( 'NONE',  ( 4.917206162781488647E-31, 1.149999999999997025, 1.408343819019452577E-16 ) ) ;
#333 = DIRECTION ( 'NONE',  ( -3.491481338843133355E-15, 1.224646799147353207E-16, -1.000000000000000000 ) ) ;
#334 = ADVANCED_FACE ( 'NONE', ( #47 ), #58, .T. ) ;
#335 = VECTOR ( 'NONE', #77, 1000.000000000000000 ) ;
#336 = CARTESIAN_POINT ( 'NONE',  ( 2.553412066269493575E-15, 1.149999999999996358, 0.6909897118816997752 ) ) ;
#337 = AXIS2_PLACEMENT_3D ( 'NONE', #22, #291, #100 ) ;
ENDSEC;
END-ISO-10303-21;
