ISO-10303-21;
HEADER;
FILE_DESCRIPTION (( 'STEP AP203' ),
    '1' );
FILE_NAME ('54528.step',
    '2021-09-03T07:49:08',
    ( '' ),
    ( '' ),
    'SwSTEP 2.0',
    'SolidWorks 2019',
    '' );
FILE_SCHEMA (( 'CONFIG_CONTROL_DESIGN' ));
ENDSEC;

DATA;
#1 = ORIENTED_EDGE ( 'NONE', *, *, #260, .T. ) ;
#2 = CARTESIAN_POINT ( 'NONE',  ( 0.0000000000000000000, 0.0000000000000000000, 0.0000000000000000000 ) ) ;
#3 = AXIS2_PLACEMENT_3D ( 'NONE', #24, #26, #131 ) ;
#4 = DIRECTION ( 'NONE',  ( -2.468850131082213673E-15, 0.7071067811865623387, -0.7071067811865326957 ) ) ;
#5 = DIRECTION ( 'NONE',  ( -3.491481338843133355E-15, 1.224646799147353207E-16, -1.000000000000000000 ) ) ;
#6 = CARTESIAN_POINT ( 'NONE',  ( 2.444036937190193349E-14, 0.4499999999999951261, 7.000000000000000000 ) ) ;
#7 = CONICAL_SURFACE ( 'NONE', #166, 0.4499999999999951816, 1.029744258676649649 ) ;
#8 = APPROVAL_ROLE ( '' ) ;
#9 = FACE_OUTER_BOUND ( 'NONE', #285, .T. ) ;
#10 = DIRECTION ( 'NONE',  ( -3.491481338843133355E-15, 1.224646799147353207E-16, -1.000000000000000000 ) ) ;
#11 = DIRECTION ( 'NONE',  ( 4.279844320860569563E-31, 1.000000000000000000, 1.204669080539462163E-16 ) ) ;
#12 = CC_DESIGN_APPROVAL ( #64, ( #34 ) ) ;
#13 = CARTESIAN_POINT ( 'NONE',  ( 9.440521373612070595E-16, -0.4499999999999952371, 0.2703872785624021335 ) ) ;
#14 = ORIENTED_EDGE ( 'NONE', *, *, #269, .T. ) ;
#15 = COORDINATED_UNIVERSAL_TIME_OFFSET ( 1, 0, .AHEAD. ) ;
#16 = AXIS2_PLACEMENT_3D ( 'NONE', #193, #143, #320 ) ;
#17 = ORIENTED_EDGE ( 'NONE', *, *, #188, .F. ) ;
#18 = EDGE_CURVE ( 'NONE', #228, #306, #261, .T. ) ;
#19 = APPROVAL_ROLE ( '' ) ;
#20 = ORIENTED_EDGE ( 'NONE', *, *, #199, .F. ) ;
#21 = DIRECTION ( 'NONE',  ( 0.0000000000000000000, 1.000000000000000000, 0.0000000000000000000 ) ) ;
#22 = LOCAL_TIME ( 9, 49, 8.000000000000000000, #15 ) ;
#23 = FACE_OUTER_BOUND ( 'NONE', #156, .T. ) ;
#24 = CARTESIAN_POINT ( 'NONE',  ( 2.444036937190193349E-14, 3.374459510989136511E-33, 7.000000000000000000 ) ) ;
#25 = DIRECTION ( 'NONE',  ( -3.491481338843133355E-15, 1.224646799147353207E-16, -1.000000000000000000 ) ) ;
#26 = DIRECTION ( 'NONE',  ( 3.491481338843133355E-15, -1.224646799147353207E-16, 1.000000000000000000 ) ) ;
#27 = AXIS2_PLACEMENT_3D ( 'NONE', #293, #137, #232 ) ;
#28 = APPROVAL_PERSON_ORGANIZATION ( #145, #127, #278 ) ;
#29 = EDGE_CURVE ( 'NONE', #267, #100, #46, .T. ) ;
#30 = CARTESIAN_POINT ( 'NONE',  ( 1.924124150653612236E-31, 0.4499999999999955147, 5.510910596163034705E-17 ) ) ;
#31 = CARTESIAN_POINT ( 'NONE',  ( 2.444036937190193349E-14, 0.4499999999999951261, 7.000000000000000000 ) ) ;
#32 = CALENDAR_DATE ( 2021, 3, 9 ) ;
#33 = CARTESIAN_POINT ( 'NONE',  ( 9.440521373612072567E-16, -3.311289152216095707E-17, 0.2703872785624021891 ) ) ;
#34 = SECURITY_CLASSIFICATION ( '', '', #273 ) ;
#35 = APPROVAL_DATE_TIME ( #61, #64 ) ;
#36 = DIRECTION ( 'NONE',  ( 4.275831445896958607E-31, 1.000000000000000000, 1.224646799147353207E-16 ) ) ;
#37 = DATE_AND_TIME ( #190, #22 ) ;
#38 = DIRECTION ( 'NONE',  ( 1.903218546456022717E-15, 0.8571673007021097801, 0.5150380749100585964 ) ) ;
#39 = DIRECTION ( 'NONE',  ( -4.279844320860569563E-31, -1.000000000000000000, -1.204669080539462163E-16 ) ) ;
#40 = CIRCLE ( 'NONE', #129, 0.4499999999999951816 ) ;
#41 = EDGE_CURVE ( 'NONE', #204, #181, #289, .T. ) ;
#42 = PERSON_AND_ORGANIZATION_ROLE ( 'design_owner' ) ;
#43 = ORIENTED_EDGE ( 'NONE', *, *, #246, .F. ) ;
#44 = ORIENTED_EDGE ( 'NONE', *, *, #150, .T. ) ;
#45 = ORIENTED_EDGE ( 'NONE', *, *, #18, .F. ) ;
#46 = CIRCLE ( 'NONE', #102, 0.4499999999999959588 ) ;
#47 = AXIS2_PLACEMENT_3D ( 'NONE', #268, #302, #328 ) ;
#48 = PERSON_AND_ORGANIZATION ( #91, #178 ) ;
#49 = ORIENTED_EDGE ( 'NONE', *, *, #105, .T. ) ;
#50 = PRODUCT_DEFINITION ( 'UNKNOWN', '', #71, #234 ) ;
#51 = AXIS2_PLACEMENT_3D ( 'NONE', #62, #144, #270 ) ;
#52 = DIRECTION ( 'NONE',  ( 4.275831445896958607E-31, 1.000000000000000000, 1.224646799147353207E-16 ) ) ;
#53 = ORIENTED_EDGE ( 'NONE', *, *, #214, .T. ) ;
#54 = FACE_OUTER_BOUND ( 'NONE', #70, .T. ) ;
#55 = VERTEX_POINT ( 'NONE', #216 ) ;
#56 = VECTOR ( 'NONE', #153, 999.9999999999998863 ) ;
#57 = DIRECTION ( 'NONE',  ( -4.279844320860569563E-31, -1.000000000000000000, -1.204669080539462163E-16 ) ) ;
#58 = FACE_OUTER_BOUND ( 'NONE', #284, .T. ) ;
#59 = ADVANCED_FACE ( 'NONE', ( #152 ), #80, .T. ) ;
#60 = DIRECTION ( 'NONE',  ( -3.491481338843133355E-15, 1.224646799147353207E-16, -1.000000000000000000 ) ) ;
#61 = DATE_AND_TIME ( #32, #205 ) ;
#62 = CARTESIAN_POINT ( 'NONE',  ( 1.047444401652940007E-13, -3.673940397442059178E-15, 30.00000000000000000 ) ) ;
#63 = DIRECTION ( 'NONE',  ( -3.491481338843133355E-15, 1.224646799147353207E-16, -1.000000000000000000 ) ) ;
#64 = APPROVAL ( #142, 'UNSPECIFIED' ) ;
#65 = DATE_AND_TIME ( #305, #182 ) ;
#66 = DATE_AND_TIME ( #176, #160 ) ;
#67 = VERTEX_POINT ( 'NONE', #130 ) ;
#68 = APPROVAL_DATE_TIME ( #37, #311 ) ;
#69 = EDGE_CURVE ( 'NONE', #204, #124, #134, .T. ) ;
#70 = EDGE_LOOP ( 'NONE', ( #313, #277 ) ) ;
#71 = PRODUCT_DEFINITION_FORMATION_WITH_SPECIFIED_SOURCE ( 'ANY', '', #254, .NOT_KNOWN. ) ;
#72 = PERSON_AND_ORGANIZATION ( #91, #178 ) ;
#73 = FACE_OUTER_BOUND ( 'NONE', #203, .T. ) ;
#74 = PRODUCT_RELATED_PRODUCT_CATEGORY ( 'detail', '', ( #254 ) ) ;
#75 = CARTESIAN_POINT ( 'NONE',  ( 1.047873028032641491E-13, -0.3500000000000023648, 30.00000000000000000 ) ) ;
#76 = DIRECTION ( 'NONE',  ( 0.0000000000000000000, 1.000000000000000000, 0.0000000000000000000 ) ) ;
#77 = CONICAL_SURFACE ( 'NONE', #197, 0.4499999999999951816, 1.029744258676649649 ) ;
#78 = DIRECTION ( 'NONE',  ( -3.491481338843133355E-15, 1.224646799147353207E-16, -1.000000000000000000 ) ) ;
#79 = ORIENTED_EDGE ( 'NONE', *, *, #214, .F. ) ;
#80 = CYLINDRICAL_SURFACE ( 'NONE', #327, 0.4499999999999974021 ) ;
#81 = DIRECTION ( 'NONE',  ( 0.0000000000000000000, 1.000000000000000000, 0.0000000000000000000 ) ) ;
#82 = FACE_OUTER_BOUND ( 'NONE', #310, .T. ) ;
#83 = FACE_OUTER_BOUND ( 'NONE', #161, .T. ) ;
#84 = COORDINATED_UNIVERSAL_TIME_OFFSET ( 1, 0, .AHEAD. ) ;
#85 = CARTESIAN_POINT ( 'NONE',  ( 9.991612433228377578E-16, 0.4499999999999951261, 0.2703872785624022446 ) ) ;
#86 = MANIFOLD_SOLID_BREP ( 'Corps-Déplacer/Copier1[2]', #148 ) ;
#87 = VECTOR ( 'NONE', #112, 1000.000000000000000 ) ;
#88 = FACE_OUTER_BOUND ( 'NONE', #227, .T. ) ;
#89 = ADVANCED_FACE ( 'NONE', ( #73 ), #111, .T. ) ;
#90 =( LENGTH_UNIT ( ) NAMED_UNIT ( * ) SI_UNIT ( .MILLI., .METRE. ) );
#91 = PERSON ( 'UNSPECIFIED', 'UNSPECIFIED', 'UNSPECIFIED', ('UNSPECIFIED'), ('UNSPECIFIED'), ('UNSPECIFIED') ) ;
#92 = PERSON_AND_ORGANIZATION ( #91, #178 ) ;
#93 = ORIENTED_EDGE ( 'NONE', *, *, #195, .F. ) ;
#94 = VECTOR ( 'NONE', #231, 1000.000000000000000 ) ;
#95 = CIRCLE ( 'NONE', #262, 0.4499999999999951816 ) ;
#96 = ORIENTED_EDGE ( 'NONE', *, *, #105, .F. ) ;
#97 = COORDINATED_UNIVERSAL_TIME_OFFSET ( 1, 0, .AHEAD. ) ;
#98 = ADVANCED_FACE ( 'NONE', ( #23 ), #319, .F. ) ;
#99 = APPLICATION_CONTEXT ( 'configuration controlled 3d designs of mechanical parts and assemblies' ) ;
#100 = VERTEX_POINT ( 'NONE', #263 ) ;
#101 = CARTESIAN_POINT ( 'NONE',  ( 1.046188519703177437E-13, -0.3500000000000023648, 30.00000000000000000 ) ) ;
#102 = AXIS2_PLACEMENT_3D ( 'NONE', #288, #315, #76 ) ;
#103 = CC_DESIGN_SECURITY_CLASSIFICATION ( #34, ( #71 ) ) ;
#104 = ORIENTED_EDGE ( 'NONE', *, *, #69, .T. ) ;
#105 = EDGE_CURVE ( 'NONE', #228, #332, #244, .T. ) ;
#106 = APPROVAL_STATUS ( 'not_yet_approved' ) ;
#107 = CARTESIAN_POINT ( 'NONE',  ( 1.047444401652940007E-13, -3.673940397442059178E-15, 30.00000000000000000 ) ) ;
#108 = CARTESIAN_POINT ( 'NONE',  ( 5.510910596163016832E-17, -0.4499999999999955147, -5.510910596163053810E-17 ) ) ;
#109 = AXIS2_PLACEMENT_3D ( 'NONE', #107, #25, #215 ) ;
#110 = LINE ( 'NONE', #108, #256 ) ;
#111 = CYLINDRICAL_SURFACE ( 'NONE', #171, 0.4499999999999955147 ) ;
#112 = DIRECTION ( 'NONE',  ( -3.491481338843133355E-15, 1.224646799147353207E-16, -1.000000000000000000 ) ) ;
#113 = CARTESIAN_POINT ( 'NONE',  ( 1.047444401652940007E-13, 0.3499999999999949818, 30.00000000000000000 ) ) ;
#114 = AXIS2_PLACEMENT_3D ( 'NONE', #167, #120, #249 ) ;
#115 = PERSON_AND_ORGANIZATION ( #91, #178 ) ;
#116 = CARTESIAN_POINT ( 'NONE',  ( 9.440521373612072567E-16, -3.311289152216095707E-17, 0.2703872785624021891 ) ) ;
#117 = CARTESIAN_POINT ( 'NONE',  ( 1.047444401652940007E-13, -3.673940397442059178E-15, 30.00000000000000000 ) ) ;
#118 = FACE_OUTER_BOUND ( 'NONE', #235, .T. ) ;
#119 = VECTOR ( 'NONE', #272, 1000.000000000000000 ) ;
#120 = DIRECTION ( 'NONE',  ( -3.491481338843133355E-15, 1.224646799147353207E-16, -1.000000000000000000 ) ) ;
#121 = COORDINATED_UNIVERSAL_TIME_OFFSET ( 1, 0, .AHEAD. ) ;
#122 = ADVANCED_FACE ( 'NONE', ( #54 ), #265, .T. ) ;
#123 = CIRCLE ( 'NONE', #226, 0.4499999999999987899 ) ;
#124 = VERTEX_POINT ( 'NONE', #132 ) ;
#125 = PERSON_AND_ORGANIZATION_ROLE ( 'creator' ) ;
#126 = LINE ( 'NONE', #75, #56 ) ;
#127 = APPROVAL ( #106, 'UNSPECIFIED' ) ;
#128 = ORIENTED_EDGE ( 'NONE', *, *, #260, .F. ) ;
#129 = AXIS2_PLACEMENT_3D ( 'NONE', #33, #63, #11 ) ;
#130 = CARTESIAN_POINT ( 'NONE',  ( 9.440521373612070595E-16, -0.4499999999999952371, 0.2703872785624021335 ) ) ;
#131 = DIRECTION ( 'NONE',  ( -4.275831445896958607E-31, -1.000000000000000000, -1.224646799147353207E-16 ) ) ;
#132 = CARTESIAN_POINT ( 'NONE',  ( 1.274731986059317829E-14, -0.4499999999999969025, 7.000000000000000000 ) ) ;
#133 = EDGE_CURVE ( 'NONE', #124, #67, #110, .T. ) ;
#134 = CIRCLE ( 'NONE', #27, 0.4499999999999959588 ) ;
#135 = AXIS2_PLACEMENT_3D ( 'NONE', #259, #206, #252 ) ;
#136 = ORIENTED_EDGE ( 'NONE', *, *, #188, .T. ) ;
#137 = DIRECTION ( 'NONE',  ( -3.491481338843133355E-15, 1.224646799147353207E-16, -1.000000000000000000 ) ) ;
#138 = CC_DESIGN_PERSON_AND_ORGANIZATION_ASSIGNMENT ( #247, #125, ( #71 ) ) ;
#139 = DIRECTION ( 'NONE',  ( -3.491481338843133355E-15, 1.224646799147353207E-16, -1.000000000000000000 ) ) ;
#140 = DIRECTION ( 'NONE',  ( 1.798245827342160317E-15, -0.8571673007021098911, 0.5150380749100582634 ) ) ;
#141 = DIRECTION ( 'NONE',  ( 3.491481338843133355E-15, -1.224646799147353207E-16, 1.000000000000000000 ) ) ;
#142 = APPROVAL_STATUS ( 'not_yet_approved' ) ;
#143 = DIRECTION ( 'NONE',  ( -3.491481338843133355E-15, 1.224646799147353207E-16, -1.000000000000000000 ) ) ;
#144 = DIRECTION ( 'NONE',  ( -3.491481338843133355E-15, 1.224646799147353207E-16, -1.000000000000000000 ) ) ;
#145 = PERSON_AND_ORGANIZATION ( #91, #178 ) ;
#146 = ORIENTED_EDGE ( 'NONE', *, *, #246, .T. ) ;
#147 = APPLICATION_CONTEXT ( 'configuration controlled 3d designs of mechanical parts and assemblies' ) ;
#148 = CLOSED_SHELL ( 'NONE', ( #89, #209, #172, #296, #122 ) ) ;
#149 = CIRCLE ( 'NONE', #271, 0.4499999999999987899 ) ;
#150 = EDGE_CURVE ( 'NONE', #306, #55, #149, .T. ) ;
#151 = APPROVAL_STATUS ( 'not_yet_approved' ) ;
#152 = FACE_OUTER_BOUND ( 'NONE', #279, .T. ) ;
#153 = DIRECTION ( 'NONE',  ( -2.382254525458663433E-15, -0.7071067811865622277, -0.7071067811865329178 ) ) ;
#154 = CONICAL_SURFACE ( 'NONE', #16, 0.3499999999999987010, 0.7853981633974691512 ) ;
#155 = DIRECTION ( 'NONE',  ( 3.491481338843133355E-15, -1.224646799147353207E-16, 1.000000000000000000 ) ) ;
#156 = EDGE_LOOP ( 'NONE', ( #201, #14 ) ) ;
#157 = CC_DESIGN_PERSON_AND_ORGANIZATION_ASSIGNMENT ( #115, #192, ( #71 ) ) ;
#158 = ORIENTED_EDGE ( 'NONE', *, *, #334, .F. ) ;
#159 = AXIS2_PLACEMENT_3D ( 'NONE', #337, #155, #185 ) ;
#160 = LOCAL_TIME ( 9, 49, 8.000000000000000000, #84 ) ;
#161 = EDGE_LOOP ( 'NONE', ( #49, #240, #239, #45 ) ) ;
#162 = LINE ( 'NONE', #248, #202 ) ;
#163 = SHAPE_DEFINITION_REPRESENTATION ( #280, #222 ) ;
#164 = CYLINDRICAL_SURFACE ( 'NONE', #217, 0.4499999999999974021 ) ;
#165 = CARTESIAN_POINT ( 'NONE',  ( 5.510910596163038403E-17, -0.4499999999999974021, -5.510910596163076613E-17 ) ) ;
#166 = AXIS2_PLACEMENT_3D ( 'NONE', #116, #141, #39 ) ;
#167 = CARTESIAN_POINT ( 'NONE',  ( 2.444036937190193349E-14, -8.572527594031473190E-16, 7.000000000000000000 ) ) ;
#168 = CARTESIAN_POINT ( 'NONE',  ( 2.444036937190193349E-14, -8.572527594031473190E-16, 7.000000000000000000 ) ) ;
#169 =( NAMED_UNIT ( * ) PLANE_ANGLE_UNIT ( ) SI_UNIT ( $, .RADIAN. ) );
#170 = ORIENTED_EDGE ( 'NONE', *, *, #286, .T. ) ;
#171 = AXIS2_PLACEMENT_3D ( 'NONE', #179, #5, #318 ) ;
#172 = ADVANCED_FACE ( 'NONE', ( #274 ), #7, .T. ) ;
#173 = DATE_TIME_ROLE ( 'creation_date' ) ;
#174 = EDGE_LOOP ( 'NONE', ( #20, #175, #136 ) ) ;
#175 = ORIENTED_EDGE ( 'NONE', *, *, #195, .T. ) ;
#176 = CALENDAR_DATE ( 2021, 3, 9 ) ;
#177 = ORIENTED_EDGE ( 'NONE', *, *, #133, .F. ) ;
#178 = ORGANIZATION ( 'UNSPECIFIED', 'UNSPECIFIED', '' ) ;
#179 = CARTESIAN_POINT ( 'NONE',  ( 0.0000000000000000000, 0.0000000000000000000, 0.0000000000000000000 ) ) ;
#180 =( NAMED_UNIT ( * ) SI_UNIT ( $, .STERADIAN. ) SOLID_ANGLE_UNIT ( ) );
#181 = VERTEX_POINT ( 'NONE', #85 ) ;
#182 = LOCAL_TIME ( 9, 49, 8.000000000000000000, #207 ) ;
#183 = ADVANCED_FACE ( 'NONE', ( #83 ), #154, .T. ) ;
#184 = ORIENTED_EDGE ( 'NONE', *, *, #29, .F. ) ;
#185 = DIRECTION ( 'NONE',  ( -4.275831445896958607E-31, -1.000000000000000000, -1.224646799147353207E-16 ) ) ;
#186 = DIRECTION ( 'NONE',  ( -3.491481338843133355E-15, 1.224646799147353207E-16, -1.000000000000000000 ) ) ;
#187 = UNCERTAINTY_MEASURE_WITH_UNIT (LENGTH_MEASURE( 1.000000000000000082E-05 ), #90, 'distance_accuracy_value', 'NONE');
#188 = EDGE_CURVE ( 'NONE', #67, #181, #95, .T. ) ;
#189 = AXIS2_PLACEMENT_3D ( 'NONE', #117, #191, #21 ) ;
#190 = CALENDAR_DATE ( 2021, 3, 9 ) ;
#191 = DIRECTION ( 'NONE',  ( -3.491481338843133355E-15, 1.224646799147353207E-16, -1.000000000000000000 ) ) ;
#192 = PERSON_AND_ORGANIZATION_ROLE ( 'design_supplier' ) ;
#193 = CARTESIAN_POINT ( 'NONE',  ( 1.047444401652940007E-13, -3.673940397442059178E-15, 30.00000000000000000 ) ) ;
#194 = VECTOR ( 'NONE', #4, 1000.000000000000000 ) ;
#195 = EDGE_CURVE ( 'NONE', #291, #67, #297, .T. ) ;
#196 = CARTESIAN_POINT ( 'NONE',  ( 9.440521373612072567E-16, -3.311289152216095707E-17, 0.2703872785624021891 ) ) ;
#197 = AXIS2_PLACEMENT_3D ( 'NONE', #251, #304, #57 ) ;
#198 = CARTESIAN_POINT ( 'NONE',  ( 0.0000000000000000000, 0.0000000000000000000, 0.0000000000000000000 ) ) ;
#199 = EDGE_CURVE ( 'NONE', #291, #181, #162, .T. ) ;
#200 = PERSON_AND_ORGANIZATION_ROLE ( 'creator' ) ;
#201 = ORIENTED_EDGE ( 'NONE', *, *, #29, .T. ) ;
#202 = VECTOR ( 'NONE', #38, 999.9999999999998863 ) ;
#203 = EDGE_LOOP ( 'NONE', ( #104, #253, #324, #264 ) ) ;
#204 = VERTEX_POINT ( 'NONE', #6 ) ;
#205 = LOCAL_TIME ( 9, 49, 8.000000000000000000, #97 ) ;
#206 = DIRECTION ( 'NONE',  ( 0.0000000000000000000, 0.0000000000000000000, 1.000000000000000000 ) ) ;
#207 = COORDINATED_UNIVERSAL_TIME_OFFSET ( 1, 0, .AHEAD. ) ;
#208 = ORIENTED_EDGE ( 'NONE', *, *, #199, .T. ) ;
#209 = ADVANCED_FACE ( 'NONE', ( #9 ), #77, .T. ) ;
#210 = DIRECTION ( 'NONE',  ( -3.491481338843133355E-15, 1.224646799147353207E-16, -1.000000000000000000 ) ) ;
#211 = MANIFOLD_SOLID_BREP ( 'Corps-Déplacer/Copier1[1]', #237 ) ;
#212 = CIRCLE ( 'NONE', #51, 0.3499999999999987010 ) ;
#213 = DIRECTION ( 'NONE',  ( 0.0000000000000000000, 1.000000000000000000, 0.0000000000000000000 ) ) ;
#214 = EDGE_CURVE ( 'NONE', #55, #100, #221, .T. ) ;
#215 = DIRECTION ( 'NONE',  ( 0.0000000000000000000, 1.000000000000000000, 0.0000000000000000000 ) ) ;
#216 = CARTESIAN_POINT ( 'NONE',  ( 6.447293980761718689E-14, -0.4500000000000025091, 29.90000000000000213 ) ) ;
#217 = AXIS2_PLACEMENT_3D ( 'NONE', #245, #223, #325 ) ;
#218 = CARTESIAN_POINT ( 'NONE',  ( 1.043952920314096936E-13, -3.661693929450586610E-15, 29.90000000000000213 ) ) ;
#219 = DIRECTION ( 'NONE',  ( 0.0000000000000000000, 1.000000000000000000, 0.0000000000000000000 ) ) ;
#220 = CC_DESIGN_DATE_AND_TIME_ASSIGNMENT ( #65, #173, ( #50 ) ) ;
#221 = LINE ( 'NONE', #165, #119 ) ;
#222 = ADVANCED_BREP_SHAPE_REPRESENTATION ( '54528', ( #211, #86, #135 ), #283 ) ;
#223 = DIRECTION ( 'NONE',  ( -3.491481338843133355E-15, 1.224646799147353207E-16, -1.000000000000000000 ) ) ;
#224 = CC_DESIGN_APPROVAL ( #127, ( #50 ) ) ;
#225 = ADVANCED_FACE ( 'NONE', ( #58 ), #241, .F. ) ;
#226 = AXIS2_PLACEMENT_3D ( 'NONE', #218, #60, #219 ) ;
#227 = EDGE_LOOP ( 'NONE', ( #177, #170, #292, #17 ) ) ;
#228 = VERTEX_POINT ( 'NONE', #113 ) ;
#229 = ORIENTED_EDGE ( 'NONE', *, *, #250, .T. ) ;
#230 = APPROVAL_PERSON_ORGANIZATION ( #282, #64, #8 ) ;
#231 = DIRECTION ( 'NONE',  ( -3.491481338843133355E-15, 1.224646799147353207E-16, -1.000000000000000000 ) ) ;
#232 = DIRECTION ( 'NONE',  ( 0.0000000000000000000, 1.000000000000000000, 0.0000000000000000000 ) ) ;
#233 = CC_DESIGN_PERSON_AND_ORGANIZATION_ASSIGNMENT ( #92, #200, ( #50 ) ) ;
#234 = DESIGN_CONTEXT ( 'detailed design', #99, 'design' ) ;
#235 = EDGE_LOOP ( 'NONE', ( #79, #1, #335, #333 ) ) ;
#236 = CARTESIAN_POINT ( 'NONE',  ( 1.047444401652940007E-13, 0.3499999999999949818, 30.00000000000000000 ) ) ;
#237 = CLOSED_SHELL ( 'NONE', ( #183, #59, #98, #281, #307, #225 ) ) ;
#238 = CC_DESIGN_DATE_AND_TIME_ASSIGNMENT ( #66, #298, ( #34 ) ) ;
#239 = ORIENTED_EDGE ( 'NONE', *, *, #150, .F. ) ;
#240 = ORIENTED_EDGE ( 'NONE', *, *, #334, .T. ) ;
#241 = PLANE ( 'NONE',  #47 ) ;
#242 = PERSON_AND_ORGANIZATION ( #91, #178 ) ;
#243 = CIRCLE ( 'NONE', #114, 0.4499999999999959588 ) ;
#244 = CIRCLE ( 'NONE', #109, 0.3499999999999987010 ) ;
#245 = CARTESIAN_POINT ( 'NONE',  ( 0.0000000000000000000, 0.0000000000000000000, 0.0000000000000000000 ) ) ;
#246 = EDGE_CURVE ( 'NONE', #332, #228, #212, .T. ) ;
#247 = PERSON_AND_ORGANIZATION ( #91, #178 ) ;
#248 = CARTESIAN_POINT ( 'NONE',  ( 9.991612433228377578E-16, 0.4499999999999951261, 0.2703872785624022446 ) ) ;
#249 = DIRECTION ( 'NONE',  ( 0.0000000000000000000, 1.000000000000000000, 0.0000000000000000000 ) ) ;
#250 = EDGE_CURVE ( 'NONE', #181, #67, #40, .T. ) ;
#251 = CARTESIAN_POINT ( 'NONE',  ( 9.440521373612072567E-16, -3.311289152216095707E-17, 0.2703872785624021891 ) ) ;
#252 = DIRECTION ( 'NONE',  ( 1.000000000000000000, 0.0000000000000000000, 0.0000000000000000000 ) ) ;
#253 = ORIENTED_EDGE ( 'NONE', *, *, #133, .T. ) ;
#254 = PRODUCT ( '54528', '54528', '', ( #276 ) ) ;
#255 = ORIENTED_EDGE ( 'NONE', *, *, #321, .F. ) ;
#256 = VECTOR ( 'NONE', #210, 1000.000000000000000 ) ;
#257 = CC_DESIGN_PERSON_AND_ORGANIZATION_ASSIGNMENT ( #72, #42, ( #254 ) ) ;
#258 = DATE_AND_TIME ( #312, #331 ) ;
#259 = CARTESIAN_POINT ( 'NONE',  ( 0.0000000000000000000, 0.0000000000000000000, 0.0000000000000000000 ) ) ;
#260 = EDGE_CURVE ( 'NONE', #55, #306, #123, .T. ) ;
#261 = LINE ( 'NONE', #236, #194 ) ;
#262 = AXIS2_PLACEMENT_3D ( 'NONE', #196, #275, #326 ) ;
#263 = CARTESIAN_POINT ( 'NONE',  ( 6.447293980761737622E-14, -0.4499999999999968470, 7.000000000000000000 ) ) ;
#264 = ORIENTED_EDGE ( 'NONE', *, *, #41, .F. ) ;
#265 = PLANE ( 'NONE',  #3 ) ;
#266 = AXIS2_PLACEMENT_3D ( 'NONE', #168, #10, #81 ) ;
#267 = VERTEX_POINT ( 'NONE', #31 ) ;
#268 = CARTESIAN_POINT ( 'NONE',  ( 1.047444401652940007E-13, 2.624579619658186154E-33, 30.00000000000000000 ) ) ;
#269 = EDGE_CURVE ( 'NONE', #100, #267, #243, .T. ) ;
#270 = DIRECTION ( 'NONE',  ( 0.0000000000000000000, 1.000000000000000000, 0.0000000000000000000 ) ) ;
#271 = AXIS2_PLACEMENT_3D ( 'NONE', #316, #78, #213 ) ;
#272 = DIRECTION ( 'NONE',  ( -3.491481338843133355E-15, 1.224646799147353207E-16, -1.000000000000000000 ) ) ;
#273 = SECURITY_CLASSIFICATION_LEVEL ( 'unclassified' ) ;
#274 = FACE_OUTER_BOUND ( 'NONE', #174, .T. ) ;
#275 = DIRECTION ( 'NONE',  ( -3.491481338843133355E-15, 1.224646799147353207E-16, -1.000000000000000000 ) ) ;
#276 = MECHANICAL_CONTEXT ( 'NONE', #147, 'mechanical' ) ;
#277 = ORIENTED_EDGE ( 'NONE', *, *, #286, .F. ) ;
#278 = APPROVAL_ROLE ( '' ) ;
#279 = EDGE_LOOP ( 'NONE', ( #44, #53, #184, #255 ) ) ;
#280 = PRODUCT_DEFINITION_SHAPE ( 'NONE', 'NONE',  #50 ) ;
#281 = ADVANCED_FACE ( 'NONE', ( #118 ), #164, .T. ) ;
#282 = PERSON_AND_ORGANIZATION ( #91, #178 ) ;
#283 =( GEOMETRIC_REPRESENTATION_CONTEXT ( 3 ) GLOBAL_UNCERTAINTY_ASSIGNED_CONTEXT ( ( #187 ) ) GLOBAL_UNIT_ASSIGNED_CONTEXT ( ( #90, #169, #180 ) ) REPRESENTATION_CONTEXT ( 'NONE', 'WORKASPACE' ) );
#284 = EDGE_LOOP ( 'NONE', ( #96, #43 ) ) ;
#285 = EDGE_LOOP ( 'NONE', ( #93, #208, #229 ) ) ;
#286 = EDGE_CURVE ( 'NONE', #124, #204, #317, .T. ) ;
#287 = LINE ( 'NONE', #314, #94 ) ;
#288 = CARTESIAN_POINT ( 'NONE',  ( 2.444036937190193349E-14, -8.572527594031473190E-16, 7.000000000000000000 ) ) ;
#289 = LINE ( 'NONE', #30, #87 ) ;
#290 = VECTOR ( 'NONE', #140, 1000.000000000000000 ) ;
#291 = VERTEX_POINT ( 'NONE', #299 ) ;
#292 = ORIENTED_EDGE ( 'NONE', *, *, #41, .T. ) ;
#293 = CARTESIAN_POINT ( 'NONE',  ( 2.444036937190193349E-14, -8.572527594031473190E-16, 7.000000000000000000 ) ) ;
#294 = APPROVAL_PERSON_ORGANIZATION ( #48, #311, #19 ) ;
#295 = CYLINDRICAL_SURFACE ( 'NONE', #301, 0.4499999999999955147 ) ;
#296 = ADVANCED_FACE ( 'NONE', ( #88 ), #295, .T. ) ;
#297 = LINE ( 'NONE', #13, #290 ) ;
#298 = DATE_TIME_ROLE ( 'classification_date' ) ;
#299 = CARTESIAN_POINT ( 'NONE',  ( 0.0000000000000000000, 0.0000000000000000000, 0.0000000000000000000 ) ) ;
#300 = PERSON_AND_ORGANIZATION_ROLE ( 'classification_officer' ) ;
#301 = AXIS2_PLACEMENT_3D ( 'NONE', #198, #139, #36 ) ;
#302 = DIRECTION ( 'NONE',  ( -3.491481338843133355E-15, 1.224646799147353207E-16, -1.000000000000000000 ) ) ;
#303 = CC_DESIGN_PERSON_AND_ORGANIZATION_ASSIGNMENT ( #242, #300, ( #34 ) ) ;
#304 = DIRECTION ( 'NONE',  ( 3.491481338843133355E-15, -1.224646799147353207E-16, 1.000000000000000000 ) ) ;
#305 = CALENDAR_DATE ( 2021, 3, 9 ) ;
#306 = VERTEX_POINT ( 'NONE', #323 ) ;
#307 = ADVANCED_FACE ( 'NONE', ( #82 ), #322, .T. ) ;
#308 = ORIENTED_EDGE ( 'NONE', *, *, #18, .T. ) ;
#309 = CC_DESIGN_APPROVAL ( #311, ( #71 ) ) ;
#310 = EDGE_LOOP ( 'NONE', ( #158, #146, #308, #128 ) ) ;
#311 = APPROVAL ( #151, 'UNSPECIFIED' ) ;
#312 = CALENDAR_DATE ( 2021, 3, 9 ) ;
#313 = ORIENTED_EDGE ( 'NONE', *, *, #69, .F. ) ;
#314 = CARTESIAN_POINT ( 'NONE',  ( 1.924124150653620119E-31, 0.4499999999999974021, 5.510910596163057508E-17 ) ) ;
#315 = DIRECTION ( 'NONE',  ( -3.491481338843133355E-15, 1.224646799147353207E-16, -1.000000000000000000 ) ) ;
#316 = CARTESIAN_POINT ( 'NONE',  ( 1.043952920314096936E-13, -3.661693929450586610E-15, 29.90000000000000213 ) ) ;
#317 = CIRCLE ( 'NONE', #266, 0.4499999999999959588 ) ;
#318 = DIRECTION ( 'NONE',  ( 4.275831445896958607E-31, 1.000000000000000000, 1.224646799147353207E-16 ) ) ;
#319 = PLANE ( 'NONE',  #159 ) ;
#320 = DIRECTION ( 'NONE',  ( 0.0000000000000000000, 1.000000000000000000, 0.0000000000000000000 ) ) ;
#321 = EDGE_CURVE ( 'NONE', #306, #267, #287, .T. ) ;
#322 = CONICAL_SURFACE ( 'NONE', #189, 0.3499999999999987010, 0.7853981633974691512 ) ;
#323 = CARTESIAN_POINT ( 'NONE',  ( 1.043952920314096936E-13, 0.4499999999999951261, 29.90000000000000213 ) ) ;
#324 = ORIENTED_EDGE ( 'NONE', *, *, #250, .F. ) ;
#325 = DIRECTION ( 'NONE',  ( 4.275831445896958607E-31, 1.000000000000000000, 1.224646799147353207E-16 ) ) ;
#326 = DIRECTION ( 'NONE',  ( 4.279844320860569563E-31, 1.000000000000000000, 1.204669080539462163E-16 ) ) ;
#327 = AXIS2_PLACEMENT_3D ( 'NONE', #2, #186, #52 ) ;
#328 = DIRECTION ( 'NONE',  ( 4.275831445896958607E-31, 1.000000000000000000, 1.224646799147353207E-16 ) ) ;
#329 = APPLICATION_PROTOCOL_DEFINITION ( 'international standard', 'config_control_design', 1994, #147 ) ;
#330 = APPROVAL_DATE_TIME ( #258, #127 ) ;
#331 = LOCAL_TIME ( 9, 49, 8.000000000000000000, #121 ) ;
#332 = VERTEX_POINT ( 'NONE', #101 ) ;
#333 = ORIENTED_EDGE ( 'NONE', *, *, #269, .F. ) ;
#334 = EDGE_CURVE ( 'NONE', #332, #55, #126, .T. ) ;
#335 = ORIENTED_EDGE ( 'NONE', *, *, #321, .T. ) ;
#336 = APPLICATION_PROTOCOL_DEFINITION ( 'international standard', 'config_control_design', 1994, #99 ) ;
#337 = CARTESIAN_POINT ( 'NONE',  ( 2.444036937190193349E-14, 3.374459510989136511E-33, 7.000000000000000000 ) ) ;
ENDSEC;
END-ISO-10303-21;
