ISO-10303-21;
HEADER;
FILE_DESCRIPTION (( 'STEP AP203' ),
    '1' );
FILE_NAME ('54516.step',
    '2021-09-03T07:49:06',
    ( '' ),
    ( '' ),
    'SwSTEP 2.0',
    'SolidWorks 2019',
    '' );
FILE_SCHEMA (( 'CONFIG_CONTROL_DESIGN' ));
ENDSEC;

DATA;
#1 =( NAMED_UNIT ( * ) PLANE_ANGLE_UNIT ( ) SI_UNIT ( $, .RADIAN. ) );
#2 = VECTOR ( 'NONE', #329, 1000.000000000000000 ) ;
#3 = DIRECTION ( 'NONE',  ( -3.491481338843133355E-15, 1.224646799147353207E-16, -1.000000000000000000 ) ) ;
#4 = DIRECTION ( 'NONE',  ( 3.423875456688434280E-31, 1.000000000000000000, 9.637352644315637151E-17 ) ) ;
#5 = ORIENTED_EDGE ( 'NONE', *, *, #334, .F. ) ;
#6 = CARTESIAN_POINT ( 'NONE',  ( 1.396592535537253342E-13, -4.898587196589413026E-15, 40.00000000000000000 ) ) ;
#7 = EDGE_LOOP ( 'NONE', ( #250, #118 ) ) ;
#8 = VECTOR ( 'NONE', #102, 1000.000000000000000 ) ;
#9 = APPROVAL_PERSON_ORGANIZATION ( #162, #19, #221 ) ;
#10 = ORIENTED_EDGE ( 'NONE', *, *, #175, .F. ) ;
#11 = COORDINATED_UNIVERSAL_TIME_OFFSET ( 1, 0, .AHEAD. ) ;
#12 = ORIENTED_EDGE ( 'NONE', *, *, #223, .T. ) ;
#13 = PERSON_AND_ORGANIZATION ( #210, #248 ) ;
#14 = EDGE_LOOP ( 'NONE', ( #264, #249, #37, #199 ) ) ;
#15 = CC_DESIGN_DATE_AND_TIME_ASSIGNMENT ( #65, #296, ( #75 ) ) ;
#16 = CIRCLE ( 'NONE', #203, 1.124999999999996447 ) ;
#17 = EDGE_LOOP ( 'NONE', ( #122, #245, #220 ) ) ;
#18 = VERTEX_POINT ( 'NONE', #217 ) ;
#19 = APPROVAL ( #219, 'UNSPECIFIED' ) ;
#20 = DIRECTION ( 'NONE',  ( 3.491481338843133355E-15, -1.224646799147353207E-16, 1.000000000000000000 ) ) ;
#21 = AXIS2_PLACEMENT_3D ( 'NONE', #331, #151, #200 ) ;
#22 = CARTESIAN_POINT ( 'NONE',  ( 0.0000000000000000000, 0.0000000000000000000, 0.0000000000000000000 ) ) ;
#23 = CARTESIAN_POINT ( 'NONE',  ( 2.360130343403033820E-15, -8.278222880540293809E-17, 0.6759681964060099135 ) ) ;
#24 = EDGE_CURVE ( 'NONE', #191, #114, #66, .T. ) ;
#25 = DIRECTION ( 'NONE',  ( -3.491481338843133355E-15, 1.224646799147353207E-16, -1.000000000000000000 ) ) ;
#26 = CIRCLE ( 'NONE', #187, 1.124999999999995115 ) ;
#27 = CC_DESIGN_APPROVAL ( #19, ( #75 ) ) ;
#28 = CYLINDRICAL_SURFACE ( 'NONE', #170, 1.124999999999995781 ) ;
#29 = CARTESIAN_POINT ( 'NONE',  ( 8.690108403515576422E-14, -1.125000000000004663, 39.69999999999999574 ) ) ;
#30 = FACE_OUTER_BOUND ( 'NONE', #38, .T. ) ;
#31 = EDGE_CURVE ( 'NONE', #70, #114, #95, .T. ) ;
#32 = APPLICATION_PROTOCOL_DEFINITION ( 'international standard', 'config_control_design', 1994, #302 ) ;
#33 = AXIS2_PLACEMENT_3D ( 'NONE', #50, #254, #152 ) ;
#34 = DIRECTION ( 'NONE',  ( 0.0000000000000000000, 0.0000000000000000000, 1.000000000000000000 ) ) ;
#35 = EDGE_CURVE ( 'NONE', #70, #300, #168, .T. ) ;
#36 = DIRECTION ( 'NONE',  ( -2.468850131082272443E-15, 0.7071067811865454633, -0.7071067811865495711 ) ) ;
#37 = ORIENTED_EDGE ( 'NONE', *, *, #136, .F. ) ;
#38 = EDGE_LOOP ( 'NONE', ( #291, #139 ) ) ;
#39 = CIRCLE ( 'NONE', #21, 0.8250000000000000666 ) ;
#40 = PERSON_AND_ORGANIZATION_ROLE ( 'creator' ) ;
#41 = ORIENTED_EDGE ( 'NONE', *, *, #158, .T. ) ;
#42 = ORIENTED_EDGE ( 'NONE', *, *, #31, .F. ) ;
#43 = EDGE_CURVE ( 'NONE', #142, #222, #52, .T. ) ;
#44 = CALENDAR_DATE ( 2021, 3, 9 ) ;
#45 = VERTEX_POINT ( 'NONE', #206 ) ;
#46 = CIRCLE ( 'NONE', #280, 1.125000000000000000 ) ;
#47 = AXIS2_PLACEMENT_3D ( 'NONE', #292, #156, #132 ) ;
#48 = APPROVAL_STATUS ( 'not_yet_approved' ) ;
#49 = CARTESIAN_POINT ( 'NONE',  ( 1.386118091520723879E-13, -4.861847792614992166E-15, 39.69999999999999574 ) ) ;
#50 = CARTESIAN_POINT ( 'NONE',  ( 1.396592535537253342E-13, -4.898587196589413026E-15, 40.00000000000000000 ) ) ;
#51 = CC_DESIGN_SECURITY_CLASSIFICATION ( #92, ( #230 ) ) ;
#52 = LINE ( 'NONE', #77, #91 ) ;
#53 = DIRECTION ( 'NONE',  ( 3.423875456688434280E-31, 1.000000000000000000, 9.637352644315637151E-17 ) ) ;
#54 = DIRECTION ( 'NONE',  ( -3.491481338843133355E-15, 1.224646799147353207E-16, -1.000000000000000000 ) ) ;
#55 = CARTESIAN_POINT ( 'NONE',  ( 3.491481338843133355E-14, -1.224646799147353256E-15, 10.00000000000000000 ) ) ;
#56 = ADVANCED_FACE ( 'NONE', ( #148 ), #284, .T. ) ;
#57 = DIRECTION ( 'NONE',  ( -4.275831445896958607E-31, -1.000000000000000000, -1.224646799147353207E-16 ) ) ;
#58 = FACE_OUTER_BOUND ( 'NONE', #121, .T. ) ;
#59 = AXIS2_PLACEMENT_3D ( 'NONE', #313, #251, #101 ) ;
#60 = ADVANCED_FACE ( 'NONE', ( #180 ), #304, .T. ) ;
#61 = FACE_OUTER_BOUND ( 'NONE', #240, .T. ) ;
#62 = MECHANICAL_CONTEXT ( 'NONE', #302, 'mechanical' ) ;
#63 = EDGE_LOOP ( 'NONE', ( #269, #295, #171, #303 ) ) ;
#64 = EDGE_CURVE ( 'NONE', #191, #141, #178, .T. ) ;
#65 = DATE_AND_TIME ( #69, #282 ) ;
#66 = LINE ( 'NONE', #224, #2 ) ;
#67 = PERSON_AND_ORGANIZATION ( #210, #248 ) ;
#68 = DIRECTION ( 'NONE',  ( 1.903218546456022717E-15, 0.8571673007021097801, 0.5150380749100585964 ) ) ;
#69 = CALENDAR_DATE ( 2021, 3, 9 ) ;
#70 = VERTEX_POINT ( 'NONE', #22 ) ;
#71 = ADVANCED_FACE ( 'NONE', ( #154 ), #176, .T. ) ;
#72 = CC_DESIGN_APPROVAL ( #130, ( #230 ) ) ;
#73 = DIRECTION ( 'NONE',  ( -2.382254525458724175E-15, -0.7071067811865452413, -0.7071067811865497932 ) ) ;
#74 = DIRECTION ( 'NONE',  ( -3.491481338843133355E-15, 1.224646799147353207E-16, -1.000000000000000000 ) ) ;
#75 = PRODUCT_DEFINITION ( 'UNKNOWN', '', #230, #80 ) ;
#76 = DIRECTION ( 'NONE',  ( 0.0000000000000000000, 1.000000000000000000, 0.0000000000000000000 ) ) ;
#77 = CARTESIAN_POINT ( 'NONE',  ( 1.397602869146550014E-13, -0.8250000000000049516, 40.00000000000000000 ) ) ;
#78 = DIRECTION ( 'NONE',  ( 0.0000000000000000000, 1.000000000000000000, 0.0000000000000000000 ) ) ;
#79 = CC_DESIGN_DATE_AND_TIME_ASSIGNMENT ( #143, #322, ( #92 ) ) ;
#80 = DESIGN_CONTEXT ( 'detailed design', #165, 'design' ) ;
#81 = CONICAL_SURFACE ( 'NONE', #103, 0.8250000000000000666, 0.7853981633974452814 ) ;
#82 = DIRECTION ( 'NONE',  ( -3.491481338843133355E-15, 1.224646799147353207E-16, -1.000000000000000000 ) ) ;
#83 = CARTESIAN_POINT ( 'NONE',  ( 3.491481338843133355E-14, 8.436148777472902517E-33, 10.00000000000000000 ) ) ;
#84 = AXIS2_PLACEMENT_3D ( 'NONE', #135, #137, #112 ) ;
#85 = EDGE_LOOP ( 'NONE', ( #198, #234, #147, #239 ) ) ;
#86 = PERSON_AND_ORGANIZATION_ROLE ( 'creator' ) ;
#87 = ORIENTED_EDGE ( 'NONE', *, *, #218, .F. ) ;
#88 = ADVANCED_FACE ( 'NONE', ( #100 ), #126, .F. ) ;
#89 = PERSON_AND_ORGANIZATION ( #210, #248 ) ;
#90 = ORIENTED_EDGE ( 'NONE', *, *, #233, .F. ) ;
#91 = VECTOR ( 'NONE', #73, 1000.000000000000000 ) ;
#92 = SECURITY_CLASSIFICATION ( '', '', #167 ) ;
#93 = PERSON_AND_ORGANIZATION_ROLE ( 'design_supplier' ) ;
#94 = PRODUCT_DEFINITION_SHAPE ( 'NONE', 'NONE',  #75 ) ;
#95 = LINE ( 'NONE', #197, #134 ) ;
#96 = PERSON_AND_ORGANIZATION_ROLE ( 'design_owner' ) ;
#97 = PRODUCT_RELATED_PRODUCT_CATEGORY ( 'detail', '', ( #241 ) ) ;
#98 = DIRECTION ( 'NONE',  ( 1.798245827342160317E-15, -0.8571673007021098911, 0.5150380749100582634 ) ) ;
#99 = ORIENTED_EDGE ( 'NONE', *, *, #153, .F. ) ;
#100 = FACE_OUTER_BOUND ( 'NONE', #144, .T. ) ;
#101 = DIRECTION ( 'NONE',  ( -3.423875456688434280E-31, -1.000000000000000000, -9.637352644315637151E-17 ) ) ;
#102 = DIRECTION ( 'NONE',  ( -3.491481338843133355E-15, 1.224646799147353207E-16, -1.000000000000000000 ) ) ;
#103 = AXIS2_PLACEMENT_3D ( 'NONE', #6, #3, #188 ) ;
#104 = DIRECTION ( 'NONE',  ( 4.275831445896958607E-31, 1.000000000000000000, 1.224646799147353207E-16 ) ) ;
#105 = DIRECTION ( 'NONE',  ( -4.275831445896958607E-31, -1.000000000000000000, -1.224646799147353207E-16 ) ) ;
#106 = ADVANCED_FACE ( 'NONE', ( #283 ), #308, .T. ) ;
#107 = AXIS2_PLACEMENT_3D ( 'NONE', #318, #34, #237 ) ;
#108 =( NAMED_UNIT ( * ) SI_UNIT ( $, .STERADIAN. ) SOLID_ANGLE_UNIT ( ) );
#109 = ADVANCED_BREP_SHAPE_REPRESENTATION ( '54516', ( #195, #189, #107 ), #155 ) ;
#110 = PLANE ( 'NONE',  #310 ) ;
#111 = DIRECTION ( 'NONE',  ( -3.491481338843133355E-15, 1.224646799147353207E-16, -1.000000000000000000 ) ) ;
#112 = DIRECTION ( 'NONE',  ( -3.423875456688434280E-31, -1.000000000000000000, -9.637352644315637151E-17 ) ) ;
#113 = CC_DESIGN_APPROVAL ( #212, ( #92 ) ) ;
#114 = VERTEX_POINT ( 'NONE', #311 ) ;
#115 = CC_DESIGN_PERSON_AND_ORGANIZATION_ASSIGNMENT ( #328, #40, ( #75 ) ) ;
#116 = EDGE_LOOP ( 'NONE', ( #276, #166, #5, #90 ) ) ;
#117 = COORDINATED_UNIVERSAL_TIME_OFFSET ( 1, 0, .AHEAD. ) ;
#118 = ORIENTED_EDGE ( 'NONE', *, *, #312, .F. ) ;
#119 = ADVANCED_FACE ( 'NONE', ( #336 ), #28, .T. ) ;
#120 = DATE_AND_TIME ( #44, #258 ) ;
#121 = EDGE_LOOP ( 'NONE', ( #243, #193, #321, #216 ) ) ;
#122 = ORIENTED_EDGE ( 'NONE', *, *, #35, .F. ) ;
#123 = CARTESIAN_POINT ( 'NONE',  ( 1.877524463082124456E-14, -1.124999999999997780, 10.00000000000000000 ) ) ;
#124 = DIRECTION ( 'NONE',  ( -3.491481338843133355E-15, 1.224646799147353207E-16, -1.000000000000000000 ) ) ;
#125 = CC_DESIGN_PERSON_AND_ORGANIZATION_ASSIGNMENT ( #13, #96, ( #241 ) ) ;
#126 = PLANE ( 'NONE',  #145 ) ;
#127 = CARTESIAN_POINT ( 'NONE',  ( 1.377727649040762528E-16, -1.124999999999995781, -1.377727649040771896E-16 ) ) ;
#128 = AXIS2_PLACEMENT_3D ( 'NONE', #160, #288, #4 ) ;
#129 = AXIS2_PLACEMENT_3D ( 'NONE', #231, #205, #256 ) ;
#130 = APPROVAL ( #48, 'UNSPECIFIED' ) ;
#131 = LINE ( 'NONE', #174, #8 ) ;
#132 = DIRECTION ( 'NONE',  ( 0.0000000000000000000, 1.000000000000000000, 0.0000000000000000000 ) ) ;
#133 = CARTESIAN_POINT ( 'NONE',  ( 1.396592535537253342E-13, 0.8249999999999951816, 40.00000000000000000 ) ) ;
#134 = VECTOR ( 'NONE', #68, 999.9999999999998863 ) ;
#135 = CARTESIAN_POINT ( 'NONE',  ( 2.360130343403033820E-15, -8.278222880540293809E-17, 0.6759681964060099135 ) ) ;
#136 = EDGE_CURVE ( 'NONE', #114, #300, #26, .T. ) ;
#137 = DIRECTION ( 'NONE',  ( 3.491481338843133355E-15, -1.224646799147353207E-16, 1.000000000000000000 ) ) ;
#138 = AXIS2_PLACEMENT_3D ( 'NONE', #332, #20, #105 ) ;
#139 = ORIENTED_EDGE ( 'NONE', *, *, #218, .T. ) ;
#140 = CALENDAR_DATE ( 2021, 3, 9 ) ;
#141 = VERTEX_POINT ( 'NONE', #123 ) ;
#142 = VERTEX_POINT ( 'NONE', #277 ) ;
#143 = DATE_AND_TIME ( #164, #319 ) ;
#144 = EDGE_LOOP ( 'NONE', ( #10, #297 ) ) ;
#145 = AXIS2_PLACEMENT_3D ( 'NONE', #201, #25, #104 ) ;
#146 = APPLICATION_PROTOCOL_DEFINITION ( 'international standard', 'config_control_design', 1994, #165 ) ;
#147 = ORIENTED_EDGE ( 'NONE', *, *, #285, .T. ) ;
#148 = FACE_OUTER_BOUND ( 'NONE', #116, .T. ) ;
#149 = CARTESIAN_POINT ( 'NONE',  ( 1.386118091520723879E-13, -4.861847792614992166E-15, 39.69999999999999574 ) ) ;
#150 = VECTOR ( 'NONE', #98, 1000.000000000000000 ) ;
#151 = DIRECTION ( 'NONE',  ( -3.491481338843133355E-15, 1.224646799147353207E-16, -1.000000000000000000 ) ) ;
#152 = DIRECTION ( 'NONE',  ( 0.0000000000000000000, 1.000000000000000000, 0.0000000000000000000 ) ) ;
#153 = EDGE_CURVE ( 'NONE', #222, #45, #131, .T. ) ;
#154 = FACE_OUTER_BOUND ( 'NONE', #7, .T. ) ;
#155 =( GEOMETRIC_REPRESENTATION_CONTEXT ( 3 ) GLOBAL_UNCERTAINTY_ASSIGNED_CONTEXT ( ( #192 ) ) GLOBAL_UNIT_ASSIGNED_CONTEXT ( ( #289, #1, #108 ) ) REPRESENTATION_CONTEXT ( 'NONE', 'WORKASPACE' ) );
#156 = DIRECTION ( 'NONE',  ( -3.491481338843133355E-15, 1.224646799147353207E-16, -1.000000000000000000 ) ) ;
#157 = CARTESIAN_POINT ( 'NONE',  ( 3.491481338843133355E-14, 1.124999999999995115, 10.00000000000000000 ) ) ;
#158 = EDGE_CURVE ( 'NONE', #222, #18, #46, .T. ) ;
#159 = DIRECTION ( 'NONE',  ( 3.491481338843133355E-15, -1.224646799147353207E-16, 1.000000000000000000 ) ) ;
#160 = CARTESIAN_POINT ( 'NONE',  ( 2.360130343403033820E-15, -8.278222880540293809E-17, 0.6759681964060099135 ) ) ;
#161 = APPROVAL_DATE_TIME ( #196, #130 ) ;
#162 = PERSON_AND_ORGANIZATION ( #210, #248 ) ;
#163 = ORIENTED_EDGE ( 'NONE', *, *, #35, .T. ) ;
#164 = CALENDAR_DATE ( 2021, 3, 9 ) ;
#165 = APPLICATION_CONTEXT ( 'configuration controlled 3d designs of mechanical parts and assemblies' ) ;
#166 = ORIENTED_EDGE ( 'NONE', *, *, #153, .T. ) ;
#167 = SECURITY_CLASSIFICATION_LEVEL ( 'unclassified' ) ;
#168 = LINE ( 'NONE', #271, #150 ) ;
#169 = PERSON_AND_ORGANIZATION ( #210, #248 ) ;
#170 = AXIS2_PLACEMENT_3D ( 'NONE', #333, #278, #177 ) ;
#171 = ORIENTED_EDGE ( 'NONE', *, *, #194, .F. ) ;
#172 = AXIS2_PLACEMENT_3D ( 'NONE', #232, #337, #186 ) ;
#173 = LOCAL_TIME ( 9, 49, 6.000000000000000000, #293 ) ;
#174 = CARTESIAN_POINT ( 'NONE',  ( 1.377727649040765486E-16, -1.124999999999998224, -1.377727649040774854E-16 ) ) ;
#175 = EDGE_CURVE ( 'NONE', #327, #142, #39, .T. ) ;
#176 = PLANE ( 'NONE',  #138 ) ;
#177 = DIRECTION ( 'NONE',  ( 4.275831445896957731E-31, 1.000000000000000000, 1.224646799147353207E-16 ) ) ;
#178 = CIRCLE ( 'NONE', #252, 1.124999999999996447 ) ;
#179 = LINE ( 'NONE', #127, #287 ) ;
#180 = FACE_OUTER_BOUND ( 'NONE', #17, .T. ) ;
#181 = CARTESIAN_POINT ( 'NONE',  ( 3.491481338843133355E-14, -1.224646799147353256E-15, 10.00000000000000000 ) ) ;
#182 = VECTOR ( 'NONE', #238, 1000.000000000000000 ) ;
#183 = LOCAL_TIME ( 9, 49, 6.000000000000000000, #215 ) ;
#184 = CYLINDRICAL_SURFACE ( 'NONE', #172, 1.124999999999995781 ) ;
#185 = ADVANCED_FACE ( 'NONE', ( #202 ), #324, .T. ) ;
#186 = DIRECTION ( 'NONE',  ( 4.275831445896957731E-31, 1.000000000000000000, 1.224646799147353207E-16 ) ) ;
#187 = AXIS2_PLACEMENT_3D ( 'NONE', #23, #74, #53 ) ;
#188 = DIRECTION ( 'NONE',  ( 0.0000000000000000000, 1.000000000000000000, 0.0000000000000000000 ) ) ;
#189 = MANIFOLD_SOLID_BREP ( 'Corps-Déplacer/Copier1[2]', #229 ) ;
#190 = PERSON_AND_ORGANIZATION ( #210, #248 ) ;
#191 = VERTEX_POINT ( 'NONE', #306 ) ;
#192 = UNCERTAINTY_MEASURE_WITH_UNIT (LENGTH_MEASURE( 1.000000000000000082E-05 ), #289, 'distance_accuracy_value', 'NONE');
#193 = ORIENTED_EDGE ( 'NONE', *, *, #312, .T. ) ;
#194 = EDGE_CURVE ( 'NONE', #18, #222, #274, .T. ) ;
#195 = MANIFOLD_SOLID_BREP ( 'Corps-Déplacer/Copier1[1]', #247 ) ;
#196 = DATE_AND_TIME ( #140, #183 ) ;
#197 = CARTESIAN_POINT ( 'NONE',  ( 2.497903108307110862E-15, 1.124999999999995115, 0.6759681964060100245 ) ) ;
#198 = ORIENTED_EDGE ( 'NONE', *, *, #43, .F. ) ;
#199 = ORIENTED_EDGE ( 'NONE', *, *, #24, .F. ) ;
#200 = DIRECTION ( 'NONE',  ( 0.0000000000000000000, 1.000000000000000000, 0.0000000000000000000 ) ) ;
#201 = CARTESIAN_POINT ( 'NONE',  ( 1.396592535537253342E-13, 6.186509103480091473E-33, 40.00000000000000000 ) ) ;
#202 = FACE_OUTER_BOUND ( 'NONE', #85, .T. ) ;
#203 = AXIS2_PLACEMENT_3D ( 'NONE', #181, #207, #235 ) ;
#204 = CONICAL_SURFACE ( 'NONE', #84, 1.124999999999995115, 1.029744258676649649 ) ;
#205 = DIRECTION ( 'NONE',  ( -3.491481338843133355E-15, 1.224646799147353207E-16, -1.000000000000000000 ) ) ;
#206 = CARTESIAN_POINT ( 'NONE',  ( 8.690108403515587781E-14, -1.124999999999997780, 10.00000000000000000 ) ) ;
#207 = DIRECTION ( 'NONE',  ( -3.491481338843133355E-15, 1.224646799147353207E-16, -1.000000000000000000 ) ) ;
#208 = EDGE_CURVE ( 'NONE', #141, #300, #179, .T. ) ;
#209 = AXIS2_PLACEMENT_3D ( 'NONE', #149, #227, #76 ) ;
#210 = PERSON ( 'UNSPECIFIED', 'UNSPECIFIED', 'UNSPECIFIED', ('UNSPECIFIED'), ('UNSPECIFIED'), ('UNSPECIFIED') ) ;
#211 = DIRECTION ( 'NONE',  ( 0.0000000000000000000, 1.000000000000000000, 0.0000000000000000000 ) ) ;
#212 = APPROVAL ( #298, 'UNSPECIFIED' ) ;
#213 = VECTOR ( 'NONE', #36, 1000.000000000000000 ) ;
#214 = CARTESIAN_POINT ( 'NONE',  ( 1.396592535537253342E-13, -4.898587196589413026E-15, 40.00000000000000000 ) ) ;
#215 = COORDINATED_UNIVERSAL_TIME_OFFSET ( 1, 0, .AHEAD. ) ;
#216 = ORIENTED_EDGE ( 'NONE', *, *, #223, .F. ) ;
#217 = CARTESIAN_POINT ( 'NONE',  ( 1.386118091520723879E-13, 1.124999999999995115, 39.69999999999999574 ) ) ;
#218 = EDGE_CURVE ( 'NONE', #45, #323, #16, .T. ) ;
#219 = APPROVAL_STATUS ( 'not_yet_approved' ) ;
#220 = ORIENTED_EDGE ( 'NONE', *, *, #136, .T. ) ;
#221 = APPROVAL_ROLE ( '' ) ;
#222 = VERTEX_POINT ( 'NONE', #29 ) ;
#223 = EDGE_CURVE ( 'NONE', #300, #114, #330, .T. ) ;
#224 = CARTESIAN_POINT ( 'NONE',  ( 4.810310376634059821E-31, 1.124999999999995781, 1.377727649040767212E-16 ) ) ;
#225 = DIRECTION ( 'NONE',  ( -3.491481338843133355E-15, 1.224646799147353207E-16, -1.000000000000000000 ) ) ;
#226 = CIRCLE ( 'NONE', #262, 1.124999999999996447 ) ;
#227 = DIRECTION ( 'NONE',  ( -3.491481338843133355E-15, 1.224646799147353207E-16, -1.000000000000000000 ) ) ;
#228 = DIRECTION ( 'NONE',  ( -3.491481338843133355E-15, 1.224646799147353207E-16, -1.000000000000000000 ) ) ;
#229 = CLOSED_SHELL ( 'NONE', ( #119, #60, #265, #279, #71 ) ) ;
#230 = PRODUCT_DEFINITION_FORMATION_WITH_SPECIFIED_SOURCE ( 'ANY', '', #241, .NOT_KNOWN. ) ;
#231 = CARTESIAN_POINT ( 'NONE',  ( 0.0000000000000000000, 0.0000000000000000000, 0.0000000000000000000 ) ) ;
#232 = CARTESIAN_POINT ( 'NONE',  ( 0.0000000000000000000, 0.0000000000000000000, 0.0000000000000000000 ) ) ;
#233 = EDGE_CURVE ( 'NONE', #18, #323, #317, .T. ) ;
#234 = ORIENTED_EDGE ( 'NONE', *, *, #272, .T. ) ;
#235 = DIRECTION ( 'NONE',  ( 0.0000000000000000000, 1.000000000000000000, 0.0000000000000000000 ) ) ;
#236 = CC_DESIGN_PERSON_AND_ORGANIZATION_ASSIGNMENT ( #242, #270, ( #92 ) ) ;
#237 = DIRECTION ( 'NONE',  ( 1.000000000000000000, 0.0000000000000000000, 0.0000000000000000000 ) ) ;
#238 = DIRECTION ( 'NONE',  ( -3.491481338843133355E-15, 1.224646799147353207E-16, -1.000000000000000000 ) ) ;
#239 = ORIENTED_EDGE ( 'NONE', *, *, #158, .F. ) ;
#240 = EDGE_LOOP ( 'NONE', ( #42, #163, #12 ) ) ;
#241 = PRODUCT ( '54516', '54516', '', ( #62 ) ) ;
#242 = PERSON_AND_ORGANIZATION ( #210, #248 ) ;
#243 = ORIENTED_EDGE ( 'NONE', *, *, #208, .F. ) ;
#244 = CALENDAR_DATE ( 2021, 3, 9 ) ;
#245 = ORIENTED_EDGE ( 'NONE', *, *, #31, .T. ) ;
#246 = APPROVAL_DATE_TIME ( #120, #212 ) ;
#247 = CLOSED_SHELL ( 'NONE', ( #255, #56, #307, #106, #185, #88 ) ) ;
#248 = ORGANIZATION ( 'UNSPECIFIED', 'UNSPECIFIED', '' ) ;
#249 = ORIENTED_EDGE ( 'NONE', *, *, #208, .T. ) ;
#250 = ORIENTED_EDGE ( 'NONE', *, *, #64, .F. ) ;
#251 = DIRECTION ( 'NONE',  ( 3.491481338843133355E-15, -1.224646799147353207E-16, 1.000000000000000000 ) ) ;
#252 = AXIS2_PLACEMENT_3D ( 'NONE', #253, #54, #309 ) ;
#253 = CARTESIAN_POINT ( 'NONE',  ( 3.491481338843133355E-14, -1.224646799147353256E-15, 10.00000000000000000 ) ) ;
#254 = DIRECTION ( 'NONE',  ( -3.491481338843133355E-15, 1.224646799147353207E-16, -1.000000000000000000 ) ) ;
#255 = ADVANCED_FACE ( 'NONE', ( #263 ), #81, .T. ) ;
#256 = DIRECTION ( 'NONE',  ( 4.275831445896957731E-31, 1.000000000000000000, 1.224646799147352961E-16 ) ) ;
#257 = DIRECTION ( 'NONE',  ( 4.275831445896957731E-31, 1.000000000000000000, 1.224646799147352961E-16 ) ) ;
#258 = LOCAL_TIME ( 9, 49, 6.000000000000000000, #11 ) ;
#259 = CC_DESIGN_PERSON_AND_ORGANIZATION_ASSIGNMENT ( #169, #93, ( #230 ) ) ;
#260 = LINE ( 'NONE', #286, #213 ) ;
#261 = CARTESIAN_POINT ( 'NONE',  ( 2.360130343403033426E-15, -1.124999999999995115, 0.6759681964060098025 ) ) ;
#262 = AXIS2_PLACEMENT_3D ( 'NONE', #55, #82, #211 ) ;
#263 = FACE_OUTER_BOUND ( 'NONE', #63, .T. ) ;
#264 = ORIENTED_EDGE ( 'NONE', *, *, #64, .T. ) ;
#265 = ADVANCED_FACE ( 'NONE', ( #61 ), #204, .T. ) ;
#266 = DATE_AND_TIME ( #244, #173 ) ;
#267 = EDGE_LOOP ( 'NONE', ( #99, #41, #305, #87 ) ) ;
#268 = APPROVAL_ROLE ( '' ) ;
#269 = ORIENTED_EDGE ( 'NONE', *, *, #175, .T. ) ;
#270 = PERSON_AND_ORGANIZATION_ROLE ( 'classification_officer' ) ;
#271 = CARTESIAN_POINT ( 'NONE',  ( 2.360130343403033426E-15, -1.124999999999995115, 0.6759681964060098025 ) ) ;
#272 = EDGE_CURVE ( 'NONE', #142, #327, #320, .T. ) ;
#273 = APPROVAL_DATE_TIME ( #266, #19 ) ;
#274 = CIRCLE ( 'NONE', #209, 1.125000000000000000 ) ;
#275 = CIRCLE ( 'NONE', #47, 1.124999999999996447 ) ;
#276 = ORIENTED_EDGE ( 'NONE', *, *, #194, .T. ) ;
#277 = CARTESIAN_POINT ( 'NONE',  ( 1.392549344158157221E-13, -0.8250000000000049516, 40.00000000000000000 ) ) ;
#278 = DIRECTION ( 'NONE',  ( -3.491481338843133355E-15, 1.224646799147353207E-16, -1.000000000000000000 ) ) ;
#279 = ADVANCED_FACE ( 'NONE', ( #58 ), #184, .T. ) ;
#280 = AXIS2_PLACEMENT_3D ( 'NONE', #49, #225, #281 ) ;
#281 = DIRECTION ( 'NONE',  ( 0.0000000000000000000, 1.000000000000000000, 0.0000000000000000000 ) ) ;
#282 = LOCAL_TIME ( 9, 49, 6.000000000000000000, #326 ) ;
#283 = FACE_OUTER_BOUND ( 'NONE', #267, .T. ) ;
#284 = CYLINDRICAL_SURFACE ( 'NONE', #129, 1.124999999999998224 ) ;
#285 = EDGE_CURVE ( 'NONE', #327, #18, #260, .T. ) ;
#286 = CARTESIAN_POINT ( 'NONE',  ( 1.396592535537253342E-13, 0.8249999999999951816, 40.00000000000000000 ) ) ;
#287 = VECTOR ( 'NONE', #228, 1000.000000000000000 ) ;
#288 = DIRECTION ( 'NONE',  ( -3.491481338843133355E-15, 1.224646799147353207E-16, -1.000000000000000000 ) ) ;
#289 =( LENGTH_UNIT ( ) NAMED_UNIT ( * ) SI_UNIT ( .MILLI., .METRE. ) );
#290 = APPROVAL_PERSON_ORGANIZATION ( #190, #212, #268 ) ;
#291 = ORIENTED_EDGE ( 'NONE', *, *, #334, .T. ) ;
#292 = CARTESIAN_POINT ( 'NONE',  ( 3.491481338843133355E-14, -1.224646799147353256E-15, 10.00000000000000000 ) ) ;
#293 = COORDINATED_UNIVERSAL_TIME_OFFSET ( 1, 0, .AHEAD. ) ;
#294 = SHAPE_DEFINITION_REPRESENTATION ( #94, #109 ) ;
#295 = ORIENTED_EDGE ( 'NONE', *, *, #43, .T. ) ;
#296 = DATE_TIME_ROLE ( 'creation_date' ) ;
#297 = ORIENTED_EDGE ( 'NONE', *, *, #272, .F. ) ;
#298 = APPROVAL_STATUS ( 'not_yet_approved' ) ;
#299 = CC_DESIGN_PERSON_AND_ORGANIZATION_ASSIGNMENT ( #89, #86, ( #230 ) ) ;
#300 = VERTEX_POINT ( 'NONE', #261 ) ;
#301 = APPROVAL_ROLE ( '' ) ;
#302 = APPLICATION_CONTEXT ( 'configuration controlled 3d designs of mechanical parts and assemblies' ) ;
#303 = ORIENTED_EDGE ( 'NONE', *, *, #285, .F. ) ;
#304 = CONICAL_SURFACE ( 'NONE', #59, 1.124999999999995115, 1.029744258676649649 ) ;
#305 = ORIENTED_EDGE ( 'NONE', *, *, #233, .T. ) ;
#306 = CARTESIAN_POINT ( 'NONE',  ( 3.491481338843133355E-14, 1.124999999999995115, 10.00000000000000000 ) ) ;
#307 = ADVANCED_FACE ( 'NONE', ( #30 ), #110, .F. ) ;
#308 = CYLINDRICAL_SURFACE ( 'NONE', #315, 1.124999999999998224 ) ;
#309 = DIRECTION ( 'NONE',  ( 0.0000000000000000000, 1.000000000000000000, 0.0000000000000000000 ) ) ;
#310 = AXIS2_PLACEMENT_3D ( 'NONE', #83, #159, #57 ) ;
#311 = CARTESIAN_POINT ( 'NONE',  ( 2.497903108307110862E-15, 1.124999999999995115, 0.6759681964060100245 ) ) ;
#312 = EDGE_CURVE ( 'NONE', #141, #191, #226, .T. ) ;
#313 = CARTESIAN_POINT ( 'NONE',  ( 2.360130343403033820E-15, -8.278222880540293809E-17, 0.6759681964060099135 ) ) ;
#314 = CARTESIAN_POINT ( 'NONE',  ( 4.810310376634070331E-31, 1.124999999999998224, 1.377727649040769924E-16 ) ) ;
#315 = AXIS2_PLACEMENT_3D ( 'NONE', #335, #124, #257 ) ;
#316 = AXIS2_PLACEMENT_3D ( 'NONE', #214, #111, #78 ) ;
#317 = LINE ( 'NONE', #314, #182 ) ;
#318 = CARTESIAN_POINT ( 'NONE',  ( 0.0000000000000000000, 0.0000000000000000000, 0.0000000000000000000 ) ) ;
#319 = LOCAL_TIME ( 9, 49, 6.000000000000000000, #117 ) ;
#320 = CIRCLE ( 'NONE', #316, 0.8250000000000000666 ) ;
#321 = ORIENTED_EDGE ( 'NONE', *, *, #24, .T. ) ;
#322 = DATE_TIME_ROLE ( 'classification_date' ) ;
#323 = VERTEX_POINT ( 'NONE', #157 ) ;
#324 = CONICAL_SURFACE ( 'NONE', #33, 0.8250000000000000666, 0.7853981633974452814 ) ;
#325 = APPROVAL_PERSON_ORGANIZATION ( #67, #130, #301 ) ;
#326 = COORDINATED_UNIVERSAL_TIME_OFFSET ( 1, 0, .AHEAD. ) ;
#327 = VERTEX_POINT ( 'NONE', #133 ) ;
#328 = PERSON_AND_ORGANIZATION ( #210, #248 ) ;
#329 = DIRECTION ( 'NONE',  ( -3.491481338843133355E-15, 1.224646799147353207E-16, -1.000000000000000000 ) ) ;
#330 = CIRCLE ( 'NONE', #128, 1.124999999999995115 ) ;
#331 = CARTESIAN_POINT ( 'NONE',  ( 1.396592535537253342E-13, -4.898587196589413026E-15, 40.00000000000000000 ) ) ;
#332 = CARTESIAN_POINT ( 'NONE',  ( 3.491481338843133355E-14, 8.436148777472902517E-33, 10.00000000000000000 ) ) ;
#333 = CARTESIAN_POINT ( 'NONE',  ( 0.0000000000000000000, 0.0000000000000000000, 0.0000000000000000000 ) ) ;
#334 = EDGE_CURVE ( 'NONE', #323, #45, #275, .T. ) ;
#335 = CARTESIAN_POINT ( 'NONE',  ( 0.0000000000000000000, 0.0000000000000000000, 0.0000000000000000000 ) ) ;
#336 = FACE_OUTER_BOUND ( 'NONE', #14, .T. ) ;
#337 = DIRECTION ( 'NONE',  ( -3.491481338843133355E-15, 1.224646799147353207E-16, -1.000000000000000000 ) ) ;
ENDSEC;
END-ISO-10303-21;
