ISO-10303-21;
HEADER;
FILE_DESCRIPTION (( 'STEP AP203' ),
    '1' );
FILE_NAME ('54514.step',
    '2021-09-03T07:49:04',
    ( '' ),
    ( '' ),
    'SwSTEP 2.0',
    'SolidWorks 2019',
    '' );
FILE_SCHEMA (( 'CONFIG_CONTROL_DESIGN' ));
ENDSEC;

DATA;
#1 = COORDINATED_UNIVERSAL_TIME_OFFSET ( 1, 0, .AHEAD. ) ;
#2 = ORIENTED_EDGE ( 'NONE', *, *, #330, .F. ) ;
#3 = CALENDAR_DATE ( 2021, 3, 9 ) ;
#4 = DESIGN_CONTEXT ( 'detailed design', #149, 'design' ) ;
#5 = ORIENTED_EDGE ( 'NONE', *, *, #62, .T. ) ;
#6 = EDGE_CURVE ( 'NONE', #261, #295, #94, .T. ) ;
#7 = APPLICATION_PROTOCOL_DEFINITION ( 'international standard', 'config_control_design', 1994, #97 ) ;
#8 = ORIENTED_EDGE ( 'NONE', *, *, #274, .F. ) ;
#9 = AXIS2_PLACEMENT_3D ( 'NONE', #285, #264, #243 ) ;
#10 = APPROVAL_DATE_TIME ( #140, #115 ) ;
#11 = CIRCLE ( 'NONE', #9, 1.099999999999995204 ) ;
#12 = ORIENTED_EDGE ( 'NONE', *, *, #69, .F. ) ;
#13 = DIRECTION ( 'NONE',  ( 0.0000000000000000000, 1.000000000000000000, 0.0000000000000000000 ) ) ;
#14 = APPROVAL_DATE_TIME ( #173, #335 ) ;
#15 = ORIENTED_EDGE ( 'NONE', *, *, #222, .T. ) ;
#16 = ORIENTED_EDGE ( 'NONE', *, *, #19, .F. ) ;
#17 = AXIS2_PLACEMENT_3D ( 'NONE', #230, #21, #206 ) ;
#18 = CARTESIAN_POINT ( 'NONE',  ( 2.307683002438521221E-15, -1.099999999999995204, 0.6609466809303206070 ) ) ;
#19 = EDGE_CURVE ( 'NONE', #190, #89, #41, .T. ) ;
#20 = CARTESIAN_POINT ( 'NONE',  ( 2.442394150344730121E-15, 1.099999999999995204, 0.6609466809303208290 ) ) ;
#21 = DIRECTION ( 'NONE',  ( -3.491481338843133355E-15, 1.224646799147353207E-16, -1.000000000000000000 ) ) ;
#22 = CARTESIAN_POINT ( 'NONE',  ( 2.307683002438521616E-15, -8.094262372083843603E-17, 0.6609466809303207180 ) ) ;
#23 = CARTESIAN_POINT ( 'NONE',  ( 3.491481338843133355E-14, 1.099999999999995204, 10.00000000000000000 ) ) ;
#24 = DIRECTION ( 'NONE',  ( -3.491481338843133355E-15, 1.224646799147353207E-16, -1.000000000000000000 ) ) ;
#25 = AXIS2_PLACEMENT_3D ( 'NONE', #333, #126, #75 ) ;
#26 = CC_DESIGN_SECURITY_CLASSIFICATION ( #60, ( #152 ) ) ;
#27 = FACE_OUTER_BOUND ( 'NONE', #56, .T. ) ;
#28 = ADVANCED_FACE ( 'NONE', ( #297 ), #320, .T. ) ;
#29 = APPROVAL_STATUS ( 'not_yet_approved' ) ;
#30 = APPROVAL_STATUS ( 'not_yet_approved' ) ;
#31 = EDGE_LOOP ( 'NONE', ( #16, #192, #315, #239 ) ) ;
#32 = VECTOR ( 'NONE', #145, 1000.000000000000000 ) ;
#33 = CALENDAR_DATE ( 2021, 3, 9 ) ;
#34 = ORIENTED_EDGE ( 'NONE', *, *, #222, .F. ) ;
#35 =( NAMED_UNIT ( * ) SI_UNIT ( $, .STERADIAN. ) SOLID_ANGLE_UNIT ( ) );
#36 = EDGE_CURVE ( 'NONE', #89, #295, #59, .T. ) ;
#37 = PERSON_AND_ORGANIZATION_ROLE ( 'design_owner' ) ;
#38 = PLANE ( 'NONE',  #142 ) ;
#39 = EDGE_CURVE ( 'NONE', #190, #241, #200, .T. ) ;
#40 = CARTESIAN_POINT ( 'NONE',  ( 4.703414590486647636E-31, 1.099999999999998312, 1.347111479062086531E-16 ) ) ;
#41 = LINE ( 'NONE', #324, #87 ) ;
#42 = DIRECTION ( 'NONE',  ( -3.491481338843133355E-15, 1.224646799147353207E-16, -1.000000000000000000 ) ) ;
#43 = VECTOR ( 'NONE', #175, 1000.000000000000000 ) ;
#44 = EDGE_CURVE ( 'NONE', #261, #89, #124, .T. ) ;
#45 = CARTESIAN_POINT ( 'NONE',  ( 2.307683002438521221E-15, -1.099999999999995204, 0.6609466809303206070 ) ) ;
#46 = CARTESIAN_POINT ( 'NONE',  ( 1.347111479062081847E-16, -1.099999999999998312, -1.347111479062091215E-16 ) ) ;
#47 = FACE_OUTER_BOUND ( 'NONE', #120, .T. ) ;
#48 = AXIS2_PLACEMENT_3D ( 'NONE', #302, #228, #196 ) ;
#49 = DIRECTION ( 'NONE',  ( -3.491481338843133355E-15, 1.224646799147353207E-16, -1.000000000000000000 ) ) ;
#50 = DIRECTION ( 'NONE',  ( -3.491481338843133355E-15, 1.224646799147353207E-16, -1.000000000000000000 ) ) ;
#51 = DIRECTION ( 'NONE',  ( 4.275831445896958607E-31, 1.000000000000000000, 1.224646799147353207E-16 ) ) ;
#52 = AXIS2_PLACEMENT_3D ( 'NONE', #281, #24, #153 ) ;
#53 = CC_DESIGN_DATE_AND_TIME_ASSIGNMENT ( #237, #189, ( #60 ) ) ;
#54 = MECHANICAL_CONTEXT ( 'NONE', #97, 'mechanical' ) ;
#55 =( NAMED_UNIT ( * ) PLANE_ANGLE_UNIT ( ) SI_UNIT ( $, .RADIAN. ) );
#56 = EDGE_LOOP ( 'NONE', ( #34, #203, #141, #214 ) ) ;
#57 = PERSON ( 'UNSPECIFIED', 'UNSPECIFIED', 'UNSPECIFIED', ('UNSPECIFIED'), ('UNSPECIFIED'), ('UNSPECIFIED') ) ;
#58 = DIRECTION ( 'NONE',  ( 0.0000000000000000000, 0.0000000000000000000, 1.000000000000000000 ) ) ;
#59 = CIRCLE ( 'NONE', #114, 1.099999999999995204 ) ;
#60 = SECURITY_CLASSIFICATION ( '', '', #235 ) ;
#61 = DATE_AND_TIME ( #217, #246 ) ;
#62 = EDGE_CURVE ( 'NONE', #158, #63, #195, .T. ) ;
#63 = VERTEX_POINT ( 'NONE', #221 ) ;
#64 = COORDINATED_UNIVERSAL_TIME_OFFSET ( 1, 0, .AHEAD. ) ;
#65 = EDGE_LOOP ( 'NONE', ( #213, #116, #70, #265 ) ) ;
#66 = LOCAL_TIME ( 9, 49, 4.000000000000000000, #262 ) ;
#67 = DIRECTION ( 'NONE',  ( 4.275831445896958607E-31, 1.000000000000000000, 1.224646799147353207E-16 ) ) ;
#68 = CARTESIAN_POINT ( 'NONE',  ( 0.0000000000000000000, 0.0000000000000000000, 0.0000000000000000000 ) ) ;
#69 = EDGE_CURVE ( 'NONE', #241, #295, #227, .T. ) ;
#70 = ORIENTED_EDGE ( 'NONE', *, *, #211, .F. ) ;
#71 = CLOSED_SHELL ( 'NONE', ( #150, #257, #194, #226, #298, #95 ) ) ;
#72 = ORIENTED_EDGE ( 'NONE', *, *, #6, .F. ) ;
#73 = VECTOR ( 'NONE', #225, 999.9999999999998863 ) ;
#74 = VERTEX_POINT ( 'NONE', #269 ) ;
#75 = DIRECTION ( 'NONE',  ( 0.0000000000000000000, 1.000000000000000000, 0.0000000000000000000 ) ) ;
#76 = PLANE ( 'NONE',  #103 ) ;
#77 = AXIS2_PLACEMENT_3D ( 'NONE', #128, #326, #99 ) ;
#78 = CYLINDRICAL_SURFACE ( 'NONE', #275, 1.099999999999998312 ) ;
#79 = PRODUCT ( '54514', '54514', '', ( #54 ) ) ;
#80 = FACE_OUTER_BOUND ( 'NONE', #248, .T. ) ;
#81 = EDGE_CURVE ( 'NONE', #63, #336, #277, .T. ) ;
#82 = APPROVAL_DATE_TIME ( #61, #283 ) ;
#83 = AXIS2_PLACEMENT_3D ( 'NONE', #186, #58, #184 ) ;
#84 = APPROVAL_ROLE ( '' ) ;
#85 = ORIENTED_EDGE ( 'NONE', *, *, #44, .T. ) ;
#86 = APPROVAL_ROLE ( '' ) ;
#87 = VECTOR ( 'NONE', #171, 1000.000000000000000 ) ;
#88 = PERSON_AND_ORGANIZATION ( #57, #270 ) ;
#89 = VERTEX_POINT ( 'NONE', #45 ) ;
#90 = EDGE_LOOP ( 'NONE', ( #293, #163 ) ) ;
#91 = PLANE ( 'NONE',  #306 ) ;
#92 = VECTOR ( 'NONE', #249, 1000.000000000000000 ) ;
#93 = DIRECTION ( 'NONE',  ( 3.501690807976807906E-31, 1.000000000000000000, 9.856383386231901968E-17 ) ) ;
#94 = LINE ( 'NONE', #20, #73 ) ;
#95 = ADVANCED_FACE ( 'NONE', ( #299 ), #38, .F. ) ;
#96 = DIRECTION ( 'NONE',  ( -3.491481338843133355E-15, 1.224646799147353207E-16, -1.000000000000000000 ) ) ;
#97 = APPLICATION_CONTEXT ( 'configuration controlled 3d designs of mechanical parts and assemblies' ) ;
#98 = CARTESIAN_POINT ( 'NONE',  ( 4.703414590486637126E-31, 1.099999999999995870, 1.347111479062083573E-16 ) ) ;
#99 = DIRECTION ( 'NONE',  ( 0.0000000000000000000, 1.000000000000000000, 0.0000000000000000000 ) ) ;
#100 = EDGE_CURVE ( 'NONE', #288, #63, #212, .T. ) ;
#101 = CARTESIAN_POINT ( 'NONE',  ( 1.874595934334111696E-14, -1.099999999999997868, 10.00000000000000000 ) ) ;
#102 = DIRECTION ( 'NONE',  ( -3.501690807976807906E-31, -1.000000000000000000, -9.856383386231901968E-17 ) ) ;
#103 = AXIS2_PLACEMENT_3D ( 'NONE', #234, #252, #305 ) ;
#104 = CC_DESIGN_PERSON_AND_ORGANIZATION_ASSIGNMENT ( #162, #139, ( #152 ) ) ;
#105 = LINE ( 'NONE', #46, #187 ) ;
#106 = CARTESIAN_POINT ( 'NONE',  ( 0.0000000000000000000, 0.0000000000000000000, 0.0000000000000000000 ) ) ;
#107 = ORIENTED_EDGE ( 'NONE', *, *, #216, .T. ) ;
#108 = CC_DESIGN_APPROVAL ( #115, ( #134 ) ) ;
#109 =( LENGTH_UNIT ( ) NAMED_UNIT ( * ) SI_UNIT ( .MILLI., .METRE. ) );
#110 = ORIENTED_EDGE ( 'NONE', *, *, #330, .T. ) ;
#111 = EDGE_CURVE ( 'NONE', #74, #158, #280, .T. ) ;
#112 = DATE_AND_TIME ( #3, #296 ) ;
#113 = PERSON_AND_ORGANIZATION ( #57, #270 ) ;
#114 = AXIS2_PLACEMENT_3D ( 'NONE', #300, #321, #93 ) ;
#115 = APPROVAL ( #29, 'UNSPECIFIED' ) ;
#116 = ORIENTED_EDGE ( 'NONE', *, *, #294, .T. ) ;
#117 = CARTESIAN_POINT ( 'NONE',  ( 1.396592535537253342E-13, -4.898587196589413026E-15, 40.00000000000000000 ) ) ;
#118 = FACE_OUTER_BOUND ( 'NONE', #147, .T. ) ;
#119 = CONICAL_SURFACE ( 'NONE', #201, 1.099999999999995204, 1.029744258676649649 ) ;
#120 = EDGE_LOOP ( 'NONE', ( #290, #273, #110 ) ) ;
#121 = ADVANCED_FACE ( 'NONE', ( #319 ), #91, .T. ) ;
#122 = CALENDAR_DATE ( 2021, 3, 9 ) ;
#123 = EDGE_LOOP ( 'NONE', ( #250, #215, #5, #317 ) ) ;
#124 = LINE ( 'NONE', #18, #43 ) ;
#125 = AXIS2_PLACEMENT_3D ( 'NONE', #247, #322, #13 ) ;
#126 = DIRECTION ( 'NONE',  ( -3.491481338843133355E-15, 1.224646799147353207E-16, -1.000000000000000000 ) ) ;
#127 = DIRECTION ( 'NONE',  ( 3.491481338843133355E-15, -1.224646799147353207E-16, 1.000000000000000000 ) ) ;
#128 = CARTESIAN_POINT ( 'NONE',  ( 1.396592535537253342E-13, -4.898587196589413026E-15, 40.00000000000000000 ) ) ;
#129 = ADVANCED_FACE ( 'NONE', ( #118 ), #224, .T. ) ;
#130 = CARTESIAN_POINT ( 'NONE',  ( 2.442394150344730121E-15, 1.099999999999995204, 0.6609466809303208290 ) ) ;
#131 = AXIS2_PLACEMENT_3D ( 'NONE', #232, #177, #151 ) ;
#132 = DIRECTION ( 'NONE',  ( -3.491481338843133355E-15, 1.224646799147353207E-16, -1.000000000000000000 ) ) ;
#133 = COORDINATED_UNIVERSAL_TIME_OFFSET ( 1, 0, .AHEAD. ) ;
#134 = PRODUCT_DEFINITION ( 'UNKNOWN', '', #152, #4 ) ;
#135 = EDGE_LOOP ( 'NONE', ( #8, #251 ) ) ;
#136 = AXIS2_PLACEMENT_3D ( 'NONE', #256, #208, #156 ) ;
#137 = PERSON_AND_ORGANIZATION ( #57, #270 ) ;
#138 = ORIENTED_EDGE ( 'NONE', *, *, #81, .F. ) ;
#139 = PERSON_AND_ORGANIZATION_ROLE ( 'creator' ) ;
#140 = DATE_AND_TIME ( #33, #66 ) ;
#141 = ORIENTED_EDGE ( 'NONE', *, *, #81, .T. ) ;
#142 = AXIS2_PLACEMENT_3D ( 'NONE', #148, #42, #67 ) ;
#143 = DIRECTION ( 'NONE',  ( -2.468850131082272443E-15, 0.7071067811865454633, -0.7071067811865495711 ) ) ;
#144 = DIRECTION ( 'NONE',  ( -4.275831445896958607E-31, -1.000000000000000000, -1.224646799147353207E-16 ) ) ;
#145 = DIRECTION ( 'NONE',  ( -3.491481338843133355E-15, 1.224646799147353207E-16, -1.000000000000000000 ) ) ;
#146 = CIRCLE ( 'NONE', #52, 1.100000000000000089 ) ;
#147 = EDGE_LOOP ( 'NONE', ( #72, #85, #236 ) ) ;
#148 = CARTESIAN_POINT ( 'NONE',  ( 1.396592535537253342E-13, 5.999039130647359272E-33, 40.00000000000000000 ) ) ;
#149 = APPLICATION_CONTEXT ( 'configuration controlled 3d designs of mechanical parts and assemblies' ) ;
#150 = ADVANCED_FACE ( 'NONE', ( #284 ), #289, .T. ) ;
#151 = DIRECTION ( 'NONE',  ( 0.0000000000000000000, 1.000000000000000000, 0.0000000000000000000 ) ) ;
#152 = PRODUCT_DEFINITION_FORMATION_WITH_SPECIFIED_SOURCE ( 'ANY', '', #79, .NOT_KNOWN. ) ;
#153 = DIRECTION ( 'NONE',  ( 0.0000000000000000000, 1.000000000000000000, 0.0000000000000000000 ) ) ;
#154 = DIRECTION ( 'NONE',  ( 0.0000000000000000000, 1.000000000000000000, 0.0000000000000000000 ) ) ;
#155 = CYLINDRICAL_SURFACE ( 'NONE', #17, 1.099999999999995870 ) ;
#156 = DIRECTION ( 'NONE',  ( 0.0000000000000000000, 1.000000000000000000, 0.0000000000000000000 ) ) ;
#157 = CALENDAR_DATE ( 2021, 3, 9 ) ;
#158 = VERTEX_POINT ( 'NONE', #183 ) ;
#159 = APPLICATION_PROTOCOL_DEFINITION ( 'international standard', 'config_control_design', 1994, #149 ) ;
#160 = EDGE_LOOP ( 'NONE', ( #220, #185, #2, #12 ) ) ;
#161 = AXIS2_PLACEMENT_3D ( 'NONE', #327, #180, #102 ) ;
#162 = PERSON_AND_ORGANIZATION ( #57, #270 ) ;
#163 = ORIENTED_EDGE ( 'NONE', *, *, #111, .F. ) ;
#164 = CC_DESIGN_DATE_AND_TIME_ASSIGNMENT ( #112, #219, ( #134 ) ) ;
#165 = PERSON_AND_ORGANIZATION_ROLE ( 'design_supplier' ) ;
#166 = APPROVAL_ROLE ( '' ) ;
#167 = APPROVAL_PERSON_ORGANIZATION ( #312, #115, #84 ) ;
#168 = CARTESIAN_POINT ( 'NONE',  ( 3.491481338843133355E-14, 8.248678804640171684E-33, 10.00000000000000000 ) ) ;
#169 = SHAPE_DEFINITION_REPRESENTATION ( #286, #205 ) ;
#170 = DIRECTION ( 'NONE',  ( -3.491481338843133355E-15, 1.224646799147353207E-16, -1.000000000000000000 ) ) ;
#171 = DIRECTION ( 'NONE',  ( -3.491481338843133355E-15, 1.224646799147353207E-16, -1.000000000000000000 ) ) ;
#172 = VECTOR ( 'NONE', #143, 1000.000000000000000 ) ;
#173 = DATE_AND_TIME ( #122, #174 ) ;
#174 = LOCAL_TIME ( 9, 49, 4.000000000000000000, #268 ) ;
#175 = DIRECTION ( 'NONE',  ( 1.798245827342160317E-15, -0.8571673007021098911, 0.5150380749100582634 ) ) ;
#176 = ADVANCED_FACE ( 'NONE', ( #254 ), #155, .T. ) ;
#177 = DIRECTION ( 'NONE',  ( -3.491481338843133355E-15, 1.224646799147353207E-16, -1.000000000000000000 ) ) ;
#178 = CARTESIAN_POINT ( 'NONE',  ( 0.0000000000000000000, 0.0000000000000000000, 0.0000000000000000000 ) ) ;
#179 = AXIS2_PLACEMENT_3D ( 'NONE', #278, #50, #51 ) ;
#180 = DIRECTION ( 'NONE',  ( 3.491481338843133355E-15, -1.224646799147353207E-16, 1.000000000000000000 ) ) ;
#181 = EDGE_CURVE ( 'NONE', #218, #336, #258, .T. ) ;
#182 = DIRECTION ( 'NONE',  ( 4.275831445896958607E-31, 1.000000000000000000, 1.224646799147353207E-16 ) ) ;
#183 = CARTESIAN_POINT ( 'NONE',  ( 1.396592535537253342E-13, 0.7999999999999953815, 40.00000000000000000 ) ) ;
#184 = DIRECTION ( 'NONE',  ( 1.000000000000000000, 0.0000000000000000000, 0.0000000000000000000 ) ) ;
#185 = ORIENTED_EDGE ( 'NONE', *, *, #19, .T. ) ;
#186 = CARTESIAN_POINT ( 'NONE',  ( 0.0000000000000000000, 0.0000000000000000000, 0.0000000000000000000 ) ) ;
#187 = VECTOR ( 'NONE', #259, 1000.000000000000000 ) ;
#188 = APPROVAL_PERSON_ORGANIZATION ( #260, #283, #86 ) ;
#189 = DATE_TIME_ROLE ( 'classification_date' ) ;
#190 = VERTEX_POINT ( 'NONE', #101 ) ;
#191 = ORIENTED_EDGE ( 'NONE', *, *, #181, .T. ) ;
#192 = ORIENTED_EDGE ( 'NONE', *, *, #39, .T. ) ;
#193 = AXIS2_PLACEMENT_3D ( 'NONE', #117, #96, #199 ) ;
#194 = ADVANCED_FACE ( 'NONE', ( #80 ), #76, .F. ) ;
#195 = LINE ( 'NONE', #272, #172 ) ;
#196 = DIRECTION ( 'NONE',  ( 0.0000000000000000000, 1.000000000000000000, 0.0000000000000000000 ) ) ;
#197 = MANIFOLD_SOLID_BREP ( 'Corps-Déplacer/Copier1[2]', #337 ) ;
#198 = CC_DESIGN_PERSON_AND_ORGANIZATION_ASSIGNMENT ( #242, #165, ( #152 ) ) ;
#199 = DIRECTION ( 'NONE',  ( 0.0000000000000000000, 1.000000000000000000, 0.0000000000000000000 ) ) ;
#200 = CIRCLE ( 'NONE', #48, 1.099999999999996536 ) ;
#201 = AXIS2_PLACEMENT_3D ( 'NONE', #22, #127, #332 ) ;
#202 = APPROVAL_PERSON_ORGANIZATION ( #292, #335, #166 ) ;
#203 = ORIENTED_EDGE ( 'NONE', *, *, #100, .T. ) ;
#204 = LINE ( 'NONE', #304, #311 ) ;
#205 = ADVANCED_BREP_SHAPE_REPRESENTATION ( '54514', ( #309, #197, #83 ), #325 ) ;
#206 = DIRECTION ( 'NONE',  ( 4.275831445896958607E-31, 1.000000000000000000, 1.224646799147353207E-16 ) ) ;
#207 = CIRCLE ( 'NONE', #77, 0.8000000000000002665 ) ;
#208 = DIRECTION ( 'NONE',  ( -3.491481338843133355E-15, 1.224646799147353207E-16, -1.000000000000000000 ) ) ;
#209 = DIRECTION ( 'NONE',  ( -2.382254525458724175E-15, -0.7071067811865452413, -0.7071067811865497932 ) ) ;
#210 = CARTESIAN_POINT ( 'NONE',  ( 3.491481338843133355E-14, -1.224646799147353256E-15, 10.00000000000000000 ) ) ;
#211 = EDGE_CURVE ( 'NONE', #63, #288, #146, .T. ) ;
#212 = CIRCLE ( 'NONE', #125, 1.100000000000000089 ) ;
#213 = ORIENTED_EDGE ( 'NONE', *, *, #267, .T. ) ;
#214 = ORIENTED_EDGE ( 'NONE', *, *, #181, .F. ) ;
#215 = ORIENTED_EDGE ( 'NONE', *, *, #111, .T. ) ;
#216 = EDGE_CURVE ( 'NONE', #336, #218, #253, .T. ) ;
#217 = CALENDAR_DATE ( 2021, 3, 9 ) ;
#218 = VERTEX_POINT ( 'NONE', #307 ) ;
#219 = DATE_TIME_ROLE ( 'creation_date' ) ;
#220 = ORIENTED_EDGE ( 'NONE', *, *, #274, .T. ) ;
#221 = CARTESIAN_POINT ( 'NONE',  ( 1.386118091520723879E-13, 1.099999999999995204, 39.69999999999999574 ) ) ;
#222 = EDGE_CURVE ( 'NONE', #288, #218, #105, .T. ) ;
#223 = DIRECTION ( 'NONE',  ( 4.275831445896958607E-31, 1.000000000000000000, 1.224646799147353207E-16 ) ) ;
#224 = CONICAL_SURFACE ( 'NONE', #161, 1.099999999999995204, 1.029744258676649649 ) ;
#225 = DIRECTION ( 'NONE',  ( 1.903218546456022717E-15, 0.8571673007021097801, 0.5150380749100585964 ) ) ;
#226 = ADVANCED_FACE ( 'NONE', ( #27 ), #78, .T. ) ;
#227 = LINE ( 'NONE', #98, #32 ) ;
#228 = DIRECTION ( 'NONE',  ( -3.491481338843133355E-15, 1.224646799147353207E-16, -1.000000000000000000 ) ) ;
#229 = CYLINDRICAL_SURFACE ( 'NONE', #179, 1.099999999999998312 ) ;
#230 = CARTESIAN_POINT ( 'NONE',  ( 0.0000000000000000000, 0.0000000000000000000, 0.0000000000000000000 ) ) ;
#231 = CIRCLE ( 'NONE', #245, 1.099999999999996536 ) ;
#232 = CARTESIAN_POINT ( 'NONE',  ( 1.396592535537253342E-13, -4.898587196589413026E-15, 40.00000000000000000 ) ) ;
#233 = CC_DESIGN_PERSON_AND_ORGANIZATION_ASSIGNMENT ( #113, #316, ( #60 ) ) ;
#234 = CARTESIAN_POINT ( 'NONE',  ( 3.491481338843133355E-14, 8.248678804640171684E-33, 10.00000000000000000 ) ) ;
#235 = SECURITY_CLASSIFICATION_LEVEL ( 'unclassified' ) ;
#236 = ORIENTED_EDGE ( 'NONE', *, *, #36, .T. ) ;
#237 = DATE_AND_TIME ( #157, #291 ) ;
#238 = AXIS2_PLACEMENT_3D ( 'NONE', #68, #170, #223 ) ;
#239 = ORIENTED_EDGE ( 'NONE', *, *, #36, .F. ) ;
#240 = PERSON_AND_ORGANIZATION_ROLE ( 'creator' ) ;
#241 = VERTEX_POINT ( 'NONE', #23 ) ;
#242 = PERSON_AND_ORGANIZATION ( #57, #270 ) ;
#243 = DIRECTION ( 'NONE',  ( 3.501690807976807906E-31, 1.000000000000000000, 9.856383386231901968E-17 ) ) ;
#244 = ORIENTED_EDGE ( 'NONE', *, *, #216, .F. ) ;
#245 = AXIS2_PLACEMENT_3D ( 'NONE', #210, #132, #308 ) ;
#246 = LOCAL_TIME ( 9, 49, 4.000000000000000000, #64 ) ;
#247 = CARTESIAN_POINT ( 'NONE',  ( 1.386118091520723879E-13, -4.861847792614992166E-15, 39.69999999999999574 ) ) ;
#248 = EDGE_LOOP ( 'NONE', ( #107, #191 ) ) ;
#249 = DIRECTION ( 'NONE',  ( -3.491481338843133355E-15, 1.224646799147353207E-16, -1.000000000000000000 ) ) ;
#250 = ORIENTED_EDGE ( 'NONE', *, *, #294, .F. ) ;
#251 = ORIENTED_EDGE ( 'NONE', *, *, #39, .F. ) ;
#252 = DIRECTION ( 'NONE',  ( 3.491481338843133355E-15, -1.224646799147353207E-16, 1.000000000000000000 ) ) ;
#253 = CIRCLE ( 'NONE', #329, 1.099999999999996536 ) ;
#254 = FACE_OUTER_BOUND ( 'NONE', #160, .T. ) ;
#255 = DIRECTION ( 'NONE',  ( -3.491481338843133355E-15, 1.224646799147353207E-16, -1.000000000000000000 ) ) ;
#256 = CARTESIAN_POINT ( 'NONE',  ( 3.491481338843133355E-14, -1.224646799147353256E-15, 10.00000000000000000 ) ) ;
#257 = ADVANCED_FACE ( 'NONE', ( #282 ), #229, .T. ) ;
#258 = CIRCLE ( 'NONE', #136, 1.099999999999996536 ) ;
#259 = DIRECTION ( 'NONE',  ( -3.491481338843133355E-15, 1.224646799147353207E-16, -1.000000000000000000 ) ) ;
#260 = PERSON_AND_ORGANIZATION ( #57, #270 ) ;
#261 = VERTEX_POINT ( 'NONE', #178 ) ;
#262 = COORDINATED_UNIVERSAL_TIME_OFFSET ( 1, 0, .AHEAD. ) ;
#263 = EDGE_LOOP ( 'NONE', ( #318, #15, #244, #138 ) ) ;
#264 = DIRECTION ( 'NONE',  ( -3.491481338843133355E-15, 1.224646799147353207E-16, -1.000000000000000000 ) ) ;
#265 = ORIENTED_EDGE ( 'NONE', *, *, #62, .F. ) ;
#266 = APPROVAL_STATUS ( 'not_yet_approved' ) ;
#267 = EDGE_CURVE ( 'NONE', #158, #74, #207, .T. ) ;
#268 = COORDINATED_UNIVERSAL_TIME_OFFSET ( 1, 0, .AHEAD. ) ;
#269 = CARTESIAN_POINT ( 'NONE',  ( 1.392518727988178481E-13, -0.8000000000000051514, 40.00000000000000000 ) ) ;
#270 = ORGANIZATION ( 'UNSPECIFIED', 'UNSPECIFIED', '' ) ;
#271 = DIRECTION ( 'NONE',  ( 3.491481338843133355E-15, -1.224646799147353207E-16, 1.000000000000000000 ) ) ;
#272 = CARTESIAN_POINT ( 'NONE',  ( 1.396592535537253342E-13, 0.7999999999999953815, 40.00000000000000000 ) ) ;
#273 = ORIENTED_EDGE ( 'NONE', *, *, #6, .T. ) ;
#274 = EDGE_CURVE ( 'NONE', #241, #190, #231, .T. ) ;
#275 = AXIS2_PLACEMENT_3D ( 'NONE', #106, #255, #182 ) ;
#276 = CC_DESIGN_APPROVAL ( #283, ( #152 ) ) ;
#277 = LINE ( 'NONE', #40, #92 ) ;
#278 = CARTESIAN_POINT ( 'NONE',  ( 0.0000000000000000000, 0.0000000000000000000, 0.0000000000000000000 ) ) ;
#279 = FACE_OUTER_BOUND ( 'NONE', #123, .T. ) ;
#280 = CIRCLE ( 'NONE', #193, 0.8000000000000002665 ) ;
#281 = CARTESIAN_POINT ( 'NONE',  ( 1.386118091520723879E-13, -4.861847792614992166E-15, 39.69999999999999574 ) ) ;
#282 = FACE_OUTER_BOUND ( 'NONE', #263, .T. ) ;
#283 = APPROVAL ( #30, 'UNSPECIFIED' ) ;
#284 = FACE_OUTER_BOUND ( 'NONE', #65, .T. ) ;
#285 = CARTESIAN_POINT ( 'NONE',  ( 2.307683002438521616E-15, -8.094262372083843603E-17, 0.6609466809303207180 ) ) ;
#286 = PRODUCT_DEFINITION_SHAPE ( 'NONE', 'NONE',  #134 ) ;
#287 = CC_DESIGN_PERSON_AND_ORGANIZATION_ASSIGNMENT ( #137, #240, ( #134 ) ) ;
#288 = VERTEX_POINT ( 'NONE', #310 ) ;
#289 = CONICAL_SURFACE ( 'NONE', #25, 0.8000000000000002665, 0.7853981633974452814 ) ;
#290 = ORIENTED_EDGE ( 'NONE', *, *, #44, .F. ) ;
#291 = LOCAL_TIME ( 9, 49, 4.000000000000000000, #1 ) ;
#292 = PERSON_AND_ORGANIZATION ( #57, #270 ) ;
#293 = ORIENTED_EDGE ( 'NONE', *, *, #267, .F. ) ;
#294 = EDGE_CURVE ( 'NONE', #74, #288, #204, .T. ) ;
#295 = VERTEX_POINT ( 'NONE', #130 ) ;
#296 = LOCAL_TIME ( 9, 49, 4.000000000000000000, #133 ) ;
#297 = FACE_OUTER_BOUND ( 'NONE', #31, .T. ) ;
#298 = ADVANCED_FACE ( 'NONE', ( #279 ), #301, .T. ) ;
#299 = FACE_OUTER_BOUND ( 'NONE', #90, .T. ) ;
#300 = CARTESIAN_POINT ( 'NONE',  ( 2.307683002438521616E-15, -8.094262372083843603E-17, 0.6609466809303207180 ) ) ;
#301 = CONICAL_SURFACE ( 'NONE', #131, 0.8000000000000002665, 0.7853981633974452814 ) ;
#302 = CARTESIAN_POINT ( 'NONE',  ( 3.491481338843133355E-14, -1.224646799147353256E-15, 10.00000000000000000 ) ) ;
#303 = ADVANCED_FACE ( 'NONE', ( #47 ), #119, .T. ) ;
#304 = CARTESIAN_POINT ( 'NONE',  ( 1.397572252976571274E-13, -0.8000000000000051514, 40.00000000000000000 ) ) ;
#305 = DIRECTION ( 'NONE',  ( -4.275831445896958607E-31, -1.000000000000000000, -1.224646799147353207E-16 ) ) ;
#306 = AXIS2_PLACEMENT_3D ( 'NONE', #168, #271, #144 ) ;
#307 = CARTESIAN_POINT ( 'NONE',  ( 8.689802241815802900E-14, -1.099999999999997868, 10.00000000000000000 ) ) ;
#308 = DIRECTION ( 'NONE',  ( 0.0000000000000000000, 1.000000000000000000, 0.0000000000000000000 ) ) ;
#309 = MANIFOLD_SOLID_BREP ( 'Corps-Déplacer/Copier1[1]', #71 ) ;
#310 = CARTESIAN_POINT ( 'NONE',  ( 8.689802241815791540E-14, -1.100000000000004752, 39.69999999999999574 ) ) ;
#311 = VECTOR ( 'NONE', #209, 1000.000000000000000 ) ;
#312 = PERSON_AND_ORGANIZATION ( #57, #270 ) ;
#313 = CC_DESIGN_PERSON_AND_ORGANIZATION_ASSIGNMENT ( #88, #37, ( #79 ) ) ;
#314 = UNCERTAINTY_MEASURE_WITH_UNIT (LENGTH_MEASURE( 1.000000000000000082E-05 ), #109, 'distance_accuracy_value', 'NONE');
#315 = ORIENTED_EDGE ( 'NONE', *, *, #69, .T. ) ;
#316 = PERSON_AND_ORGANIZATION_ROLE ( 'classification_officer' ) ;
#317 = ORIENTED_EDGE ( 'NONE', *, *, #100, .F. ) ;
#318 = ORIENTED_EDGE ( 'NONE', *, *, #211, .T. ) ;
#319 = FACE_OUTER_BOUND ( 'NONE', #135, .T. ) ;
#320 = CYLINDRICAL_SURFACE ( 'NONE', #238, 1.099999999999995870 ) ;
#321 = DIRECTION ( 'NONE',  ( -3.491481338843133355E-15, 1.224646799147353207E-16, -1.000000000000000000 ) ) ;
#322 = DIRECTION ( 'NONE',  ( -3.491481338843133355E-15, 1.224646799147353207E-16, -1.000000000000000000 ) ) ;
#323 = PRODUCT_RELATED_PRODUCT_CATEGORY ( 'detail', '', ( #79 ) ) ;
#324 = CARTESIAN_POINT ( 'NONE',  ( 1.347111479062078889E-16, -1.099999999999995870, -1.347111479062088257E-16 ) ) ;
#325 =( GEOMETRIC_REPRESENTATION_CONTEXT ( 3 ) GLOBAL_UNCERTAINTY_ASSIGNED_CONTEXT ( ( #314 ) ) GLOBAL_UNIT_ASSIGNED_CONTEXT ( ( #109, #55, #35 ) ) REPRESENTATION_CONTEXT ( 'NONE', 'WORKASPACE' ) );
#326 = DIRECTION ( 'NONE',  ( -3.491481338843133355E-15, 1.224646799147353207E-16, -1.000000000000000000 ) ) ;
#327 = CARTESIAN_POINT ( 'NONE',  ( 2.307683002438521616E-15, -8.094262372083843603E-17, 0.6609466809303207180 ) ) ;
#328 = CARTESIAN_POINT ( 'NONE',  ( 3.491481338843133355E-14, -1.224646799147353256E-15, 10.00000000000000000 ) ) ;
#329 = AXIS2_PLACEMENT_3D ( 'NONE', #328, #49, #154 ) ;
#330 = EDGE_CURVE ( 'NONE', #295, #89, #11, .T. ) ;
#331 = CC_DESIGN_APPROVAL ( #335, ( #60 ) ) ;
#332 = DIRECTION ( 'NONE',  ( -3.501690807976807906E-31, -1.000000000000000000, -9.856383386231901968E-17 ) ) ;
#333 = CARTESIAN_POINT ( 'NONE',  ( 1.396592535537253342E-13, -4.898587196589413026E-15, 40.00000000000000000 ) ) ;
#334 = CARTESIAN_POINT ( 'NONE',  ( 3.491481338843133355E-14, 1.099999999999995204, 10.00000000000000000 ) ) ;
#335 = APPROVAL ( #266, 'UNSPECIFIED' ) ;
#336 = VERTEX_POINT ( 'NONE', #334 ) ;
#337 = CLOSED_SHELL ( 'NONE', ( #176, #303, #129, #28, #121 ) ) ;
ENDSEC;
END-ISO-10303-21;
