ISO-10303-21;
HEADER;
FILE_DESCRIPTION (( 'STEP AP203' ),
    '1' );
FILE_NAME ('54513.step',
    '2021-09-03T07:49:02',
    ( '' ),
    ( '' ),
    'SwSTEP 2.0',
    'SolidWorks 2019',
    '' );
FILE_SCHEMA (( 'CONFIG_CONTROL_DESIGN' ));
ENDSEC;

DATA;
#1 = DIRECTION ( 'NONE',  ( 4.275831445896958607E-31, 1.000000000000000000, 1.224646799147353207E-16 ) ) ;
#2 = CARTESIAN_POINT ( 'NONE',  ( 2.255235661474009806E-15, -7.910301863627393396E-17, 0.6459251654546317445 ) ) ;
#3 = VECTOR ( 'NONE', #112, 1000.000000000000000 ) ;
#4 = CARTESIAN_POINT ( 'NONE',  ( 1.396592535537253342E-13, 6.561449049145557243E-33, 40.00000000000000000 ) ) ;
#5 = CC_DESIGN_PERSON_AND_ORGANIZATION_ASSIGNMENT ( #192, #68, ( #127 ) ) ;
#6 = CARTESIAN_POINT ( 'NONE',  ( 3.491481338843133355E-14, -1.224646799147353256E-15, 10.00000000000000000 ) ) ;
#7 = DIRECTION ( 'NONE',  ( 0.0000000000000000000, 0.0000000000000000000, 1.000000000000000000 ) ) ;
#8 = PRODUCT_DEFINITION_FORMATION_WITH_SPECIFIED_SOURCE ( 'ANY', '', #127, .NOT_KNOWN. ) ;
#9 = MECHANICAL_CONTEXT ( 'NONE', #322, 'mechanical' ) ;
#10 = CC_DESIGN_APPROVAL ( #284, ( #104 ) ) ;
#11 = CARTESIAN_POINT ( 'NONE',  ( 1.394295084827579135E-13, -0.8750000000000052180, 40.00000000000000000 ) ) ;
#12 = EDGE_CURVE ( 'NONE', #97, #328, #280, .T. ) ;
#13 = DIRECTION ( 'NONE',  ( -3.491481338843133355E-15, 1.224646799147353207E-16, -1.000000000000000000 ) ) ;
#14 = FACE_OUTER_BOUND ( 'NONE', #73, .T. ) ;
#15 = CIRCLE ( 'NONE', #288, 0.8750000000000003331 ) ;
#16 = COORDINATED_UNIVERSAL_TIME_OFFSET ( 1, 0, .AHEAD. ) ;
#17 = CALENDAR_DATE ( 2021, 3, 9 ) ;
#18 = ORIENTED_EDGE ( 'NONE', *, *, #12, .F. ) ;
#19 = DATE_AND_TIME ( #17, #296 ) ;
#20 = VERTEX_POINT ( 'NONE', #184 ) ;
#21 = ORIENTED_EDGE ( 'NONE', *, *, #22, .F. ) ;
#22 = EDGE_CURVE ( 'NONE', #197, #328, #71, .T. ) ;
#23 = EDGE_LOOP ( 'NONE', ( #203, #146, #138, #65 ) ) ;
#24 = DIRECTION ( 'NONE',  ( -3.583125477929756245E-31, -1.000000000000000000, -1.008560160451636288E-16 ) ) ;
#25 = CC_DESIGN_APPROVAL ( #60, ( #324 ) ) ;
#26 = DIRECTION ( 'NONE',  ( -3.491481338843133355E-15, 1.224646799147353207E-16, -1.000000000000000000 ) ) ;
#27 = EDGE_CURVE ( 'NONE', #249, #205, #46, .T. ) ;
#28 = DIRECTION ( 'NONE',  ( 0.0000000000000000000, 1.000000000000000000, 0.0000000000000000000 ) ) ;
#29 = DIRECTION ( 'NONE',  ( -3.491481338843133355E-15, 1.224646799147353207E-16, -1.000000000000000000 ) ) ;
#30 = ADVANCED_FACE ( 'NONE', ( #255 ), #285, .T. ) ;
#31 = DIRECTION ( 'NONE',  ( -3.491481338843133355E-15, 1.224646799147353207E-16, -1.000000000000000000 ) ) ;
#32 = ORGANIZATION ( 'UNSPECIFIED', 'UNSPECIFIED', '' ) ;
#33 = ORIENTED_EDGE ( 'NONE', *, *, #106, .T. ) ;
#34 = EDGE_CURVE ( 'NONE', #20, #249, #15, .T. ) ;
#35 = DIRECTION ( 'NONE',  ( 0.0000000000000000000, 1.000000000000000000, 0.0000000000000000000 ) ) ;
#36 = CARTESIAN_POINT ( 'NONE',  ( 4.596518804339224065E-31, 1.074999999999998401, 1.316495309083402892E-16 ) ) ;
#37 = AXIS2_PLACEMENT_3D ( 'NONE', #307, #177, #121 ) ;
#38 = APPROVAL_DATE_TIME ( #248, #110 ) ;
#39 = CIRCLE ( 'NONE', #89, 1.074999999999996847 ) ;
#40 = DATE_AND_TIME ( #224, #105 ) ;
#41 = ORIENTED_EDGE ( 'NONE', *, *, #236, .F. ) ;
#42 = VERTEX_POINT ( 'NONE', #158 ) ;
#43 = VERTEX_POINT ( 'NONE', #161 ) ;
#44 = AXIS2_PLACEMENT_3D ( 'NONE', #170, #115, #325 ) ;
#45 = PERSON_AND_ORGANIZATION_ROLE ( 'classification_officer' ) ;
#46 = LINE ( 'NONE', #155, #323 ) ;
#47 = CARTESIAN_POINT ( 'NONE',  ( 3.491481338843133355E-14, 8.061208831807442220E-33, 10.00000000000000000 ) ) ;
#48 = ADVANCED_FACE ( 'NONE', ( #233 ), #267, .T. ) ;
#49 = DIRECTION ( 'NONE',  ( -3.491481338843133355E-15, 1.224646799147353207E-16, -1.000000000000000000 ) ) ;
#50 = AXIS2_PLACEMENT_3D ( 'NONE', #58, #216, #266 ) ;
#51 = CARTESIAN_POINT ( 'NONE',  ( 0.0000000000000000000, 0.0000000000000000000, 0.0000000000000000000 ) ) ;
#52 = LINE ( 'NONE', #232, #114 ) ;
#53 = DIRECTION ( 'NONE',  ( -3.491481338843133355E-15, 1.224646799147353207E-16, -1.000000000000000000 ) ) ;
#54 = EDGE_CURVE ( 'NONE', #43, #306, #314, .T. ) ;
#55 = AXIS2_PLACEMENT_3D ( 'NONE', #4, #49, #1 ) ;
#56 = DIRECTION ( 'NONE',  ( -3.491481338843133355E-15, 1.224646799147353207E-16, -1.000000000000000000 ) ) ;
#57 = DIRECTION ( 'NONE',  ( 3.583125477929756245E-31, 1.000000000000000000, 1.008560160451636288E-16 ) ) ;
#58 = CARTESIAN_POINT ( 'NONE',  ( 3.491481338843133355E-14, 8.061208831807442220E-33, 10.00000000000000000 ) ) ;
#59 = DIRECTION ( 'NONE',  ( 0.0000000000000000000, 1.000000000000000000, 0.0000000000000000000 ) ) ;
#60 = APPROVAL ( #70, 'UNSPECIFIED' ) ;
#61 = CARTESIAN_POINT ( 'NONE',  ( 1.389609572859567202E-13, -4.874094260606466312E-15, 39.80000000000000426 ) ) ;
#62 = PERSON_AND_ORGANIZATION ( #304, #32 ) ;
#63 = AXIS2_PLACEMENT_3D ( 'NONE', #125, #56, #208 ) ;
#64 = MANIFOLD_SOLID_BREP ( 'Corps-Déplacer/Copier1[2]', #151 ) ;
#65 = ORIENTED_EDGE ( 'NONE', *, *, #135, .F. ) ;
#66 = COORDINATED_UNIVERSAL_TIME_OFFSET ( 1, 0, .AHEAD. ) ;
#67 = ORIENTED_EDGE ( 'NONE', *, *, #130, .T. ) ;
#68 = PERSON_AND_ORGANIZATION_ROLE ( 'design_owner' ) ;
#69 = ORIENTED_EDGE ( 'NONE', *, *, #148, .F. ) ;
#70 = APPROVAL_STATUS ( 'not_yet_approved' ) ;
#71 = LINE ( 'NONE', #283, #132 ) ;
#72 = AXIS2_PLACEMENT_3D ( 'NONE', #195, #321, #299 ) ;
#73 = EDGE_LOOP ( 'NONE', ( #122, #153, #41, #21 ) ) ;
#74 = CC_DESIGN_DATE_AND_TIME_ASSIGNMENT ( #19, #196, ( #104 ) ) ;
#75 = DIRECTION ( 'NONE',  ( 0.0000000000000000000, 1.000000000000000000, 0.0000000000000000000 ) ) ;
#76 = LINE ( 'NONE', #103, #198 ) ;
#77 = LOCAL_TIME ( 9, 49, 2.000000000000000000, #117 ) ;
#78 = CARTESIAN_POINT ( 'NONE',  ( 0.0000000000000000000, 0.0000000000000000000, 0.0000000000000000000 ) ) ;
#79 = PRODUCT_DEFINITION_SHAPE ( 'NONE', 'NONE',  #324 ) ;
#80 = DIRECTION ( 'NONE',  ( -4.275831445896958607E-31, -1.000000000000000000, -1.224646799147353207E-16 ) ) ;
#81 = ADVANCED_FACE ( 'NONE', ( #129 ), #286, .T. ) ;
#82 = CARTESIAN_POINT ( 'NONE',  ( 1.871667405586099252E-14, -1.074999999999997957, 10.00000000000000000 ) ) ;
#83 = APPLICATION_PROTOCOL_DEFINITION ( 'international standard', 'config_control_design', 1994, #322 ) ;
#84 = CC_DESIGN_PERSON_AND_ORGANIZATION_ASSIGNMENT ( #154, #246, ( #324 ) ) ;
#85 = ORIENTED_EDGE ( 'NONE', *, *, #226, .T. ) ;
#86 = CARTESIAN_POINT ( 'NONE',  ( 2.386885192382350563E-15, 1.074999999999995515, 0.6459251654546318555 ) ) ;
#87 = ORIENTED_EDGE ( 'NONE', *, *, #256, .T. ) ;
#88 = CLOSED_SHELL ( 'NONE', ( #215, #310, #265, #166, #277, #186 ) ) ;
#89 = AXIS2_PLACEMENT_3D ( 'NONE', #237, #53, #75 ) ;
#90 = PERSON_AND_ORGANIZATION ( #304, #32 ) ;
#91 = VERTEX_POINT ( 'NONE', #82 ) ;
#92 = PERSON_AND_ORGANIZATION ( #304, #32 ) ;
#93 = CC_DESIGN_APPROVAL ( #110, ( #8 ) ) ;
#94 = ORIENTED_EDGE ( 'NONE', *, *, #27, .F. ) ;
#95 = EDGE_LOOP ( 'NONE', ( #300, #33, #149, #18 ) ) ;
#96 = APPROVAL_ROLE ( '' ) ;
#97 = VERTEX_POINT ( 'NONE', #190 ) ;
#98 = EDGE_LOOP ( 'NONE', ( #202, #333, #182 ) ) ;
#99 = EDGE_CURVE ( 'NONE', #91, #97, #262, .T. ) ;
#100 = LINE ( 'NONE', #128, #180 ) ;
#101 = DESIGN_CONTEXT ( 'detailed design', #263, 'design' ) ;
#102 = DIRECTION ( 'NONE',  ( 0.0000000000000000000, 1.000000000000000000, 0.0000000000000000000 ) ) ;
#103 = CARTESIAN_POINT ( 'NONE',  ( 1.396592535537253342E-13, 0.8749999999999954481, 40.00000000000000000 ) ) ;
#104 = SECURITY_CLASSIFICATION ( '', '', #276 ) ;
#105 = LOCAL_TIME ( 9, 49, 2.000000000000000000, #66 ) ;
#106 = EDGE_CURVE ( 'NONE', #91, #197, #301, .T. ) ;
#107 = FACE_OUTER_BOUND ( 'NONE', #98, .T. ) ;
#108 = FACE_OUTER_BOUND ( 'NONE', #23, .T. ) ;
#109 = DIRECTION ( 'NONE',  ( 1.000000000000000000, 0.0000000000000000000, 0.0000000000000000000 ) ) ;
#110 = APPROVAL ( #123, 'UNSPECIFIED' ) ;
#111 = AXIS2_PLACEMENT_3D ( 'NONE', #51, #318, #163 ) ;
#112 = DIRECTION ( 'NONE',  ( -3.491481338843133355E-15, 1.224646799147353207E-16, -1.000000000000000000 ) ) ;
#113 = CARTESIAN_POINT ( 'NONE',  ( 2.255235661474009806E-15, -7.910301863627393396E-17, 0.6459251654546317445 ) ) ;
#114 = VECTOR ( 'NONE', #235, 1000.000000000000000 ) ;
#115 = DIRECTION ( 'NONE',  ( -3.491481338843133355E-15, 1.224646799147353207E-16, -1.000000000000000000 ) ) ;
#116 = ORIENTED_EDGE ( 'NONE', *, *, #148, .T. ) ;
#117 = COORDINATED_UNIVERSAL_TIME_OFFSET ( 1, 0, .AHEAD. ) ;
#118 = EDGE_LOOP ( 'NONE', ( #247, #116, #175, #221 ) ) ;
#119 = AXIS2_PLACEMENT_3D ( 'NONE', #113, #219, #57 ) ;
#120 = PERSON_AND_ORGANIZATION ( #304, #32 ) ;
#121 = DIRECTION ( 'NONE',  ( 3.583125477929756245E-31, 1.000000000000000000, 1.008560160451636288E-16 ) ) ;
#122 = ORIENTED_EDGE ( 'NONE', *, *, #183, .T. ) ;
#123 = APPROVAL_STATUS ( 'not_yet_approved' ) ;
#124 = ORIENTED_EDGE ( 'NONE', *, *, #135, .T. ) ;
#125 = CARTESIAN_POINT ( 'NONE',  ( 1.389609572859567202E-13, -4.874094260606466312E-15, 39.80000000000000426 ) ) ;
#126 = AXIS2_PLACEMENT_3D ( 'NONE', #136, #7, #109 ) ;
#127 = PRODUCT ( '54513', '54513', '', ( #9 ) ) ;
#128 = CARTESIAN_POINT ( 'NONE',  ( 1.316495309083398455E-16, -1.074999999999998401, -1.316495309083407329E-16 ) ) ;
#129 = FACE_OUTER_BOUND ( 'NONE', #95, .T. ) ;
#130 = EDGE_CURVE ( 'NONE', #249, #20, #244, .T. ) ;
#131 = DIRECTION ( 'NONE',  ( 0.0000000000000000000, 1.000000000000000000, 0.0000000000000000000 ) ) ;
#132 = VECTOR ( 'NONE', #225, 1000.000000000000000 ) ;
#133 = AXIS2_PLACEMENT_3D ( 'NONE', #2, #260, #24 ) ;
#134 = DIRECTION ( 'NONE',  ( 0.0000000000000000000, 1.000000000000000000, 0.0000000000000000000 ) ) ;
#135 = EDGE_CURVE ( 'NONE', #20, #42, #76, .T. ) ;
#136 = CARTESIAN_POINT ( 'NONE',  ( 0.0000000000000000000, 0.0000000000000000000, 0.0000000000000000000 ) ) ;
#137 = CARTESIAN_POINT ( 'NONE',  ( 2.386885192382350563E-15, 1.074999999999995515, 0.6459251654546318555 ) ) ;
#138 = ORIENTED_EDGE ( 'NONE', *, *, #256, .F. ) ;
#139 = CONICAL_SURFACE ( 'NONE', #258, 0.8750000000000003331, 0.7853981633974510546 ) ;
#140 = CONICAL_SURFACE ( 'NONE', #251, 1.074999999999995515, 1.029744258676649649 ) ;
#141 = FACE_OUTER_BOUND ( 'NONE', #179, .T. ) ;
#142 = FACE_OUTER_BOUND ( 'NONE', #303, .T. ) ;
#143 = CARTESIAN_POINT ( 'NONE',  ( 3.491481338843133355E-14, 1.074999999999995515, 10.00000000000000000 ) ) ;
#144 = AXIS2_PLACEMENT_3D ( 'NONE', #78, #167, #291 ) ;
#145 = CALENDAR_DATE ( 2021, 3, 9 ) ;
#146 = ORIENTED_EDGE ( 'NONE', *, *, #27, .T. ) ;
#147 = DATE_TIME_ROLE ( 'creation_date' ) ;
#148 = EDGE_CURVE ( 'NONE', #205, #42, #165, .T. ) ;
#149 = ORIENTED_EDGE ( 'NONE', *, *, #22, .T. ) ;
#150 = ORIENTED_EDGE ( 'NONE', *, *, #106, .F. ) ;
#151 = CLOSED_SHELL ( 'NONE', ( #319, #207, #48, #81, #30 ) ) ;
#152 = AXIS2_PLACEMENT_3D ( 'NONE', #47, #156, #80 ) ;
#153 = ORIENTED_EDGE ( 'NONE', *, *, #99, .T. ) ;
#154 = PERSON_AND_ORGANIZATION ( #304, #32 ) ;
#155 = CARTESIAN_POINT ( 'NONE',  ( 1.397664101486507243E-13, -0.8750000000000052180, 40.00000000000000000 ) ) ;
#156 = DIRECTION ( 'NONE',  ( 3.491481338843133355E-15, -1.224646799147353207E-16, 1.000000000000000000 ) ) ;
#157 = UNCERTAINTY_MEASURE_WITH_UNIT (LENGTH_MEASURE( 1.000000000000000082E-05 ), #297, 'distance_accuracy_value', 'NONE');
#158 = CARTESIAN_POINT ( 'NONE',  ( 1.389609572859567202E-13, 1.074999999999995515, 39.80000000000000426 ) ) ;
#159 = CIRCLE ( 'NONE', #281, 1.075000000000000178 ) ;
#160 = CC_DESIGN_SECURITY_CLASSIFICATION ( #104, ( #8 ) ) ;
#161 = CARTESIAN_POINT ( 'NONE',  ( 8.706953486810232107E-14, -1.074999999999997957, 10.00000000000000000 ) ) ;
#162 = EDGE_CURVE ( 'NONE', #205, #43, #100, .T. ) ;
#163 = DIRECTION ( 'NONE',  ( 4.275831445896957731E-31, 1.000000000000000000, 1.224646799147352961E-16 ) ) ;
#164 = DIRECTION ( 'NONE',  ( 3.491481338843133355E-15, -1.224646799147353207E-16, 1.000000000000000000 ) ) ;
#165 = CIRCLE ( 'NONE', #63, 1.075000000000000178 ) ;
#166 = ADVANCED_FACE ( 'NONE', ( #293 ), #206, .T. ) ;
#167 = DIRECTION ( 'NONE',  ( -3.491481338843133355E-15, 1.224646799147353207E-16, -1.000000000000000000 ) ) ;
#168 = CARTESIAN_POINT ( 'NONE',  ( 0.0000000000000000000, 0.0000000000000000000, 0.0000000000000000000 ) ) ;
#169 =( NAMED_UNIT ( * ) SI_UNIT ( $, .STERADIAN. ) SOLID_ANGLE_UNIT ( ) );
#170 = CARTESIAN_POINT ( 'NONE',  ( 0.0000000000000000000, 0.0000000000000000000, 0.0000000000000000000 ) ) ;
#171 = EDGE_CURVE ( 'NONE', #330, #97, #52, .T. ) ;
#172 = CYLINDRICAL_SURFACE ( 'NONE', #287, 1.074999999999998401 ) ;
#173 = LOCAL_TIME ( 9, 49, 2.000000000000000000, #327 ) ;
#174 = CC_DESIGN_DATE_AND_TIME_ASSIGNMENT ( #282, #147, ( #324 ) ) ;
#175 = ORIENTED_EDGE ( 'NONE', *, *, #271, .T. ) ;
#176 = APPROVAL_DATE_TIME ( #40, #284 ) ;
#177 = DIRECTION ( 'NONE',  ( -3.491481338843133355E-15, 1.224646799147353207E-16, -1.000000000000000000 ) ) ;
#178 = CALENDAR_DATE ( 2021, 3, 9 ) ;
#179 = EDGE_LOOP ( 'NONE', ( #85, #222 ) ) ;
#180 = VECTOR ( 'NONE', #316, 1000.000000000000000 ) ;
#181 = COORDINATED_UNIVERSAL_TIME_OFFSET ( 1, 0, .AHEAD. ) ;
#182 = ORIENTED_EDGE ( 'NONE', *, *, #236, .T. ) ;
#183 = EDGE_CURVE ( 'NONE', #197, #91, #39, .T. ) ;
#184 = CARTESIAN_POINT ( 'NONE',  ( 1.396592535537253342E-13, 0.8749999999999954481, 40.00000000000000000 ) ) ;
#185 = PLANE ( 'NONE',  #55 ) ;
#186 = ADVANCED_FACE ( 'NONE', ( #261 ), #185, .F. ) ;
#187 = CARTESIAN_POINT ( 'NONE',  ( 8.706953486810218223E-14, -1.075000000000005285, 39.80000000000000426 ) ) ;
#188 = CARTESIAN_POINT ( 'NONE',  ( 1.316495309083395496E-16, -1.074999999999996181, -1.316495309083404371E-16 ) ) ;
#189 = CARTESIAN_POINT ( 'NONE',  ( 3.491481338843133355E-14, -1.224646799147353256E-15, 10.00000000000000000 ) ) ;
#190 = CARTESIAN_POINT ( 'NONE',  ( 2.255235661474009411E-15, -1.074999999999995515, 0.6459251654546316335 ) ) ;
#191 = DIRECTION ( 'NONE',  ( 0.0000000000000000000, 1.000000000000000000, 0.0000000000000000000 ) ) ;
#192 = PERSON_AND_ORGANIZATION ( #304, #32 ) ;
#193 = APPROVAL_PERSON_ORGANIZATION ( #272, #284, #228 ) ;
#194 = CARTESIAN_POINT ( 'NONE',  ( 0.0000000000000000000, 0.0000000000000000000, 0.0000000000000000000 ) ) ;
#195 = CARTESIAN_POINT ( 'NONE',  ( 1.396592535537253342E-13, -4.898587196589413026E-15, 40.00000000000000000 ) ) ;
#196 = DATE_TIME_ROLE ( 'classification_date' ) ;
#197 = VERTEX_POINT ( 'NONE', #317 ) ;
#198 = VECTOR ( 'NONE', #210, 1000.000000000000000 ) ;
#199 = CALENDAR_DATE ( 2021, 3, 9 ) ;
#200 = EDGE_LOOP ( 'NONE', ( #268, #227, #335 ) ) ;
#201 = PERSON_AND_ORGANIZATION_ROLE ( 'creator' ) ;
#202 = ORIENTED_EDGE ( 'NONE', *, *, #171, .F. ) ;
#203 = ORIENTED_EDGE ( 'NONE', *, *, #34, .T. ) ;
#204 = CIRCLE ( 'NONE', #234, 1.074999999999996847 ) ;
#205 = VERTEX_POINT ( 'NONE', #187 ) ;
#206 = CYLINDRICAL_SURFACE ( 'NONE', #144, 1.074999999999998401 ) ;
#207 = ADVANCED_FACE ( 'NONE', ( #107 ), #140, .T. ) ;
#208 = DIRECTION ( 'NONE',  ( 0.0000000000000000000, 1.000000000000000000, 0.0000000000000000000 ) ) ;
#209 = VECTOR ( 'NONE', #264, 999.9999999999998863 ) ;
#210 = DIRECTION ( 'NONE',  ( -2.468850131082258244E-15, 0.7071067811865495711, -0.7071067811865454633 ) ) ;
#211 = CARTESIAN_POINT ( 'NONE',  ( 2.255235661474009806E-15, -7.910301863627393396E-17, 0.6459251654546317445 ) ) ;
#212 = CARTESIAN_POINT ( 'NONE',  ( 1.396592535537253342E-13, -4.898587196589413026E-15, 40.00000000000000000 ) ) ;
#213 = CC_DESIGN_PERSON_AND_ORGANIZATION_ASSIGNMENT ( #120, #45, ( #104 ) ) ;
#214 = LOCAL_TIME ( 9, 49, 2.000000000000000000, #16 ) ;
#215 = ADVANCED_FACE ( 'NONE', ( #108 ), #139, .T. ) ;
#216 = DIRECTION ( 'NONE',  ( 3.491481338843133355E-15, -1.224646799147353207E-16, 1.000000000000000000 ) ) ;
#217 = CARTESIAN_POINT ( 'NONE',  ( 3.491481338843133355E-14, -1.224646799147353256E-15, 10.00000000000000000 ) ) ;
#218 = CIRCLE ( 'NONE', #119, 1.074999999999995515 ) ;
#219 = DIRECTION ( 'NONE',  ( -3.491481338843133355E-15, 1.224646799147353207E-16, -1.000000000000000000 ) ) ;
#220 = APPLICATION_PROTOCOL_DEFINITION ( 'international standard', 'config_control_design', 1994, #263 ) ;
#221 = ORIENTED_EDGE ( 'NONE', *, *, #54, .F. ) ;
#222 = ORIENTED_EDGE ( 'NONE', *, *, #54, .T. ) ;
#223 = APPROVAL_PERSON_ORGANIZATION ( #62, #110, #252 ) ;
#224 = CALENDAR_DATE ( 2021, 3, 9 ) ;
#225 = DIRECTION ( 'NONE',  ( -3.491481338843133355E-15, 1.224646799147353207E-16, -1.000000000000000000 ) ) ;
#226 = EDGE_CURVE ( 'NONE', #306, #43, #204, .T. ) ;
#227 = ORIENTED_EDGE ( 'NONE', *, *, #171, .T. ) ;
#228 = APPROVAL_ROLE ( '' ) ;
#229 = ORIENTED_EDGE ( 'NONE', *, *, #271, .F. ) ;
#230 = AXIS2_PLACEMENT_3D ( 'NONE', #6, #312, #131 ) ;
#231 = DIRECTION ( 'NONE',  ( -3.491481338843133355E-15, 1.224646799147353207E-16, -1.000000000000000000 ) ) ;
#232 = CARTESIAN_POINT ( 'NONE',  ( 2.255235661474009411E-15, -1.074999999999995515, 0.6459251654546316335 ) ) ;
#233 = FACE_OUTER_BOUND ( 'NONE', #200, .T. ) ;
#234 = AXIS2_PLACEMENT_3D ( 'NONE', #217, #31, #35 ) ;
#235 = DIRECTION ( 'NONE',  ( 1.798245827342160317E-15, -0.8571673007021098911, 0.5150380749100582634 ) ) ;
#236 = EDGE_CURVE ( 'NONE', #328, #97, #218, .T. ) ;
#237 = CARTESIAN_POINT ( 'NONE',  ( 3.491481338843133355E-14, -1.224646799147353256E-15, 10.00000000000000000 ) ) ;
#238 = FACE_OUTER_BOUND ( 'NONE', #279, .T. ) ;
#239 = VECTOR ( 'NONE', #231, 1000.000000000000000 ) ;
#240 = ORIENTED_EDGE ( 'NONE', *, *, #130, .F. ) ;
#241 =( NAMED_UNIT ( * ) PLANE_ANGLE_UNIT ( ) SI_UNIT ( $, .RADIAN. ) );
#242 = CYLINDRICAL_SURFACE ( 'NONE', #44, 1.074999999999996181 ) ;
#243 = EDGE_LOOP ( 'NONE', ( #257, #240 ) ) ;
#244 = CIRCLE ( 'NONE', #326, 0.8750000000000003331 ) ;
#245 = ORIENTED_EDGE ( 'NONE', *, *, #183, .F. ) ;
#246 = PERSON_AND_ORGANIZATION_ROLE ( 'creator' ) ;
#247 = ORIENTED_EDGE ( 'NONE', *, *, #162, .F. ) ;
#248 = DATE_AND_TIME ( #199, #77 ) ;
#249 = VERTEX_POINT ( 'NONE', #11 ) ;
#250 = CC_DESIGN_PERSON_AND_ORGANIZATION_ASSIGNMENT ( #274, #302, ( #8 ) ) ;
#251 = AXIS2_PLACEMENT_3D ( 'NONE', #211, #164, #311 ) ;
#252 = APPROVAL_ROLE ( '' ) ;
#253 = EDGE_LOOP ( 'NONE', ( #245, #150 ) ) ;
#254 = SHAPE_DEFINITION_REPRESENTATION ( #79, #313 ) ;
#255 = FACE_OUTER_BOUND ( 'NONE', #253, .T. ) ;
#256 = EDGE_CURVE ( 'NONE', #42, #205, #159, .T. ) ;
#257 = ORIENTED_EDGE ( 'NONE', *, *, #34, .F. ) ;
#258 = AXIS2_PLACEMENT_3D ( 'NONE', #212, #259, #191 ) ;
#259 = DIRECTION ( 'NONE',  ( -3.491481338843133355E-15, 1.224646799147353207E-16, -1.000000000000000000 ) ) ;
#260 = DIRECTION ( 'NONE',  ( 3.491481338843133355E-15, -1.224646799147353207E-16, 1.000000000000000000 ) ) ;
#261 = FACE_OUTER_BOUND ( 'NONE', #243, .T. ) ;
#262 = LINE ( 'NONE', #188, #239 ) ;
#263 = APPLICATION_CONTEXT ( 'configuration controlled 3d designs of mechanical parts and assemblies' ) ;
#264 = DIRECTION ( 'NONE',  ( 1.903218546456022717E-15, 0.8571673007021097801, 0.5150380749100585964 ) ) ;
#265 = ADVANCED_FACE ( 'NONE', ( #141 ), #294, .F. ) ;
#266 = DIRECTION ( 'NONE',  ( -4.275831445896958607E-31, -1.000000000000000000, -1.224646799147353207E-16 ) ) ;
#267 = CONICAL_SURFACE ( 'NONE', #133, 1.074999999999995515, 1.029744258676649649 ) ;
#268 = ORIENTED_EDGE ( 'NONE', *, *, #334, .F. ) ;
#269 = DIRECTION ( 'NONE',  ( 4.275831445896958607E-31, 1.000000000000000000, 1.224646799147353454E-16 ) ) ;
#270 = LINE ( 'NONE', #36, #3 ) ;
#271 = EDGE_CURVE ( 'NONE', #42, #306, #270, .T. ) ;
#272 = PERSON_AND_ORGANIZATION ( #304, #32 ) ;
#273 = CONICAL_SURFACE ( 'NONE', #72, 0.8750000000000003331, 0.7853981633974510546 ) ;
#274 = PERSON_AND_ORGANIZATION ( #304, #32 ) ;
#275 = ORIENTED_EDGE ( 'NONE', *, *, #226, .F. ) ;
#276 = SECURITY_CLASSIFICATION_LEVEL ( 'unclassified' ) ;
#277 = ADVANCED_FACE ( 'NONE', ( #142 ), #273, .T. ) ;
#278 = APPROVAL_DATE_TIME ( #329, #60 ) ;
#279 = EDGE_LOOP ( 'NONE', ( #87, #309, #275, #229 ) ) ;
#280 = CIRCLE ( 'NONE', #37, 1.074999999999995515 ) ;
#281 = AXIS2_PLACEMENT_3D ( 'NONE', #61, #13, #59 ) ;
#282 = DATE_AND_TIME ( #145, #214 ) ;
#283 = CARTESIAN_POINT ( 'NONE',  ( 4.596518804339213555E-31, 1.074999999999996181, 1.316495309083399687E-16 ) ) ;
#284 = APPROVAL ( #305, 'UNSPECIFIED' ) ;
#285 = PLANE ( 'NONE',  #152 ) ;
#286 = CYLINDRICAL_SURFACE ( 'NONE', #111, 1.074999999999996181 ) ;
#287 = AXIS2_PLACEMENT_3D ( 'NONE', #194, #320, #269 ) ;
#288 = AXIS2_PLACEMENT_3D ( 'NONE', #289, #26, #28 ) ;
#289 = CARTESIAN_POINT ( 'NONE',  ( 1.396592535537253342E-13, -4.898587196589413026E-15, 40.00000000000000000 ) ) ;
#290 = MANIFOLD_SOLID_BREP ( 'Corps-Déplacer/Copier1[1]', #88 ) ;
#291 = DIRECTION ( 'NONE',  ( 4.275831445896958607E-31, 1.000000000000000000, 1.224646799147353454E-16 ) ) ;
#292 = CARTESIAN_POINT ( 'NONE',  ( 1.396592535537253342E-13, -4.898587196589413026E-15, 40.00000000000000000 ) ) ;
#293 = FACE_OUTER_BOUND ( 'NONE', #118, .T. ) ;
#294 = PLANE ( 'NONE',  #50 ) ;
#295 = LINE ( 'NONE', #86, #209 ) ;
#296 = LOCAL_TIME ( 9, 49, 2.000000000000000000, #181 ) ;
#297 =( LENGTH_UNIT ( ) NAMED_UNIT ( * ) SI_UNIT ( .MILLI., .METRE. ) );
#298 = PRODUCT_RELATED_PRODUCT_CATEGORY ( 'detail', '', ( #127 ) ) ;
#299 = DIRECTION ( 'NONE',  ( 0.0000000000000000000, 1.000000000000000000, 0.0000000000000000000 ) ) ;
#300 = ORIENTED_EDGE ( 'NONE', *, *, #99, .F. ) ;
#301 = CIRCLE ( 'NONE', #336, 1.074999999999996847 ) ;
#302 = PERSON_AND_ORGANIZATION_ROLE ( 'design_supplier' ) ;
#303 = EDGE_LOOP ( 'NONE', ( #94, #67, #124, #69 ) ) ;
#304 = PERSON ( 'UNSPECIFIED', 'UNSPECIFIED', 'UNSPECIFIED', ('UNSPECIFIED'), ('UNSPECIFIED'), ('UNSPECIFIED') ) ;
#305 = APPROVAL_STATUS ( 'not_yet_approved' ) ;
#306 = VERTEX_POINT ( 'NONE', #143 ) ;
#307 = CARTESIAN_POINT ( 'NONE',  ( 2.255235661474009806E-15, -7.910301863627393396E-17, 0.6459251654546317445 ) ) ;
#308 = APPROVAL_PERSON_ORGANIZATION ( #92, #60, #96 ) ;
#309 = ORIENTED_EDGE ( 'NONE', *, *, #162, .T. ) ;
#310 = ADVANCED_FACE ( 'NONE', ( #238 ), #172, .T. ) ;
#311 = DIRECTION ( 'NONE',  ( -3.583125477929756245E-31, -1.000000000000000000, -1.008560160451636288E-16 ) ) ;
#312 = DIRECTION ( 'NONE',  ( -3.491481338843133355E-15, 1.224646799147353207E-16, -1.000000000000000000 ) ) ;
#313 = ADVANCED_BREP_SHAPE_REPRESENTATION ( '54513', ( #290, #64, #126 ), #331 ) ;
#314 = CIRCLE ( 'NONE', #230, 1.074999999999996847 ) ;
#315 = CC_DESIGN_PERSON_AND_ORGANIZATION_ASSIGNMENT ( #90, #201, ( #8 ) ) ;
#316 = DIRECTION ( 'NONE',  ( -3.491481338843133355E-15, 1.224646799147353207E-16, -1.000000000000000000 ) ) ;
#317 = CARTESIAN_POINT ( 'NONE',  ( 3.491481338843133355E-14, 1.074999999999995515, 10.00000000000000000 ) ) ;
#318 = DIRECTION ( 'NONE',  ( -3.491481338843133355E-15, 1.224646799147353207E-16, -1.000000000000000000 ) ) ;
#319 = ADVANCED_FACE ( 'NONE', ( #14 ), #242, .T. ) ;
#320 = DIRECTION ( 'NONE',  ( -3.491481338843133355E-15, 1.224646799147353207E-16, -1.000000000000000000 ) ) ;
#321 = DIRECTION ( 'NONE',  ( -3.491481338843133355E-15, 1.224646799147353207E-16, -1.000000000000000000 ) ) ;
#322 = APPLICATION_CONTEXT ( 'configuration controlled 3d designs of mechanical parts and assemblies' ) ;
#323 = VECTOR ( 'NONE', #332, 1000.000000000000000 ) ;
#324 = PRODUCT_DEFINITION ( 'UNKNOWN', '', #8, #101 ) ;
#325 = DIRECTION ( 'NONE',  ( 4.275831445896957731E-31, 1.000000000000000000, 1.224646799147352961E-16 ) ) ;
#326 = AXIS2_PLACEMENT_3D ( 'NONE', #292, #29, #102 ) ;
#327 = COORDINATED_UNIVERSAL_TIME_OFFSET ( 1, 0, .AHEAD. ) ;
#328 = VERTEX_POINT ( 'NONE', #137 ) ;
#329 = DATE_AND_TIME ( #178, #173 ) ;
#330 = VERTEX_POINT ( 'NONE', #168 ) ;
#331 =( GEOMETRIC_REPRESENTATION_CONTEXT ( 3 ) GLOBAL_UNCERTAINTY_ASSIGNED_CONTEXT ( ( #157 ) ) GLOBAL_UNIT_ASSIGNED_CONTEXT ( ( #297, #241, #169 ) ) REPRESENTATION_CONTEXT ( 'NONE', 'WORKASPACE' ) );
#332 = DIRECTION ( 'NONE',  ( -2.382254525458709186E-15, -0.7071067811865493491, -0.7071067811865456854 ) ) ;
#333 = ORIENTED_EDGE ( 'NONE', *, *, #334, .T. ) ;
#334 = EDGE_CURVE ( 'NONE', #330, #328, #295, .T. ) ;
#335 = ORIENTED_EDGE ( 'NONE', *, *, #12, .T. ) ;
#336 = AXIS2_PLACEMENT_3D ( 'NONE', #189, #337, #134 ) ;
#337 = DIRECTION ( 'NONE',  ( -3.491481338843133355E-15, 1.224646799147353207E-16, -1.000000000000000000 ) ) ;
ENDSEC;
END-ISO-10303-21;
