ISO-10303-21;
HEADER;
FILE_DESCRIPTION (( 'STEP AP203' ),
    '1' );
FILE_NAME ('54512.step',
    '2021-09-03T07:49:00',
    ( '' ),
    ( '' ),
    'SwSTEP 2.0',
    'SolidWorks 2019',
    '' );
FILE_SCHEMA (( 'CONFIG_CONTROL_DESIGN' ));
ENDSEC;

DATA;
#1 = PERSON_AND_ORGANIZATION ( #95, #167 ) ;
#2 = FACE_OUTER_BOUND ( 'NONE', #114, .T. ) ;
#3 = APPROVAL_PERSON_ORGANIZATION ( #23, #217, #228 ) ;
#4 = ORIENTED_EDGE ( 'NONE', *, *, #108, .F. ) ;
#5 = EDGE_CURVE ( 'NONE', #322, #289, #83, .T. ) ;
#6 = DATE_AND_TIME ( #8, #328 ) ;
#7 = CARTESIAN_POINT ( 'NONE',  ( 2.202788320509497996E-15, -7.726341355170940724E-17, 0.6309036499789425489 ) ) ;
#8 = CALENDAR_DATE ( 2021, 3, 9 ) ;
#9 = ORIENTED_EDGE ( 'NONE', *, *, #247, .F. ) ;
#10 = AXIS2_PLACEMENT_3D ( 'NONE', #266, #265, #190 ) ;
#11 = PRODUCT_DEFINITION ( 'UNKNOWN', '', #176, #288 ) ;
#12 = ORIENTED_EDGE ( 'NONE', *, *, #182, .T. ) ;
#13 = CARTESIAN_POINT ( 'NONE',  ( 3.142333204958820020E-14, 1.049999999999995604, 9.000000000000000000 ) ) ;
#14 = DIRECTION ( 'NONE',  ( -3.491481338843133355E-15, 1.224646799147353207E-16, -1.000000000000000000 ) ) ;
#15 = CIRCLE ( 'NONE', #116, 1.049999999999996714 ) ;
#16 = DIRECTION ( 'NONE',  ( 4.275831445896958607E-31, 1.000000000000000000, 1.224646799147353207E-16 ) ) ;
#17 = CARTESIAN_POINT ( 'NONE',  ( 1.319779946082704535E-13, -4.629164900776995227E-15, 37.79999999999999716 ) ) ;
#18 = FACE_OUTER_BOUND ( 'NONE', #292, .T. ) ;
#19 = EDGE_CURVE ( 'NONE', #27, #57, #221, .T. ) ;
#20 = PRODUCT_DEFINITION_SHAPE ( 'NONE', 'NONE',  #11 ) ;
#21 = AXIS2_PLACEMENT_3D ( 'NONE', #73, #206, #50 ) ;
#22 = VERTEX_POINT ( 'NONE', #115 ) ;
#23 = PERSON_AND_ORGANIZATION ( #95, #167 ) ;
#24 = ORIENTED_EDGE ( 'NONE', *, *, #55, .T. ) ;
#25 = APPROVAL_DATE_TIME ( #227, #324 ) ;
#26 = ORIENTED_EDGE ( 'NONE', *, *, #69, .T. ) ;
#27 = VERTEX_POINT ( 'NONE', #189 ) ;
#28 = VECTOR ( 'NONE', #119, 1000.000000000000000 ) ;
#29 = CIRCLE ( 'NONE', #203, 1.049999999999995604 ) ;
#30 = EDGE_CURVE ( 'NONE', #127, #289, #183, .T. ) ;
#31 = EDGE_LOOP ( 'NONE', ( #80, #308, #335, #103 ) ) ;
#32 = SHAPE_DEFINITION_REPRESENTATION ( #20, #112 ) ;
#33 = CARTESIAN_POINT ( 'NONE',  ( 3.142333204958820020E-14, -1.102182119232617714E-15, 9.000000000000000000 ) ) ;
#34 = CC_DESIGN_DATE_AND_TIME_ASSIGNMENT ( #6, #296, ( #260 ) ) ;
#35 = DIRECTION ( 'NONE',  ( -4.275831445896958607E-31, -1.000000000000000000, -1.224646799147353207E-16 ) ) ;
#36 = DIRECTION ( 'NONE',  ( -3.491481338843133355E-15, 1.224646799147353207E-16, -1.000000000000000000 ) ) ;
#37 = DIRECTION ( 'NONE',  ( 3.491481338843133355E-15, -1.224646799147353207E-16, 1.000000000000000000 ) ) ;
#38 = CARTESIAN_POINT ( 'NONE',  ( 3.142333204958820020E-14, 7.873738858974711387E-33, 9.000000000000000000 ) ) ;
#39 = AXIS2_PLACEMENT_3D ( 'NONE', #155, #291, #213 ) ;
#40 = APPLICATION_CONTEXT ( 'configuration controlled 3d designs of mechanical parts and assemblies' ) ;
#41 = CARTESIAN_POINT ( 'NONE',  ( 3.142333204958820020E-14, 7.873738858974711387E-33, 9.000000000000000000 ) ) ;
#42 = CARTESIAN_POINT ( 'NONE',  ( 0.0000000000000000000, 0.0000000000000000000, 0.0000000000000000000 ) ) ;
#43 = DIRECTION ( 'NONE',  ( -3.668437989309036103E-31, -1.000000000000000000, -1.032573497605246662E-16 ) ) ;
#44 = PRODUCT_RELATED_PRODUCT_CATEGORY ( 'detail', '', ( #66 ) ) ;
#45 = AXIS2_PLACEMENT_3D ( 'NONE', #41, #94, #68 ) ;
#46 = DIRECTION ( 'NONE',  ( -3.491481338843133355E-15, 1.224646799147353207E-16, -1.000000000000000000 ) ) ;
#47 = DIRECTION ( 'NONE',  ( 0.0000000000000000000, 1.000000000000000000, 0.0000000000000000000 ) ) ;
#48 = ADVANCED_FACE ( 'NONE', ( #137 ), #140, .F. ) ;
#49 = ORIENTED_EDGE ( 'NONE', *, *, #299, .T. ) ;
#50 = DIRECTION ( 'NONE',  ( 1.000000000000000000, 0.0000000000000000000, 0.0000000000000000000 ) ) ;
#51 = CLOSED_SHELL ( 'NONE', ( #91, #200, #48, #333, #262, #191 ) ) ;
#52 = CIRCLE ( 'NONE', #337, 1.049999999999996714 ) ;
#53 = DIRECTION ( 'NONE',  ( -3.491481338843133355E-15, 1.224646799147353207E-16, -1.000000000000000000 ) ) ;
#54 = ORIENTED_EDGE ( 'NONE', *, *, #69, .F. ) ;
#55 = EDGE_CURVE ( 'NONE', #256, #241, #295, .T. ) ;
#56 = COORDINATED_UNIVERSAL_TIME_OFFSET ( 1, 0, .AHEAD. ) ;
#57 = VERTEX_POINT ( 'NONE', #60 ) ;
#58 = AXIS2_PLACEMENT_3D ( 'NONE', #272, #144, #327 ) ;
#59 = ORIENTED_EDGE ( 'NONE', *, *, #128, .F. ) ;
#60 = CARTESIAN_POINT ( 'NONE',  ( 1.324434841880737475E-13, -0.8500000000000049738, 38.00000000000000000 ) ) ;
#61 = CARTESIAN_POINT ( 'NONE',  ( 8.182925124283976591E-14, -1.049999999999997824, 9.000000000000000000 ) ) ;
#62 = CIRCLE ( 'NONE', #146, 1.050000000000000044 ) ;
#63 = CARTESIAN_POINT ( 'NONE',  ( 4.489623018191790860E-31, 1.049999999999996270, 1.285879139104716295E-16 ) ) ;
#64 = ORIENTED_EDGE ( 'NONE', *, *, #108, .T. ) ;
#65 = CARTESIAN_POINT ( 'NONE',  ( 1.326762908760390423E-13, 6.373979076312827779E-33, 38.00000000000000000 ) ) ;
#66 = PRODUCT ( '54512', '54512', '', ( #131 ) ) ;
#67 = LOCAL_TIME ( 9, 49, 0.0000000000000000000, #150 ) ;
#68 = DIRECTION ( 'NONE',  ( -4.275831445896958607E-31, -1.000000000000000000, -1.224646799147353207E-16 ) ) ;
#69 = EDGE_CURVE ( 'NONE', #157, #127, #239, .T. ) ;
#70 = CARTESIAN_POINT ( 'NONE',  ( 1.694164809895930455E-14, -1.049999999999997824, 9.000000000000000000 ) ) ;
#71 = LINE ( 'NONE', #276, #28 ) ;
#72 = CARTESIAN_POINT ( 'NONE',  ( 2.331376234419969822E-15, 1.049999999999995604, 0.6309036499789426600 ) ) ;
#73 = CARTESIAN_POINT ( 'NONE',  ( 0.0000000000000000000, 0.0000000000000000000, 0.0000000000000000000 ) ) ;
#74 = ORIENTED_EDGE ( 'NONE', *, *, #30, .T. ) ;
#75 = APPROVAL_DATE_TIME ( #310, #217 ) ;
#76 = APPROVAL_PERSON_ORGANIZATION ( #99, #324, #152 ) ;
#77 = ORIENTED_EDGE ( 'NONE', *, *, #182, .F. ) ;
#78 = LINE ( 'NONE', #129, #243 ) ;
#79 = ORIENTED_EDGE ( 'NONE', *, *, #299, .F. ) ;
#80 = ORIENTED_EDGE ( 'NONE', *, *, #257, .T. ) ;
#81 = LOCAL_TIME ( 9, 49, 0.0000000000000000000, #109 ) ;
#82 = PERSON_AND_ORGANIZATION ( #95, #167 ) ;
#83 = LINE ( 'NONE', #318, #278 ) ;
#84 = DIRECTION ( 'NONE',  ( -3.491481338843133355E-15, 1.224646799147353207E-16, -1.000000000000000000 ) ) ;
#85 = PERSON_AND_ORGANIZATION ( #95, #167 ) ;
#86 = ORIENTED_EDGE ( 'NONE', *, *, #19, .T. ) ;
#87 = CIRCLE ( 'NONE', #293, 1.050000000000000044 ) ;
#88 = ORIENTED_EDGE ( 'NONE', *, *, #142, .T. ) ;
#89 = FACE_OUTER_BOUND ( 'NONE', #317, .T. ) ;
#90 = FACE_OUTER_BOUND ( 'NONE', #31, .T. ) ;
#91 = ADVANCED_FACE ( 'NONE', ( #141 ), #249, .T. ) ;
#92 = CARTESIAN_POINT ( 'NONE',  ( 3.142333204958820020E-14, 1.049999999999995604, 9.000000000000000000 ) ) ;
#93 = DIRECTION ( 'NONE',  ( -2.468850131082258244E-15, 0.7071067811865495711, -0.7071067811865454633 ) ) ;
#94 = DIRECTION ( 'NONE',  ( 3.491481338843133355E-15, -1.224646799147353207E-16, 1.000000000000000000 ) ) ;
#95 = PERSON ( 'UNSPECIFIED', 'UNSPECIFIED', 'UNSPECIFIED', ('UNSPECIFIED'), ('UNSPECIFIED'), ('UNSPECIFIED') ) ;
#96 = AXIS2_PLACEMENT_3D ( 'NONE', #97, #53, #334 ) ;
#97 = CARTESIAN_POINT ( 'NONE',  ( 0.0000000000000000000, 0.0000000000000000000, 0.0000000000000000000 ) ) ;
#98 = CALENDAR_DATE ( 2021, 3, 9 ) ;
#99 = PERSON_AND_ORGANIZATION ( #95, #167 ) ;
#100 = CC_DESIGN_PERSON_AND_ORGANIZATION_ASSIGNMENT ( #177, #281, ( #176 ) ) ;
#101 = CALENDAR_DATE ( 2021, 3, 9 ) ;
#102 = AXIS2_PLACEMENT_3D ( 'NONE', #193, #14, #122 ) ;
#103 = ORIENTED_EDGE ( 'NONE', *, *, #55, .F. ) ;
#104 = CC_DESIGN_APPROVAL ( #294, ( #260 ) ) ;
#105 = CYLINDRICAL_SURFACE ( 'NONE', #332, 1.049999999999998490 ) ;
#106 = ORIENTED_EDGE ( 'NONE', *, *, #174, .F. ) ;
#107 = CALENDAR_DATE ( 2021, 3, 9 ) ;
#108 = EDGE_CURVE ( 'NONE', #289, #127, #15, .T. ) ;
#109 = COORDINATED_UNIVERSAL_TIME_OFFSET ( 1, 0, .AHEAD. ) ;
#110 = ORIENTED_EDGE ( 'NONE', *, *, #148, .F. ) ;
#111 = VECTOR ( 'NONE', #84, 1000.000000000000000 ) ;
#112 = ADVANCED_BREP_SHAPE_REPRESENTATION ( '54512', ( #252, #238, #21 ), #316 ) ;
#113 = VERTEX_POINT ( 'NONE', #186 ) ;
#114 = EDGE_LOOP ( 'NONE', ( #79, #205, #269 ) ) ;
#115 = CARTESIAN_POINT ( 'NONE',  ( 2.202788320509497601E-15, -1.049999999999995604, 0.6309036499789424379 ) ) ;
#116 = AXIS2_PLACEMENT_3D ( 'NONE', #33, #134, #237 ) ;
#117 = DIRECTION ( 'NONE',  ( 3.491481338843133355E-15, -1.224646799147353207E-16, 1.000000000000000000 ) ) ;
#118 = DIRECTION ( 'NONE',  ( 0.0000000000000000000, 1.000000000000000000, 0.0000000000000000000 ) ) ;
#119 = DIRECTION ( 'NONE',  ( -3.491481338843133355E-15, 1.224646799147353207E-16, -1.000000000000000000 ) ) ;
#120 = LOCAL_TIME ( 9, 49, 0.0000000000000000000, #56 ) ;
#121 = DIRECTION ( 'NONE',  ( 4.275831445896957731E-31, 1.000000000000000000, 1.224646799147353207E-16 ) ) ;
#122 = DIRECTION ( 'NONE',  ( 4.275831445896958607E-31, 1.000000000000000000, 1.224646799147353207E-16 ) ) ;
#123 = CC_DESIGN_PERSON_AND_ORGANIZATION_ASSIGNMENT ( #255, #124, ( #66 ) ) ;
#124 = PERSON_AND_ORGANIZATION_ROLE ( 'design_owner' ) ;
#125 = DIRECTION ( 'NONE',  ( 4.275831445896957731E-31, 1.000000000000000000, 1.224646799147353207E-16 ) ) ;
#126 = APPROVAL_STATUS ( 'not_yet_approved' ) ;
#127 = VERTEX_POINT ( 'NONE', #61 ) ;
#128 = EDGE_CURVE ( 'NONE', #57, #27, #253, .T. ) ;
#129 = CARTESIAN_POINT ( 'NONE',  ( 2.331376234419969822E-15, 1.049999999999995604, 0.6309036499789426600 ) ) ;
#130 = ORIENTED_EDGE ( 'NONE', *, *, #257, .F. ) ;
#131 = MECHANICAL_CONTEXT ( 'NONE', #40, 'mechanical' ) ;
#132 = VECTOR ( 'NONE', #216, 1000.000000000000000 ) ;
#133 = ADVANCED_FACE ( 'NONE', ( #2 ), #194, .T. ) ;
#134 = DIRECTION ( 'NONE',  ( -3.491481338843133355E-15, 1.224646799147353207E-16, -1.000000000000000000 ) ) ;
#135 = ORIENTED_EDGE ( 'NONE', *, *, #19, .F. ) ;
#136 = UNCERTAINTY_MEASURE_WITH_UNIT (LENGTH_MEASURE( 1.000000000000000082E-05 ), #336, 'distance_accuracy_value', 'NONE');
#137 = FACE_OUTER_BOUND ( 'NONE', #231, .T. ) ;
#138 = AXIS2_PLACEMENT_3D ( 'NONE', #219, #301, #220 ) ;
#139 = DIRECTION ( 'NONE',  ( 0.0000000000000000000, 1.000000000000000000, 0.0000000000000000000 ) ) ;
#140 = PLANE ( 'NONE',  #154 ) ;
#141 = FACE_OUTER_BOUND ( 'NONE', #286, .T. ) ;
#142 = EDGE_CURVE ( 'NONE', #27, #322, #273, .T. ) ;
#143 = DIRECTION ( 'NONE',  ( -3.491481338843133355E-15, 1.224646799147353207E-16, -1.000000000000000000 ) ) ;
#144 = DIRECTION ( 'NONE',  ( -3.491481338843133355E-15, 1.224646799147353207E-16, -1.000000000000000000 ) ) ;
#145 = DIRECTION ( 'NONE',  ( -2.382254525458709186E-15, -0.7071067811865493491, -0.7071067811865456854 ) ) ;
#146 = AXIS2_PLACEMENT_3D ( 'NONE', #197, #195, #248 ) ;
#147 = DIRECTION ( 'NONE',  ( 1.798245827342160317E-15, -0.8571673007021098911, 0.5150380749100582634 ) ) ;
#148 = EDGE_CURVE ( 'NONE', #22, #241, #29, .T. ) ;
#149 = DIRECTION ( 'NONE',  ( -3.491481338843133355E-15, 1.224646799147353207E-16, -1.000000000000000000 ) ) ;
#150 = COORDINATED_UNIVERSAL_TIME_OFFSET ( 1, 0, .AHEAD. ) ;
#151 = APPROVAL_STATUS ( 'not_yet_approved' ) ;
#152 = APPROVAL_ROLE ( '' ) ;
#153 = ORIENTED_EDGE ( 'NONE', *, *, #174, .T. ) ;
#154 = AXIS2_PLACEMENT_3D ( 'NONE', #38, #117, #35 ) ;
#155 = CARTESIAN_POINT ( 'NONE',  ( 3.142333204958820020E-14, -1.102182119232617714E-15, 9.000000000000000000 ) ) ;
#156 = APPLICATION_CONTEXT ( 'configuration controlled 3d designs of mechanical parts and assemblies' ) ;
#157 = VERTEX_POINT ( 'NONE', #329 ) ;
#158 = CC_DESIGN_DATE_AND_TIME_ASSIGNMENT ( #201, #254, ( #11 ) ) ;
#159 = DIRECTION ( 'NONE',  ( -3.491481338843133355E-15, 1.224646799147353207E-16, -1.000000000000000000 ) ) ;
#160 = CC_DESIGN_APPROVAL ( #217, ( #176 ) ) ;
#161 = DATE_AND_TIME ( #107, #81 ) ;
#162 = CARTESIAN_POINT ( 'NONE',  ( 1.285879139104714569E-16, -1.049999999999998490, -1.285879139104723444E-16 ) ) ;
#163 = CARTESIAN_POINT ( 'NONE',  ( 1.326762908760390423E-13, -4.653657836759941941E-15, 38.00000000000000000 ) ) ;
#164 = EDGE_CURVE ( 'NONE', #113, #22, #330, .T. ) ;
#165 = DIRECTION ( 'NONE',  ( -3.491481338843133355E-15, 1.224646799147353207E-16, -1.000000000000000000 ) ) ;
#166 = CLOSED_SHELL ( 'NONE', ( #207, #268, #133, #305, #222 ) ) ;
#167 = ORGANIZATION ( 'UNSPECIFIED', 'UNSPECIFIED', '' ) ;
#168 = DIRECTION ( 'NONE',  ( 3.491481338843133355E-15, -1.224646799147353207E-16, 1.000000000000000000 ) ) ;
#169 = CARTESIAN_POINT ( 'NONE',  ( 3.142333204958820020E-14, -1.102182119232617714E-15, 9.000000000000000000 ) ) ;
#170 = DIRECTION ( 'NONE',  ( -3.668437989309036103E-31, -1.000000000000000000, -1.032573497605246662E-16 ) ) ;
#171 = AXIS2_PLACEMENT_3D ( 'NONE', #65, #246, #16 ) ;
#172 = PLANE ( 'NONE',  #171 ) ;
#173 = ORIENTED_EDGE ( 'NONE', *, *, #128, .T. ) ;
#174 = EDGE_CURVE ( 'NONE', #322, #157, #87, .T. ) ;
#175 = ORIENTED_EDGE ( 'NONE', *, *, #187, .T. ) ;
#176 = PRODUCT_DEFINITION_FORMATION_WITH_SPECIFIED_SOURCE ( 'ANY', '', #66, .NOT_KNOWN. ) ;
#177 = PERSON_AND_ORGANIZATION ( #95, #167 ) ;
#178 = ORIENTED_EDGE ( 'NONE', *, *, #5, .F. ) ;
#179 = CARTESIAN_POINT ( 'NONE',  ( 0.0000000000000000000, 0.0000000000000000000, 0.0000000000000000000 ) ) ;
#180 = ORIENTED_EDGE ( 'NONE', *, *, #242, .F. ) ;
#181 = APPLICATION_PROTOCOL_DEFINITION ( 'international standard', 'config_control_design', 1994, #40 ) ;
#182 = EDGE_CURVE ( 'NONE', #157, #322, #62, .T. ) ;
#183 = CIRCLE ( 'NONE', #39, 1.049999999999996714 ) ;
#184 = APPROVAL_PERSON_ORGANIZATION ( #85, #294, #240 ) ;
#185 = DIRECTION ( 'NONE',  ( -3.491481338843133355E-15, 1.224646799147353207E-16, -1.000000000000000000 ) ) ;
#186 = CARTESIAN_POINT ( 'NONE',  ( 0.0000000000000000000, 0.0000000000000000000, 0.0000000000000000000 ) ) ;
#187 = EDGE_CURVE ( 'NONE', #57, #157, #198, .T. ) ;
#188 = PERSON_AND_ORGANIZATION_ROLE ( 'classification_officer' ) ;
#189 = CARTESIAN_POINT ( 'NONE',  ( 1.326762908760390423E-13, 0.8499999999999956479, 38.00000000000000000 ) ) ;
#190 = DIRECTION ( 'NONE',  ( 0.0000000000000000000, 1.000000000000000000, 0.0000000000000000000 ) ) ;
#191 = ADVANCED_FACE ( 'NONE', ( #89 ), #172, .F. ) ;
#192 = CARTESIAN_POINT ( 'NONE',  ( 1.326762908760390423E-13, 0.8499999999999956479, 38.00000000000000000 ) ) ;
#193 = CARTESIAN_POINT ( 'NONE',  ( 0.0000000000000000000, 0.0000000000000000000, 0.0000000000000000000 ) ) ;
#194 = CONICAL_SURFACE ( 'NONE', #287, 1.049999999999995604, 1.029744258676649649 ) ;
#195 = DIRECTION ( 'NONE',  ( -3.491481338843133355E-15, 1.224646799147353207E-16, -1.000000000000000000 ) ) ;
#196 = CC_DESIGN_PERSON_AND_ORGANIZATION_ASSIGNMENT ( #82, #188, ( #260 ) ) ;
#197 = CARTESIAN_POINT ( 'NONE',  ( 1.319779946082704535E-13, -4.629164900776995227E-15, 37.79999999999999716 ) ) ;
#198 = LINE ( 'NONE', #298, #270 ) ;
#199 = AXIS2_PLACEMENT_3D ( 'NONE', #300, #168, #43 ) ;
#200 = ADVANCED_FACE ( 'NONE', ( #223 ), #303, .T. ) ;
#201 = DATE_AND_TIME ( #98, #67 ) ;
#202 = COORDINATED_UNIVERSAL_TIME_OFFSET ( 1, 0, .AHEAD. ) ;
#203 = AXIS2_PLACEMENT_3D ( 'NONE', #274, #149, #323 ) ;
#204 = CARTESIAN_POINT ( 'NONE',  ( 1.319779946082704535E-13, 1.049999999999995604, 37.79999999999999716 ) ) ;
#205 = ORIENTED_EDGE ( 'NONE', *, *, #164, .T. ) ;
#206 = DIRECTION ( 'NONE',  ( 0.0000000000000000000, 0.0000000000000000000, 1.000000000000000000 ) ) ;
#207 = ADVANCED_FACE ( 'NONE', ( #90 ), #271, .T. ) ;
#208 = EDGE_LOOP ( 'NONE', ( #9, #297, #24, #110 ) ) ;
#209 = APPROVAL_DATE_TIME ( #161, #294 ) ;
#210 = CC_DESIGN_APPROVAL ( #324, ( #11 ) ) ;
#211 = VERTEX_POINT ( 'NONE', #70 ) ;
#212 = CC_DESIGN_PERSON_AND_ORGANIZATION_ASSIGNMENT ( #1, #290, ( #176 ) ) ;
#213 = DIRECTION ( 'NONE',  ( 0.0000000000000000000, 1.000000000000000000, 0.0000000000000000000 ) ) ;
#214 = EDGE_LOOP ( 'NONE', ( #130, #180 ) ) ;
#215 = AXIS2_PLACEMENT_3D ( 'NONE', #163, #185, #264 ) ;
#216 = DIRECTION ( 'NONE',  ( -3.491481338843133355E-15, 1.224646799147353207E-16, -1.000000000000000000 ) ) ;
#217 = APPROVAL ( #126, 'UNSPECIFIED' ) ;
#218 = PLANE ( 'NONE',  #45 ) ;
#219 = CARTESIAN_POINT ( 'NONE',  ( 1.326762908760390423E-13, -4.653657836759941941E-15, 38.00000000000000000 ) ) ;
#220 = DIRECTION ( 'NONE',  ( 0.0000000000000000000, 1.000000000000000000, 0.0000000000000000000 ) ) ;
#221 = CIRCLE ( 'NONE', #10, 0.8500000000000003109 ) ;
#222 = ADVANCED_FACE ( 'NONE', ( #224 ), #218, .T. ) ;
#223 = FACE_OUTER_BOUND ( 'NONE', #258, .T. ) ;
#224 = FACE_OUTER_BOUND ( 'NONE', #214, .T. ) ;
#225 = DIRECTION ( 'NONE',  ( 1.903218546456022717E-15, 0.8571673007021097801, 0.5150380749100585964 ) ) ;
#226 = AXIS2_PLACEMENT_3D ( 'NONE', #235, #36, #139 ) ;
#227 = DATE_AND_TIME ( #261, #120 ) ;
#228 = APPROVAL_ROLE ( '' ) ;
#229 = ORIENTED_EDGE ( 'NONE', *, *, #5, .T. ) ;
#230 = PERSON_AND_ORGANIZATION_ROLE ( 'creator' ) ;
#231 = EDGE_LOOP ( 'NONE', ( #64, #74 ) ) ;
#232 = VECTOR ( 'NONE', #147, 1000.000000000000000 ) ;
#233 = CYLINDRICAL_SURFACE ( 'NONE', #96, 1.049999999999996270 ) ;
#234 = SECURITY_CLASSIFICATION_LEVEL ( 'unclassified' ) ;
#235 = CARTESIAN_POINT ( 'NONE',  ( 1.326762908760390423E-13, -4.653657836759941941E-15, 38.00000000000000000 ) ) ;
#236 = CONICAL_SURFACE ( 'NONE', #199, 1.049999999999995604, 1.029744258676649649 ) ;
#237 = DIRECTION ( 'NONE',  ( 0.0000000000000000000, 1.000000000000000000, 0.0000000000000000000 ) ) ;
#238 = MANIFOLD_SOLID_BREP ( 'Corps-Déplacer/Copier1[2]', #166 ) ;
#239 = LINE ( 'NONE', #162, #111 ) ;
#240 = APPROVAL_ROLE ( '' ) ;
#241 = VERTEX_POINT ( 'NONE', #72 ) ;
#242 = EDGE_CURVE ( 'NONE', #211, #256, #52, .T. ) ;
#243 = VECTOR ( 'NONE', #225, 999.9999999999998863 ) ;
#244 = EDGE_LOOP ( 'NONE', ( #54, #12, #229, #315 ) ) ;
#245 = DIRECTION ( 'NONE',  ( 0.0000000000000000000, 1.000000000000000000, 0.0000000000000000000 ) ) ;
#246 = DIRECTION ( 'NONE',  ( -3.491481338843133355E-15, 1.224646799147353207E-16, -1.000000000000000000 ) ) ;
#247 = EDGE_CURVE ( 'NONE', #211, #22, #71, .T. ) ;
#248 = DIRECTION ( 'NONE',  ( 0.0000000000000000000, 1.000000000000000000, 0.0000000000000000000 ) ) ;
#249 = CONICAL_SURFACE ( 'NONE', #215, 0.8500000000000003109, 0.7853981633974510546 ) ;
#250 = CARTESIAN_POINT ( 'NONE',  ( 2.202788320509497601E-15, -1.049999999999995604, 0.6309036499789424379 ) ) ;
#251 = CARTESIAN_POINT ( 'NONE',  ( 3.142333204958820020E-14, -1.102182119232617714E-15, 9.000000000000000000 ) ) ;
#252 = MANIFOLD_SOLID_BREP ( 'Corps-Déplacer/Copier1[1]', #51 ) ;
#253 = CIRCLE ( 'NONE', #226, 0.8500000000000003109 ) ;
#254 = DATE_TIME_ROLE ( 'creation_date' ) ;
#255 = PERSON_AND_ORGANIZATION ( #95, #167 ) ;
#256 = VERTEX_POINT ( 'NONE', #13 ) ;
#257 = EDGE_CURVE ( 'NONE', #256, #211, #275, .T. ) ;
#258 = EDGE_LOOP ( 'NONE', ( #153, #26, #4, #178 ) ) ;
#259 = CONICAL_SURFACE ( 'NONE', #138, 0.8500000000000003109, 0.7853981633974510546 ) ;
#260 = SECURITY_CLASSIFICATION ( '', '', #234 ) ;
#261 = CALENDAR_DATE ( 2021, 3, 9 ) ;
#262 = ADVANCED_FACE ( 'NONE', ( #18 ), #259, .T. ) ;
#263 = COORDINATED_UNIVERSAL_TIME_OFFSET ( 1, 0, .AHEAD. ) ;
#264 = DIRECTION ( 'NONE',  ( 0.0000000000000000000, 1.000000000000000000, 0.0000000000000000000 ) ) ;
#265 = DIRECTION ( 'NONE',  ( -3.491481338843133355E-15, 1.224646799147353207E-16, -1.000000000000000000 ) ) ;
#266 = CARTESIAN_POINT ( 'NONE',  ( 1.326762908760390423E-13, -4.653657836759941941E-15, 38.00000000000000000 ) ) ;
#267 = EDGE_LOOP ( 'NONE', ( #311, #49, #320 ) ) ;
#268 = ADVANCED_FACE ( 'NONE', ( #325 ), #236, .T. ) ;
#269 = ORIENTED_EDGE ( 'NONE', *, *, #148, .T. ) ;
#270 = VECTOR ( 'NONE', #145, 1000.000000000000000 ) ;
#271 = CYLINDRICAL_SURFACE ( 'NONE', #102, 1.049999999999996270 ) ;
#272 = CARTESIAN_POINT ( 'NONE',  ( 2.202788320509497996E-15, -7.726341355170940724E-17, 0.6309036499789425489 ) ) ;
#273 = LINE ( 'NONE', #192, #304 ) ;
#274 = CARTESIAN_POINT ( 'NONE',  ( 2.202788320509497996E-15, -7.726341355170940724E-17, 0.6309036499789425489 ) ) ;
#275 = CIRCLE ( 'NONE', #321, 1.049999999999996714 ) ;
#276 = CARTESIAN_POINT ( 'NONE',  ( 1.285879139104711857E-16, -1.049999999999996270, -1.285879139104720732E-16 ) ) ;
#277 = ORIENTED_EDGE ( 'NONE', *, *, #187, .F. ) ;
#278 = VECTOR ( 'NONE', #159, 1000.000000000000000 ) ;
#279 = AXIS2_PLACEMENT_3D ( 'NONE', #42, #302, #121 ) ;
#280 = CC_DESIGN_SECURITY_CLASSIFICATION ( #260, ( #176 ) ) ;
#281 = PERSON_AND_ORGANIZATION_ROLE ( 'creator' ) ;
#282 = EDGE_CURVE ( 'NONE', #241, #22, #326, .T. ) ;
#283 = ORIENTED_EDGE ( 'NONE', *, *, #142, .F. ) ;
#284 =( NAMED_UNIT ( * ) PLANE_ANGLE_UNIT ( ) SI_UNIT ( $, .RADIAN. ) );
#285 = APPLICATION_PROTOCOL_DEFINITION ( 'international standard', 'config_control_design', 1994, #156 ) ;
#286 = EDGE_LOOP ( 'NONE', ( #86, #175, #106, #283 ) ) ;
#287 = AXIS2_PLACEMENT_3D ( 'NONE', #7, #37, #170 ) ;
#288 = DESIGN_CONTEXT ( 'detailed design', #156, 'design' ) ;
#289 = VERTEX_POINT ( 'NONE', #92 ) ;
#290 = PERSON_AND_ORGANIZATION_ROLE ( 'design_supplier' ) ;
#291 = DIRECTION ( 'NONE',  ( -3.491481338843133355E-15, 1.224646799147353207E-16, -1.000000000000000000 ) ) ;
#292 = EDGE_LOOP ( 'NONE', ( #277, #173, #88, #77 ) ) ;
#293 = AXIS2_PLACEMENT_3D ( 'NONE', #17, #165, #47 ) ;
#294 = APPROVAL ( #319, 'UNSPECIFIED' ) ;
#295 = LINE ( 'NONE', #63, #132 ) ;
#296 = DATE_TIME_ROLE ( 'classification_date' ) ;
#297 = ORIENTED_EDGE ( 'NONE', *, *, #242, .T. ) ;
#298 = CARTESIAN_POINT ( 'NONE',  ( 1.327803858539665835E-13, -0.8500000000000049738, 38.00000000000000000 ) ) ;
#299 = EDGE_CURVE ( 'NONE', #113, #241, #78, .T. ) ;
#300 = CARTESIAN_POINT ( 'NONE',  ( 2.202788320509497996E-15, -7.726341355170940724E-17, 0.6309036499789425489 ) ) ;
#301 = DIRECTION ( 'NONE',  ( -3.491481338843133355E-15, 1.224646799147353207E-16, -1.000000000000000000 ) ) ;
#302 = DIRECTION ( 'NONE',  ( -3.491481338843133355E-15, 1.224646799147353207E-16, -1.000000000000000000 ) ) ;
#303 = CYLINDRICAL_SURFACE ( 'NONE', #279, 1.049999999999998490 ) ;
#304 = VECTOR ( 'NONE', #93, 1000.000000000000000 ) ;
#305 = ADVANCED_FACE ( 'NONE', ( #331 ), #233, .T. ) ;
#306 = PERSON_AND_ORGANIZATION ( #95, #167 ) ;
#307 =( NAMED_UNIT ( * ) SI_UNIT ( $, .STERADIAN. ) SOLID_ANGLE_UNIT ( ) );
#308 = ORIENTED_EDGE ( 'NONE', *, *, #247, .T. ) ;
#309 = CC_DESIGN_PERSON_AND_ORGANIZATION_ASSIGNMENT ( #306, #230, ( #11 ) ) ;
#310 = DATE_AND_TIME ( #101, #312 ) ;
#311 = ORIENTED_EDGE ( 'NONE', *, *, #164, .F. ) ;
#312 = LOCAL_TIME ( 9, 49, 0.0000000000000000000, #202 ) ;
#313 = DIRECTION ( 'NONE',  ( -3.491481338843133355E-15, 1.224646799147353207E-16, -1.000000000000000000 ) ) ;
#314 = FACE_OUTER_BOUND ( 'NONE', #244, .T. ) ;
#315 = ORIENTED_EDGE ( 'NONE', *, *, #30, .F. ) ;
#316 =( GEOMETRIC_REPRESENTATION_CONTEXT ( 3 ) GLOBAL_UNCERTAINTY_ASSIGNED_CONTEXT ( ( #136 ) ) GLOBAL_UNIT_ASSIGNED_CONTEXT ( ( #336, #284, #307 ) ) REPRESENTATION_CONTEXT ( 'NONE', 'WORKASPACE' ) );
#317 = EDGE_LOOP ( 'NONE', ( #135, #59 ) ) ;
#318 = CARTESIAN_POINT ( 'NONE',  ( 4.489623018191799618E-31, 1.049999999999998490, 1.285879139104719006E-16 ) ) ;
#319 = APPROVAL_STATUS ( 'not_yet_approved' ) ;
#320 = ORIENTED_EDGE ( 'NONE', *, *, #282, .T. ) ;
#321 = AXIS2_PLACEMENT_3D ( 'NONE', #251, #46, #118 ) ;
#322 = VERTEX_POINT ( 'NONE', #204 ) ;
#323 = DIRECTION ( 'NONE',  ( 3.668437989309036103E-31, 1.000000000000000000, 1.032573497605246662E-16 ) ) ;
#324 = APPROVAL ( #151, 'UNSPECIFIED' ) ;
#325 = FACE_OUTER_BOUND ( 'NONE', #267, .T. ) ;
#326 = CIRCLE ( 'NONE', #58, 1.049999999999995604 ) ;
#327 = DIRECTION ( 'NONE',  ( 3.668437989309036103E-31, 1.000000000000000000, 1.032573497605246662E-16 ) ) ;
#328 = LOCAL_TIME ( 9, 49, 0.0000000000000000000, #263 ) ;
#329 = CARTESIAN_POINT ( 'NONE',  ( 8.182925124283963970E-14, -1.050000000000004707, 37.79999999999999716 ) ) ;
#330 = LINE ( 'NONE', #250, #232 ) ;
#331 = FACE_OUTER_BOUND ( 'NONE', #208, .T. ) ;
#332 = AXIS2_PLACEMENT_3D ( 'NONE', #179, #313, #125 ) ;
#333 = ADVANCED_FACE ( 'NONE', ( #314 ), #105, .T. ) ;
#334 = DIRECTION ( 'NONE',  ( 4.275831445896958607E-31, 1.000000000000000000, 1.224646799147353207E-16 ) ) ;
#335 = ORIENTED_EDGE ( 'NONE', *, *, #282, .F. ) ;
#336 =( LENGTH_UNIT ( ) NAMED_UNIT ( * ) SI_UNIT ( .MILLI., .METRE. ) );
#337 = AXIS2_PLACEMENT_3D ( 'NONE', #169, #143, #245 ) ;
ENDSEC;
END-ISO-10303-21;
