ISO-10303-21;
HEADER;
FILE_DESCRIPTION (( 'STEP AP203' ),
    '1' );
FILE_NAME ('54511.step',
    '2021-09-03T07:48:58',
    ( '' ),
    ( '' ),
    'SwSTEP 2.0',
    'SolidWorks 2019',
    '' );
FILE_SCHEMA (( 'CONFIG_CONTROL_DESIGN' ));
ENDSEC;

DATA;
#1 = CARTESIAN_POINT ( 'NONE',  ( 4.382727232044375171E-31, 1.024999999999998135, 1.255262969126034628E-16 ) ) ;
#2 = CIRCLE ( 'NONE', #195, 1.024999999999996358 ) ;
#3 = EDGE_CURVE ( 'NONE', #278, #253, #47, .T. ) ;
#4 = PLANE ( 'NONE',  #267 ) ;
#5 = ORIENTED_EDGE ( 'NONE', *, *, #118, .F. ) ;
#6 = DIRECTION ( 'NONE',  ( -3.757912086609258259E-31, -1.000000000000000000, -1.057758217059033662E-16 ) ) ;
#7 = LINE ( 'NONE', #264, #146 ) ;
#8 = VECTOR ( 'NONE', #286, 1000.000000000000000 ) ;
#9 = LINE ( 'NONE', #1, #241 ) ;
#10 = DATE_AND_TIME ( #300, #139 ) ;
#11 = CC_DESIGN_PERSON_AND_ORGANIZATION_ASSIGNMENT ( #281, #214, ( #334 ) ) ;
#12 = ORIENTED_EDGE ( 'NONE', *, *, #106, .F. ) ;
#13 = PERSON_AND_ORGANIZATION ( #219, #124 ) ;
#14 = ORIENTED_EDGE ( 'NONE', *, *, #272, .T. ) ;
#15 = VECTOR ( 'NONE', #333, 1000.000000000000000 ) ;
#16 = APPROVAL_ROLE ( '' ) ;
#17 = ORIENTED_EDGE ( 'NONE', *, *, #153, .T. ) ;
#18 = ORIENTED_EDGE ( 'NONE', *, *, #153, .F. ) ;
#19 = EDGE_CURVE ( 'NONE', #92, #68, #174, .T. ) ;
#20 = VERTEX_POINT ( 'NONE', #189 ) ;
#21 = AXIS2_PLACEMENT_3D ( 'NONE', #55, #211, #111 ) ;
#22 = CARTESIAN_POINT ( 'NONE',  ( 1.255262969126030437E-16, -1.024999999999998135, -1.255262969126039065E-16 ) ) ;
#23 = PRODUCT ( '54511', '54511', '', ( #275 ) ) ;
#24 = DIRECTION ( 'NONE',  ( -4.275831445896958607E-31, -1.000000000000000000, -1.224646799147353207E-16 ) ) ;
#25 = ADVANCED_FACE ( 'NONE', ( #301 ), #224, .T. ) ;
#26 = CARTESIAN_POINT ( 'NONE',  ( 2.150340979544985397E-15, -7.542380846714488053E-17, 0.6158821345032532424 ) ) ;
#27 = CLOSED_SHELL ( 'NONE', ( #288, #251, #132, #222, #143 ) ) ;
#28 = CARTESIAN_POINT ( 'NONE',  ( 3.142333204958820020E-14, 7.686268886141977818E-33, 9.000000000000000000 ) ) ;
#29 = FACE_OUTER_BOUND ( 'NONE', #250, .T. ) ;
#30 =( NAMED_UNIT ( * ) PLANE_ANGLE_UNIT ( ) SI_UNIT ( $, .RADIAN. ) );
#31 = VERTEX_POINT ( 'NONE', #335 ) ;
#32 =( LENGTH_UNIT ( ) NAMED_UNIT ( * ) SI_UNIT ( .MILLI., .METRE. ) );
#33 = AXIS2_PLACEMENT_3D ( 'NONE', #177, #336, #287 ) ;
#34 = CYLINDRICAL_SURFACE ( 'NONE', #230, 1.024999999999995914 ) ;
#35 = APPROVAL ( #321, 'UNSPECIFIED' ) ;
#36 = DIRECTION ( 'NONE',  ( -3.491481338843133355E-15, 1.224646799147353207E-16, -1.000000000000000000 ) ) ;
#37 = EDGE_CURVE ( 'NONE', #278, #31, #101, .T. ) ;
#38 = APPLICATION_PROTOCOL_DEFINITION ( 'international standard', 'config_control_design', 1994, #113 ) ;
#39 = EDGE_LOOP ( 'NONE', ( #121, #221 ) ) ;
#40 = VERTEX_POINT ( 'NONE', #282 ) ;
#41 = ORIENTED_EDGE ( 'NONE', *, *, #181, .T. ) ;
#42 = COORDINATED_UNIVERSAL_TIME_OFFSET ( 1, 0, .AHEAD. ) ;
#43 = ORIENTED_EDGE ( 'NONE', *, *, #106, .T. ) ;
#44 = ADVANCED_FACE ( 'NONE', ( #49 ), #100, .T. ) ;
#45 = ORIENTED_EDGE ( 'NONE', *, *, #19, .T. ) ;
#46 = CARTESIAN_POINT ( 'NONE',  ( 1.326762908760390423E-13, 0.8249999999999952927, 38.00000000000000000 ) ) ;
#47 = CIRCLE ( 'NONE', #103, 1.024999999999999911 ) ;
#48 = FACE_OUTER_BOUND ( 'NONE', #196, .T. ) ;
#49 = FACE_OUTER_BOUND ( 'NONE', #325, .T. ) ;
#50 = DIRECTION ( 'NONE',  ( 4.275831445896959482E-31, 1.000000000000000000, 1.224646799147353207E-16 ) ) ;
#51 = CARTESIAN_POINT ( 'NONE',  ( 1.326762908760390423E-13, 0.8249999999999952927, 38.00000000000000000 ) ) ;
#52 = PRODUCT_RELATED_PRODUCT_CATEGORY ( 'detail', '', ( #23 ) ) ;
#53 = DIRECTION ( 'NONE',  ( 4.275831445896958607E-31, 1.000000000000000000, 1.224646799147353207E-16 ) ) ;
#54 = CC_DESIGN_PERSON_AND_ORGANIZATION_ASSIGNMENT ( #305, #59, ( #334 ) ) ;
#55 = CARTESIAN_POINT ( 'NONE',  ( 0.0000000000000000000, 0.0000000000000000000, 0.0000000000000000000 ) ) ;
#56 = AXIS2_PLACEMENT_3D ( 'NONE', #28, #259, #24 ) ;
#57 = PLANE ( 'NONE',  #165 ) ;
#58 = CARTESIAN_POINT ( 'NONE',  ( 1.326762908760390423E-13, -4.653657836759941941E-15, 38.00000000000000000 ) ) ;
#59 = PERSON_AND_ORGANIZATION_ROLE ( 'creator' ) ;
#60 = CIRCLE ( 'NONE', #138, 1.024999999999995248 ) ;
#61 = DATE_AND_TIME ( #116, #225 ) ;
#62 = ORIENTED_EDGE ( 'NONE', *, *, #238, .F. ) ;
#63 = DATE_AND_TIME ( #246, #184 ) ;
#64 = EDGE_LOOP ( 'NONE', ( #5, #328, #90, #149 ) ) ;
#65 = COORDINATED_UNIVERSAL_TIME_OFFSET ( 1, 0, .AHEAD. ) ;
#66 = EDGE_CURVE ( 'NONE', #108, #253, #257, .T. ) ;
#67 = EDGE_LOOP ( 'NONE', ( #45, #88, #306, #148 ) ) ;
#68 = VERTEX_POINT ( 'NONE', #127 ) ;
#69 = CARTESIAN_POINT ( 'NONE',  ( 1.326762908760390423E-13, -4.653657836759941941E-15, 38.00000000000000000 ) ) ;
#70 = CC_DESIGN_PERSON_AND_ORGANIZATION_ASSIGNMENT ( #13, #244, ( #125 ) ) ;
#71 = DIRECTION ( 'NONE',  ( 0.0000000000000000000, 1.000000000000000000, 0.0000000000000000000 ) ) ;
#72 = CIRCLE ( 'NONE', #179, 0.8249999999999999556 ) ;
#73 = CARTESIAN_POINT ( 'NONE',  ( 3.142333204958820020E-14, -1.102182119232617714E-15, 9.000000000000000000 ) ) ;
#74 = CARTESIAN_POINT ( 'NONE',  ( 4.382727232044365537E-31, 1.024999999999995914, 1.255262969126031916E-16 ) ) ;
#75 = DIRECTION ( 'NONE',  ( -3.491481338843133355E-15, 1.224646799147353207E-16, -1.000000000000000000 ) ) ;
#76 = CARTESIAN_POINT ( 'NONE',  ( 1.326762908760390423E-13, -4.653657836759941941E-15, 38.00000000000000000 ) ) ;
#77 = APPROVAL ( #327, 'UNSPECIFIED' ) ;
#78 = CARTESIAN_POINT ( 'NONE',  ( 2.150340979544985397E-15, -7.542380846714488053E-17, 0.6158821345032532424 ) ) ;
#79 = FACE_OUTER_BOUND ( 'NONE', #223, .T. ) ;
#80 =( GEOMETRIC_REPRESENTATION_CONTEXT ( 3 ) GLOBAL_UNCERTAINTY_ASSIGNED_CONTEXT ( ( #159 ) ) GLOBAL_UNIT_ASSIGNED_CONTEXT ( ( #32, #30, #320 ) ) REPRESENTATION_CONTEXT ( 'NONE', 'WORKASPACE' ) );
#81 = EDGE_CURVE ( 'NONE', #68, #20, #176, .T. ) ;
#82 = APPLICATION_CONTEXT ( 'configuration controlled 3d designs of mechanical parts and assemblies' ) ;
#83 = PERSON_AND_ORGANIZATION ( #219, #124 ) ;
#84 = AXIS2_PLACEMENT_3D ( 'NONE', #200, #96, #50 ) ;
#85 = ORIENTED_EDGE ( 'NONE', *, *, #233, .F. ) ;
#86 = APPROVAL_DATE_TIME ( #63, #77 ) ;
#87 = MANIFOLD_SOLID_BREP ( 'Corps-Déplacer/Copier1[1]', #294 ) ;
#88 = ORIENTED_EDGE ( 'NONE', *, *, #81, .T. ) ;
#89 = EDGE_CURVE ( 'NONE', #226, #108, #256, .T. ) ;
#90 = ORIENTED_EDGE ( 'NONE', *, *, #66, .T. ) ;
#91 = APPROVAL_DATE_TIME ( #114, #35 ) ;
#92 = VERTEX_POINT ( 'NONE', #332 ) ;
#93 = AXIS2_PLACEMENT_3D ( 'NONE', #26, #198, #232 ) ;
#94 = CARTESIAN_POINT ( 'NONE',  ( 1.319779946082704535E-13, -4.629164900776995227E-15, 37.79999999999999716 ) ) ;
#95 = PRODUCT_DEFINITION_SHAPE ( 'NONE', 'NONE',  #125 ) ;
#96 = DIRECTION ( 'NONE',  ( -3.491481338843133355E-15, 1.224646799147353207E-16, -1.000000000000000000 ) ) ;
#97 = CYLINDRICAL_SURFACE ( 'NONE', #84, 1.024999999999998135 ) ;
#98 = DIRECTION ( 'NONE',  ( 4.275831445896959482E-31, 1.000000000000000000, 1.224646799147353207E-16 ) ) ;
#99 = ADVANCED_FACE ( 'NONE', ( #48 ), #97, .T. ) ;
#100 = CYLINDRICAL_SURFACE ( 'NONE', #112, 1.024999999999998135 ) ;
#101 = LINE ( 'NONE', #22, #311 ) ;
#102 = DESIGN_CONTEXT ( 'detailed design', #113, 'design' ) ;
#103 = AXIS2_PLACEMENT_3D ( 'NONE', #94, #122, #309 ) ;
#104 = CC_DESIGN_APPROVAL ( #77, ( #334 ) ) ;
#105 = CARTESIAN_POINT ( 'NONE',  ( 1.324404225710758734E-13, -0.8250000000000046185, 38.00000000000000000 ) ) ;
#106 = EDGE_CURVE ( 'NONE', #20, #308, #60, .T. ) ;
#107 = CARTESIAN_POINT ( 'NONE',  ( 1.319779946082704535E-13, 1.024999999999995248, 37.79999999999999716 ) ) ;
#108 = VERTEX_POINT ( 'NONE', #51 ) ;
#109 = DIRECTION ( 'NONE',  ( 1.903218546456022717E-15, 0.8571673007021097801, 0.5150380749100585964 ) ) ;
#110 = ADVANCED_BREP_SHAPE_REPRESENTATION ( '54511', ( #87, #202, #330 ), #80 ) ;
#111 = DIRECTION ( 'NONE',  ( 4.275831445896958607E-31, 1.000000000000000000, 1.224646799147353207E-16 ) ) ;
#112 = AXIS2_PLACEMENT_3D ( 'NONE', #156, #173, #98 ) ;
#113 = APPLICATION_CONTEXT ( 'configuration controlled 3d designs of mechanical parts and assemblies' ) ;
#114 = DATE_AND_TIME ( #273, #284 ) ;
#115 = ORIENTED_EDGE ( 'NONE', *, *, #168, .T. ) ;
#116 = CALENDAR_DATE ( 2021, 3, 9 ) ;
#117 = EDGE_LOOP ( 'NONE', ( #183, #17, #218, #12 ) ) ;
#118 = EDGE_CURVE ( 'NONE', #226, #278, #151, .T. ) ;
#119 = APPROVAL_DATE_TIME ( #303, #302 ) ;
#120 = ORIENTED_EDGE ( 'NONE', *, *, #163, .T. ) ;
#121 = ORIENTED_EDGE ( 'NONE', *, *, #238, .T. ) ;
#122 = DIRECTION ( 'NONE',  ( -3.491481338843133355E-15, 1.224646799147353207E-16, -1.000000000000000000 ) ) ;
#123 = AXIS2_PLACEMENT_3D ( 'NONE', #69, #227, #228 ) ;
#124 = ORGANIZATION ( 'UNSPECIFIED', 'UNSPECIFIED', '' ) ;
#125 = PRODUCT_DEFINITION ( 'UNKNOWN', '', #334, #102 ) ;
#126 = CARTESIAN_POINT ( 'NONE',  ( 1.255262969126027972E-16, -1.024999999999995914, -1.255262969126036353E-16 ) ) ;
#127 = CARTESIAN_POINT ( 'NONE',  ( 1.691236281147918011E-14, -1.024999999999997469, 9.000000000000000000 ) ) ;
#128 = DIRECTION ( 'NONE',  ( 0.0000000000000000000, 1.000000000000000000, 0.0000000000000000000 ) ) ;
#129 = CC_DESIGN_APPROVAL ( #35, ( #125 ) ) ;
#130 = CARTESIAN_POINT ( 'NONE',  ( 1.319779946082704535E-13, -4.629164900776995227E-15, 37.79999999999999716 ) ) ;
#131 = FACE_OUTER_BOUND ( 'NONE', #247, .T. ) ;
#132 = ADVANCED_FACE ( 'NONE', ( #131 ), #207, .T. ) ;
#133 = AXIS2_PLACEMENT_3D ( 'NONE', #239, #208, #317 ) ;
#134 = SECURITY_CLASSIFICATION ( '', '', #145 ) ;
#135 = CARTESIAN_POINT ( 'NONE',  ( 0.0000000000000000000, 0.0000000000000000000, 0.0000000000000000000 ) ) ;
#136 = DIRECTION ( 'NONE',  ( 4.275831445896958607E-31, 1.000000000000000000, 1.224646799147353207E-16 ) ) ;
#137 = FACE_OUTER_BOUND ( 'NONE', #117, .T. ) ;
#138 = AXIS2_PLACEMENT_3D ( 'NONE', #285, #154, #312 ) ;
#139 = LOCAL_TIME ( 9, 48, 58.00000000000000000, #279 ) ;
#140 = PERSON_AND_ORGANIZATION_ROLE ( 'design_owner' ) ;
#141 = CARTESIAN_POINT ( 'NONE',  ( 3.142333204958820020E-14, -1.102182119232617714E-15, 9.000000000000000000 ) ) ;
#142 = DIRECTION ( 'NONE',  ( 1.000000000000000000, 0.0000000000000000000, 0.0000000000000000000 ) ) ;
#143 = ADVANCED_FACE ( 'NONE', ( #310 ), #258, .T. ) ;
#144 = ORIENTED_EDGE ( 'NONE', *, *, #277, .T. ) ;
#145 = SECURITY_CLASSIFICATION_LEVEL ( 'unclassified' ) ;
#146 = VECTOR ( 'NONE', #109, 999.9999999999998863 ) ;
#147 = APPROVAL_PERSON_ORGANIZATION ( #322, #35, #192 ) ;
#148 = ORIENTED_EDGE ( 'NONE', *, *, #175, .F. ) ;
#149 = ORIENTED_EDGE ( 'NONE', *, *, #3, .F. ) ;
#150 = DIRECTION ( 'NONE',  ( -3.491481338843133355E-15, 1.224646799147353207E-16, -1.000000000000000000 ) ) ;
#151 = LINE ( 'NONE', #260, #212 ) ;
#152 = DIRECTION ( 'NONE',  ( -3.491481338843133355E-15, 1.224646799147353207E-16, -1.000000000000000000 ) ) ;
#153 = EDGE_CURVE ( 'NONE', #68, #92, #248, .T. ) ;
#154 = DIRECTION ( 'NONE',  ( -3.491481338843133355E-15, 1.224646799147353207E-16, -1.000000000000000000 ) ) ;
#155 = CIRCLE ( 'NONE', #33, 1.024999999999995248 ) ;
#156 = CARTESIAN_POINT ( 'NONE',  ( 0.0000000000000000000, 0.0000000000000000000, 0.0000000000000000000 ) ) ;
#157 = CARTESIAN_POINT ( 'NONE',  ( 2.275867276457589081E-15, 1.024999999999995248, 0.6158821345032533534 ) ) ;
#158 = FACE_OUTER_BOUND ( 'NONE', #67, .T. ) ;
#159 = UNCERTAINTY_MEASURE_WITH_UNIT (LENGTH_MEASURE( 1.000000000000000082E-05 ), #32, 'distance_accuracy_value', 'NONE');
#160 = AXIS2_PLACEMENT_3D ( 'NONE', #130, #229, #234 ) ;
#161 = DIRECTION ( 'NONE',  ( -4.275831445896958607E-31, -1.000000000000000000, -1.224646799147353207E-16 ) ) ;
#162 = DIRECTION ( 'NONE',  ( -3.491481338843133355E-15, 1.224646799147353207E-16, -1.000000000000000000 ) ) ;
#163 = EDGE_CURVE ( 'NONE', #253, #278, #298, .T. ) ;
#164 = DIRECTION ( 'NONE',  ( 3.491481338843133355E-15, -1.224646799147353207E-16, 1.000000000000000000 ) ) ;
#165 = AXIS2_PLACEMENT_3D ( 'NONE', #182, #162, #53 ) ;
#166 = APPROVAL_PERSON_ORGANIZATION ( #83, #77, #16 ) ;
#167 = ORIENTED_EDGE ( 'NONE', *, *, #233, .T. ) ;
#168 = EDGE_CURVE ( 'NONE', #331, #20, #289, .T. ) ;
#169 = DATE_TIME_ROLE ( 'creation_date' ) ;
#170 = SHAPE_DEFINITION_REPRESENTATION ( #95, #110 ) ;
#171 = ORIENTED_EDGE ( 'NONE', *, *, #186, .F. ) ;
#172 = CARTESIAN_POINT ( 'NONE',  ( 1.326762908760390423E-13, -4.653657836759941941E-15, 38.00000000000000000 ) ) ;
#173 = DIRECTION ( 'NONE',  ( -3.491481338843133355E-15, 1.224646799147353207E-16, -1.000000000000000000 ) ) ;
#174 = CIRCLE ( 'NONE', #290, 1.024999999999996358 ) ;
#175 = EDGE_CURVE ( 'NONE', #92, #308, #313, .T. ) ;
#176 = LINE ( 'NONE', #126, #8 ) ;
#177 = CARTESIAN_POINT ( 'NONE',  ( 2.150340979544985397E-15, -7.542380846714488053E-17, 0.6158821345032532424 ) ) ;
#178 = DIRECTION ( 'NONE',  ( -2.382254525458709186E-15, -0.7071067811865493491, -0.7071067811865456854 ) ) ;
#179 = AXIS2_PLACEMENT_3D ( 'NONE', #76, #235, #185 ) ;
#180 = LOCAL_TIME ( 9, 48, 58.00000000000000000, #65 ) ;
#181 = EDGE_CURVE ( 'NONE', #308, #20, #155, .T. ) ;
#182 = CARTESIAN_POINT ( 'NONE',  ( 1.326762908760390423E-13, 6.186509103480092841E-33, 38.00000000000000000 ) ) ;
#183 = ORIENTED_EDGE ( 'NONE', *, *, #81, .F. ) ;
#184 = LOCAL_TIME ( 9, 48, 58.00000000000000000, #252 ) ;
#185 = DIRECTION ( 'NONE',  ( 0.0000000000000000000, 1.000000000000000000, 0.0000000000000000000 ) ) ;
#186 = EDGE_CURVE ( 'NONE', #31, #40, #2, .T. ) ;
#187 = CIRCLE ( 'NONE', #133, 1.024999999999996358 ) ;
#188 = COORDINATED_UNIVERSAL_TIME_OFFSET ( 1, 0, .AHEAD. ) ;
#189 = CARTESIAN_POINT ( 'NONE',  ( 2.150340979544985002E-15, -1.024999999999995248, 0.6158821345032531314 ) ) ;
#190 = CALENDAR_DATE ( 2021, 3, 9 ) ;
#191 = ORIENTED_EDGE ( 'NONE', *, *, #89, .F. ) ;
#192 = APPROVAL_ROLE ( '' ) ;
#193 = ORIENTED_EDGE ( 'NONE', *, *, #37, .F. ) ;
#194 = PERSON_AND_ORGANIZATION ( #219, #124 ) ;
#195 = AXIS2_PLACEMENT_3D ( 'NONE', #314, #75, #263 ) ;
#196 = EDGE_LOOP ( 'NONE', ( #120, #265, #62, #85 ) ) ;
#197 = CC_DESIGN_APPROVAL ( #302, ( #134 ) ) ;
#198 = DIRECTION ( 'NONE',  ( 3.491481338843133355E-15, -1.224646799147353207E-16, 1.000000000000000000 ) ) ;
#199 = ADVANCED_FACE ( 'NONE', ( #29 ), #319, .T. ) ;
#200 = CARTESIAN_POINT ( 'NONE',  ( 0.0000000000000000000, 0.0000000000000000000, 0.0000000000000000000 ) ) ;
#201 = AXIS2_PLACEMENT_3D ( 'NONE', #172, #150, #71 ) ;
#202 = MANIFOLD_SOLID_BREP ( 'Corps-Déplacer/Copier1[2]', #27 ) ;
#203 = CARTESIAN_POINT ( 'NONE',  ( 2.150340979544985002E-15, -1.024999999999995248, 0.6158821345032531314 ) ) ;
#204 = DIRECTION ( 'NONE',  ( 1.798245827342160317E-15, -0.8571673007021098911, 0.5150380749100582634 ) ) ;
#205 = DIRECTION ( 'NONE',  ( -3.491481338843133355E-15, 1.224646799147353207E-16, -1.000000000000000000 ) ) ;
#206 = CC_DESIGN_PERSON_AND_ORGANIZATION_ASSIGNMENT ( #194, #213, ( #134 ) ) ;
#207 = CONICAL_SURFACE ( 'NONE', #93, 1.024999999999995248, 1.029744258676649649 ) ;
#208 = DIRECTION ( 'NONE',  ( -3.491481338843133355E-15, 1.224646799147353207E-16, -1.000000000000000000 ) ) ;
#209 = ORIENTED_EDGE ( 'NONE', *, *, #118, .T. ) ;
#210 = CC_DESIGN_DATE_AND_TIME_ASSIGNMENT ( #10, #169, ( #125 ) ) ;
#211 = DIRECTION ( 'NONE',  ( -3.491481338843133355E-15, 1.224646799147353207E-16, -1.000000000000000000 ) ) ;
#212 = VECTOR ( 'NONE', #178, 1000.000000000000000 ) ;
#213 = PERSON_AND_ORGANIZATION_ROLE ( 'classification_officer' ) ;
#214 = PERSON_AND_ORGANIZATION_ROLE ( 'design_supplier' ) ;
#215 = DIRECTION ( 'NONE',  ( 0.0000000000000000000, 1.000000000000000000, 0.0000000000000000000 ) ) ;
#216 = AXIS2_PLACEMENT_3D ( 'NONE', #78, #164, #6 ) ;
#217 = PERSON_AND_ORGANIZATION ( #219, #124 ) ;
#218 = ORIENTED_EDGE ( 'NONE', *, *, #175, .T. ) ;
#219 = PERSON ( 'UNSPECIFIED', 'UNSPECIFIED', 'UNSPECIFIED', ('UNSPECIFIED'), ('UNSPECIFIED'), ('UNSPECIFIED') ) ;
#220 = DIRECTION ( 'NONE',  ( 0.0000000000000000000, 0.0000000000000000000, 1.000000000000000000 ) ) ;
#221 = ORIENTED_EDGE ( 'NONE', *, *, #186, .T. ) ;
#222 = ADVANCED_FACE ( 'NONE', ( #137 ), #34, .T. ) ;
#223 = EDGE_LOOP ( 'NONE', ( #326, #144, #41 ) ) ;
#224 = CONICAL_SURFACE ( 'NONE', #201, 0.8249999999999999556, 0.7853981633974510546 ) ;
#225 = LOCAL_TIME ( 9, 48, 58.00000000000000000, #42 ) ;
#226 = VERTEX_POINT ( 'NONE', #105 ) ;
#227 = DIRECTION ( 'NONE',  ( -3.491481338843133355E-15, 1.224646799147353207E-16, -1.000000000000000000 ) ) ;
#228 = DIRECTION ( 'NONE',  ( 0.0000000000000000000, 1.000000000000000000, 0.0000000000000000000 ) ) ;
#229 = DIRECTION ( 'NONE',  ( -3.491481338843133355E-15, 1.224646799147353207E-16, -1.000000000000000000 ) ) ;
#230 = AXIS2_PLACEMENT_3D ( 'NONE', #135, #36, #136 ) ;
#231 = CC_DESIGN_SECURITY_CLASSIFICATION ( #134, ( #334 ) ) ;
#232 = DIRECTION ( 'NONE',  ( -3.757912086609258259E-31, -1.000000000000000000, -1.057758217059033662E-16 ) ) ;
#233 = EDGE_CURVE ( 'NONE', #253, #40, #9, .T. ) ;
#234 = DIRECTION ( 'NONE',  ( 0.0000000000000000000, 1.000000000000000000, 0.0000000000000000000 ) ) ;
#235 = DIRECTION ( 'NONE',  ( -3.491481338843133355E-15, 1.224646799147353207E-16, -1.000000000000000000 ) ) ;
#236 = EDGE_LOOP ( 'NONE', ( #304, #18 ) ) ;
#237 = DIRECTION ( 'NONE',  ( -3.491481338843133355E-15, 1.224646799147353207E-16, -1.000000000000000000 ) ) ;
#238 = EDGE_CURVE ( 'NONE', #40, #31, #187, .T. ) ;
#239 = CARTESIAN_POINT ( 'NONE',  ( 3.142333204958820020E-14, -1.102182119232617714E-15, 9.000000000000000000 ) ) ;
#240 = DIRECTION ( 'NONE',  ( 0.0000000000000000000, 1.000000000000000000, 0.0000000000000000000 ) ) ;
#241 = VECTOR ( 'NONE', #237, 1000.000000000000000 ) ;
#242 = APPLICATION_PROTOCOL_DEFINITION ( 'international standard', 'config_control_design', 1994, #82 ) ;
#243 = ADVANCED_FACE ( 'NONE', ( #266 ), #4, .F. ) ;
#244 = PERSON_AND_ORGANIZATION_ROLE ( 'creator' ) ;
#245 = DIRECTION ( 'NONE',  ( -3.491481338843133355E-15, 1.224646799147353207E-16, -1.000000000000000000 ) ) ;
#246 = CALENDAR_DATE ( 2021, 3, 9 ) ;
#247 = EDGE_LOOP ( 'NONE', ( #276, #115, #43 ) ) ;
#248 = CIRCLE ( 'NONE', #271, 1.024999999999996358 ) ;
#249 = APPROVAL_ROLE ( '' ) ;
#250 = EDGE_LOOP ( 'NONE', ( #14, #209, #274, #270 ) ) ;
#251 = ADVANCED_FACE ( 'NONE', ( #79 ), #329, .T. ) ;
#252 = COORDINATED_UNIVERSAL_TIME_OFFSET ( 1, 0, .AHEAD. ) ;
#253 = VERTEX_POINT ( 'NONE', #107 ) ;
#254 = PERSON_AND_ORGANIZATION ( #219, #124 ) ;
#255 = ORIENTED_EDGE ( 'NONE', *, *, #272, .F. ) ;
#256 = CIRCLE ( 'NONE', #123, 0.8249999999999999556 ) ;
#257 = LINE ( 'NONE', #46, #15 ) ;
#258 = PLANE ( 'NONE',  #56 ) ;
#259 = DIRECTION ( 'NONE',  ( 3.491481338843133355E-15, -1.224646799147353207E-16, 1.000000000000000000 ) ) ;
#260 = CARTESIAN_POINT ( 'NONE',  ( 1.327773242369687095E-13, -0.8250000000000046185, 38.00000000000000000 ) ) ;
#261 = VECTOR ( 'NONE', #337, 1000.000000000000000 ) ;
#262 = CC_DESIGN_PERSON_AND_ORGANIZATION_ASSIGNMENT ( #254, #140, ( #23 ) ) ;
#263 = DIRECTION ( 'NONE',  ( 0.0000000000000000000, 1.000000000000000000, 0.0000000000000000000 ) ) ;
#264 = CARTESIAN_POINT ( 'NONE',  ( 2.275867276457589081E-15, 1.024999999999995248, 0.6158821345032533534 ) ) ;
#265 = ORIENTED_EDGE ( 'NONE', *, *, #37, .T. ) ;
#266 = FACE_OUTER_BOUND ( 'NONE', #39, .T. ) ;
#267 = AXIS2_PLACEMENT_3D ( 'NONE', #293, #315, #161 ) ;
#268 = CARTESIAN_POINT ( 'NONE',  ( 8.182618962584175302E-14, -1.025000000000004352, 37.79999999999999716 ) ) ;
#269 = CARTESIAN_POINT ( 'NONE',  ( 0.0000000000000000000, 0.0000000000000000000, 0.0000000000000000000 ) ) ;
#270 = ORIENTED_EDGE ( 'NONE', *, *, #66, .F. ) ;
#271 = AXIS2_PLACEMENT_3D ( 'NONE', #73, #152, #128 ) ;
#272 = EDGE_CURVE ( 'NONE', #108, #226, #72, .T. ) ;
#273 = CALENDAR_DATE ( 2021, 3, 9 ) ;
#274 = ORIENTED_EDGE ( 'NONE', *, *, #163, .F. ) ;
#275 = MECHANICAL_CONTEXT ( 'NONE', #82, 'mechanical' ) ;
#276 = ORIENTED_EDGE ( 'NONE', *, *, #277, .F. ) ;
#277 = EDGE_CURVE ( 'NONE', #331, #308, #7, .T. ) ;
#278 = VERTEX_POINT ( 'NONE', #268 ) ;
#279 = COORDINATED_UNIVERSAL_TIME_OFFSET ( 1, 0, .AHEAD. ) ;
#280 = EDGE_LOOP ( 'NONE', ( #255, #191 ) ) ;
#281 = PERSON_AND_ORGANIZATION ( #219, #124 ) ;
#282 = CARTESIAN_POINT ( 'NONE',  ( 3.142333204958820020E-14, 1.024999999999995248, 9.000000000000000000 ) ) ;
#283 = AXIS2_PLACEMENT_3D ( 'NONE', #58, #296, #240 ) ;
#284 = LOCAL_TIME ( 9, 48, 58.00000000000000000, #188 ) ;
#285 = CARTESIAN_POINT ( 'NONE',  ( 2.150340979544985397E-15, -7.542380846714488053E-17, 0.6158821345032532424 ) ) ;
#286 = DIRECTION ( 'NONE',  ( -3.491481338843133355E-15, 1.224646799147353207E-16, -1.000000000000000000 ) ) ;
#287 = DIRECTION ( 'NONE',  ( 3.757912086609258259E-31, 1.000000000000000000, 1.057758217059033662E-16 ) ) ;
#288 = ADVANCED_FACE ( 'NONE', ( #158 ), #295, .T. ) ;
#289 = LINE ( 'NONE', #203, #316 ) ;
#290 = AXIS2_PLACEMENT_3D ( 'NONE', #141, #245, #215 ) ;
#291 = CARTESIAN_POINT ( 'NONE',  ( 0.0000000000000000000, 0.0000000000000000000, 0.0000000000000000000 ) ) ;
#292 = CC_DESIGN_DATE_AND_TIME_ASSIGNMENT ( #61, #324, ( #134 ) ) ;
#293 = CARTESIAN_POINT ( 'NONE',  ( 3.142333204958820020E-14, 7.686268886141977818E-33, 9.000000000000000000 ) ) ;
#294 = CLOSED_SHELL ( 'NONE', ( #199, #99, #243, #44, #25, #297 ) ) ;
#295 = CYLINDRICAL_SURFACE ( 'NONE', #21, 1.024999999999995914 ) ;
#296 = DIRECTION ( 'NONE',  ( -3.491481338843133355E-15, 1.224646799147353207E-16, -1.000000000000000000 ) ) ;
#297 = ADVANCED_FACE ( 'NONE', ( #318 ), #57, .F. ) ;
#298 = CIRCLE ( 'NONE', #160, 1.024999999999999911 ) ;
#299 = APPROVAL_PERSON_ORGANIZATION ( #217, #302, #249 ) ;
#300 = CALENDAR_DATE ( 2021, 3, 9 ) ;
#301 = FACE_OUTER_BOUND ( 'NONE', #64, .T. ) ;
#302 = APPROVAL ( #307, 'UNSPECIFIED' ) ;
#303 = DATE_AND_TIME ( #190, #180 ) ;
#304 = ORIENTED_EDGE ( 'NONE', *, *, #19, .F. ) ;
#305 = PERSON_AND_ORGANIZATION ( #219, #124 ) ;
#306 = ORIENTED_EDGE ( 'NONE', *, *, #181, .F. ) ;
#307 = APPROVAL_STATUS ( 'not_yet_approved' ) ;
#308 = VERTEX_POINT ( 'NONE', #157 ) ;
#309 = DIRECTION ( 'NONE',  ( 0.0000000000000000000, 1.000000000000000000, 0.0000000000000000000 ) ) ;
#310 = FACE_OUTER_BOUND ( 'NONE', #236, .T. ) ;
#311 = VECTOR ( 'NONE', #205, 1000.000000000000000 ) ;
#312 = DIRECTION ( 'NONE',  ( 3.757912086609258259E-31, 1.000000000000000000, 1.057758217059033662E-16 ) ) ;
#313 = LINE ( 'NONE', #74, #261 ) ;
#314 = CARTESIAN_POINT ( 'NONE',  ( 3.142333204958820020E-14, -1.102182119232617714E-15, 9.000000000000000000 ) ) ;
#315 = DIRECTION ( 'NONE',  ( 3.491481338843133355E-15, -1.224646799147353207E-16, 1.000000000000000000 ) ) ;
#316 = VECTOR ( 'NONE', #204, 1000.000000000000000 ) ;
#317 = DIRECTION ( 'NONE',  ( 0.0000000000000000000, 1.000000000000000000, 0.0000000000000000000 ) ) ;
#318 = FACE_OUTER_BOUND ( 'NONE', #280, .T. ) ;
#319 = CONICAL_SURFACE ( 'NONE', #283, 0.8249999999999999556, 0.7853981633974510546 ) ;
#320 =( NAMED_UNIT ( * ) SI_UNIT ( $, .STERADIAN. ) SOLID_ANGLE_UNIT ( ) );
#321 = APPROVAL_STATUS ( 'not_yet_approved' ) ;
#322 = PERSON_AND_ORGANIZATION ( #219, #124 ) ;
#323 = ORIENTED_EDGE ( 'NONE', *, *, #3, .T. ) ;
#324 = DATE_TIME_ROLE ( 'classification_date' ) ;
#325 = EDGE_LOOP ( 'NONE', ( #193, #323, #167, #171 ) ) ;
#326 = ORIENTED_EDGE ( 'NONE', *, *, #168, .F. ) ;
#327 = APPROVAL_STATUS ( 'not_yet_approved' ) ;
#328 = ORIENTED_EDGE ( 'NONE', *, *, #89, .T. ) ;
#329 = CONICAL_SURFACE ( 'NONE', #216, 1.024999999999995248, 1.029744258676649649 ) ;
#330 = AXIS2_PLACEMENT_3D ( 'NONE', #291, #220, #142 ) ;
#331 = VERTEX_POINT ( 'NONE', #269 ) ;
#332 = CARTESIAN_POINT ( 'NONE',  ( 3.142333204958820020E-14, 1.024999999999995248, 9.000000000000000000 ) ) ;
#333 = DIRECTION ( 'NONE',  ( -2.468850131082258244E-15, 0.7071067811865495711, -0.7071067811865454633 ) ) ;
#334 = PRODUCT_DEFINITION_FORMATION_WITH_SPECIFIED_SOURCE ( 'ANY', '', #23, .NOT_KNOWN. ) ;
#335 = CARTESIAN_POINT ( 'NONE',  ( 8.182618962584187923E-14, -1.024999999999997469, 9.000000000000000000 ) ) ;
#336 = DIRECTION ( 'NONE',  ( -3.491481338843133355E-15, 1.224646799147353207E-16, -1.000000000000000000 ) ) ;
#337 = DIRECTION ( 'NONE',  ( -3.491481338843133355E-15, 1.224646799147353207E-16, -1.000000000000000000 ) ) ;
ENDSEC;
END-ISO-10303-21;
