ISO-10303-21;
HEADER;
FILE_DESCRIPTION (( 'STEP AP203' ),
    '1' );
FILE_NAME ('54510.step',
    '2021-09-03T07:48:56',
    ( '' ),
    ( '' ),
    'SwSTEP 2.0',
    'SolidWorks 2019',
    '' );
FILE_SCHEMA (( 'CONFIG_CONTROL_DESIGN' ));
ENDSEC;

DATA;
#1 = DIRECTION ( 'NONE',  ( 3.851859888774489222E-31, 1.000000000000000000, 1.084202172485509364E-16 ) ) ;
#2 = DIRECTION ( 'NONE',  ( 0.0000000000000000000, 1.000000000000000000, 0.0000000000000000000 ) ) ;
#3 = DIRECTION ( 'NONE',  ( -3.491481338843133355E-15, 1.224646799147353207E-16, -1.000000000000000000 ) ) ;
#4 = UNCERTAINTY_MEASURE_WITH_UNIT (LENGTH_MEASURE( 1.000000000000000082E-05 ), #164, 'distance_accuracy_value', 'NONE');
#5 = PRODUCT ( '54510', '54510', '', ( #32 ) ) ;
#6 = CARTESIAN_POINT ( 'NONE',  ( 2.097893638580473587E-15, -7.358420338258036613E-17, 0.6008606190275641579 ) ) ;
#7 = APPLICATION_PROTOCOL_DEFINITION ( 'international standard', 'config_control_design', 1994, #307 ) ;
#8 = CIRCLE ( 'NONE', #172, 0.9999999999999965583 ) ;
#9 = CC_DESIGN_APPROVAL ( #24, ( #73 ) ) ;
#10 = PERSON_AND_ORGANIZATION ( #236, #35 ) ;
#11 = VERTEX_POINT ( 'NONE', #247 ) ;
#12 = ORIENTED_EDGE ( 'NONE', *, *, #14, .F. ) ;
#13 = VERTEX_POINT ( 'NONE', #89 ) ;
#14 = EDGE_CURVE ( 'NONE', #152, #13, #179, .T. ) ;
#15 = DATE_AND_TIME ( #36, #63 ) ;
#16 = ORIENTED_EDGE ( 'NONE', *, *, #209, .F. ) ;
#17 = EDGE_CURVE ( 'NONE', #68, #194, #212, .T. ) ;
#18 = DIRECTION ( 'NONE',  ( 0.0000000000000000000, 1.000000000000000000, 0.0000000000000000000 ) ) ;
#19 = CARTESIAN_POINT ( 'NONE',  ( 1.326762908760390423E-13, 5.999039130647361324E-33, 38.00000000000000000 ) ) ;
#20 = AXIS2_PLACEMENT_3D ( 'NONE', #19, #155, #284 ) ;
#21 = AXIS2_PLACEMENT_3D ( 'NONE', #298, #62, #260 ) ;
#22 = CARTESIAN_POINT ( 'NONE',  ( 1.324373609540779741E-13, -0.8000000000000048184, 38.00000000000000000 ) ) ;
#23 = DIRECTION ( 'NONE',  ( -3.491481338843133355E-15, 1.224646799147353207E-16, -1.000000000000000000 ) ) ;
#24 = APPROVAL ( #275, 'UNSPECIFIED' ) ;
#25 = DIRECTION ( 'NONE',  ( 4.275831445896958607E-31, 1.000000000000000000, 1.224646799147353207E-16 ) ) ;
#26 = APPROVAL ( #229, 'UNSPECIFIED' ) ;
#27 = LINE ( 'NONE', #267, #165 ) ;
#28 = DIRECTION ( 'NONE',  ( -3.491481338843133355E-15, 1.224646799147353207E-16, -1.000000000000000000 ) ) ;
#29 = DIRECTION ( 'NONE',  ( -3.491481338843133355E-15, 1.224646799147353207E-16, -1.000000000000000000 ) ) ;
#30 = VECTOR ( 'NONE', #312, 1000.000000000000000 ) ;
#31 = FACE_OUTER_BOUND ( 'NONE', #252, .T. ) ;
#32 = MECHANICAL_CONTEXT ( 'NONE', #307, 'mechanical' ) ;
#33 = DATE_TIME_ROLE ( 'classification_date' ) ;
#34 = EDGE_LOOP ( 'NONE', ( #145, #117, #203, #301 ) ) ;
#35 = ORGANIZATION ( 'UNSPECIFIED', 'UNSPECIFIED', '' ) ;
#36 = CALENDAR_DATE ( 2021, 3, 9 ) ;
#37 = ORIENTED_EDGE ( 'NONE', *, *, #14, .T. ) ;
#38 = PERSON_AND_ORGANIZATION_ROLE ( 'design_owner' ) ;
#39 = EDGE_LOOP ( 'NONE', ( #66, #37, #330, #248 ) ) ;
#40 = PERSON_AND_ORGANIZATION ( #236, #35 ) ;
#41 = ORIENTED_EDGE ( 'NONE', *, *, #170, .T. ) ;
#42 = EDGE_CURVE ( 'NONE', #152, #304, #257, .T. ) ;
#43 = CC_DESIGN_APPROVAL ( #313, ( #251 ) ) ;
#44 = CARTESIAN_POINT ( 'NONE',  ( 3.142333204958820020E-14, -1.102182119232617714E-15, 9.000000000000000000 ) ) ;
#45 = ADVANCED_FACE ( 'NONE', ( #74 ), #238, .T. ) ;
#46 = FACE_OUTER_BOUND ( 'NONE', #143, .T. ) ;
#47 = CC_DESIGN_PERSON_AND_ORGANIZATION_ASSIGNMENT ( #86, #123, ( #251 ) ) ;
#48 = CC_DESIGN_APPROVAL ( #26, ( #299 ) ) ;
#49 = DIRECTION ( 'NONE',  ( 0.0000000000000000000, 1.000000000000000000, 0.0000000000000000000 ) ) ;
#50 = CARTESIAN_POINT ( 'NONE',  ( 1.326762908760390423E-13, 0.7999999999999954925, 38.00000000000000000 ) ) ;
#51 = DIRECTION ( 'NONE',  ( -3.491481338843133355E-15, 1.224646799147353207E-16, -1.000000000000000000 ) ) ;
#52 = VECTOR ( 'NONE', #72, 999.9999999999998863 ) ;
#53 = CARTESIAN_POINT ( 'NONE',  ( 0.0000000000000000000, 0.0000000000000000000, 0.0000000000000000000 ) ) ;
#54 = PLANE ( 'NONE',  #103 ) ;
#55 = DIRECTION ( 'NONE',  ( 4.275831445896958607E-31, 1.000000000000000000, 1.224646799147353207E-16 ) ) ;
#56 = LINE ( 'NONE', #217, #30 ) ;
#57 = AXIS2_PLACEMENT_3D ( 'NONE', #258, #23, #18 ) ;
#58 = ADVANCED_FACE ( 'NONE', ( #334 ), #97, .F. ) ;
#59 = PERSON_AND_ORGANIZATION ( #236, #35 ) ;
#60 = ORIENTED_EDGE ( 'NONE', *, *, #202, .F. ) ;
#61 = APPROVAL_ROLE ( '' ) ;
#62 = DIRECTION ( 'NONE',  ( -3.491481338843133355E-15, 1.224646799147353207E-16, -1.000000000000000000 ) ) ;
#63 = LOCAL_TIME ( 9, 48, 56.00000000000000000, #250 ) ;
#64 =( GEOMETRIC_REPRESENTATION_CONTEXT ( 3 ) GLOBAL_UNCERTAINTY_ASSIGNED_CONTEXT ( ( #4 ) ) GLOBAL_UNIT_ASSIGNED_CONTEXT ( ( #164, #79, #270 ) ) REPRESENTATION_CONTEXT ( 'NONE', 'WORKASPACE' ) );
#65 = CALENDAR_DATE ( 2021, 3, 9 ) ;
#66 = ORIENTED_EDGE ( 'NONE', *, *, #42, .F. ) ;
#67 = EDGE_CURVE ( 'NONE', #328, #11, #70, .T. ) ;
#68 = VERTEX_POINT ( 'NONE', #100 ) ;
#69 = ORIENTED_EDGE ( 'NONE', *, *, #202, .T. ) ;
#70 = CIRCLE ( 'NONE', #57, 1.000000000000000000 ) ;
#71 = DIRECTION ( 'NONE',  ( -3.491481338843133355E-15, 1.224646799147353207E-16, -1.000000000000000000 ) ) ;
#72 = DIRECTION ( 'NONE',  ( 1.903218546456022717E-15, 0.8571673007021097801, 0.5150380749100585964 ) ) ;
#73 = PRODUCT_DEFINITION ( 'UNKNOWN', '', #251, #290 ) ;
#74 = FACE_OUTER_BOUND ( 'NONE', #173, .T. ) ;
#75 = CONICAL_SURFACE ( 'NONE', #85, 0.9999999999999954481, 1.029744258676649649 ) ;
#76 = CARTESIAN_POINT ( 'NONE',  ( 1.327742626199708354E-13, -0.8000000000000048184, 38.00000000000000000 ) ) ;
#77 = EDGE_CURVE ( 'NONE', #11, #328, #216, .T. ) ;
#78 = DIRECTION ( 'NONE',  ( -3.491481338843133355E-15, 1.224646799147353207E-16, -1.000000000000000000 ) ) ;
#79 =( NAMED_UNIT ( * ) PLANE_ANGLE_UNIT ( ) SI_UNIT ( $, .RADIAN. ) );
#80 = DIRECTION ( 'NONE',  ( 4.275831445896958607E-31, 1.000000000000000000, 1.224646799147353207E-16 ) ) ;
#81 = DIRECTION ( 'NONE',  ( -3.491481338843133355E-15, 1.224646799147353207E-16, -1.000000000000000000 ) ) ;
#82 = CARTESIAN_POINT ( 'NONE',  ( 8.182312800884387896E-14, -1.000000000000004663, 37.79999999999999716 ) ) ;
#83 = CARTESIAN_POINT ( 'NONE',  ( 3.142333204958820020E-14, 7.498798913309246986E-33, 9.000000000000000000 ) ) ;
#84 = CONICAL_SURFACE ( 'NONE', #256, 0.9999999999999954481, 1.029744258676649649 ) ;
#85 = AXIS2_PLACEMENT_3D ( 'NONE', #6, #262, #269 ) ;
#86 = PERSON_AND_ORGANIZATION ( #236, #35 ) ;
#87 = ORIENTED_EDGE ( 'NONE', *, *, #144, .F. ) ;
#88 = APPLICATION_PROTOCOL_DEFINITION ( 'international standard', 'config_control_design', 1994, #104 ) ;
#89 = CARTESIAN_POINT ( 'NONE',  ( 3.142333204958820020E-14, 0.9999999999999954481, 9.000000000000000000 ) ) ;
#90 = DATE_AND_TIME ( #146, #136 ) ;
#91 = ORIENTED_EDGE ( 'NONE', *, *, #232, .F. ) ;
#92 = VECTOR ( 'NONE', #264, 1000.000000000000000 ) ;
#93 = PERSON_AND_ORGANIZATION ( #236, #35 ) ;
#94 = VERTEX_POINT ( 'NONE', #22 ) ;
#95 = APPROVAL_DATE_TIME ( #141, #24 ) ;
#96 = ORIENTED_EDGE ( 'NONE', *, *, #110, .F. ) ;
#97 = PLANE ( 'NONE',  #20 ) ;
#98 = AXIS2_PLACEMENT_3D ( 'NONE', #156, #182, #25 ) ;
#99 = DIRECTION ( 'NONE',  ( 0.0000000000000000000, 1.000000000000000000, 0.0000000000000000000 ) ) ;
#100 = CARTESIAN_POINT ( 'NONE',  ( 3.142333204958820020E-14, 0.9999999999999954481, 9.000000000000000000 ) ) ;
#101 = CARTESIAN_POINT ( 'NONE',  ( 3.142333204958820020E-14, -1.102182119232617714E-15, 9.000000000000000000 ) ) ;
#102 = CIRCLE ( 'NONE', #320, 0.9999999999999954481 ) ;
#103 = AXIS2_PLACEMENT_3D ( 'NONE', #83, #113, #218 ) ;
#104 = APPLICATION_CONTEXT ( 'configuration controlled 3d designs of mechanical parts and assemblies' ) ;
#105 = LINE ( 'NONE', #241, #226 ) ;
#106 = CARTESIAN_POINT ( 'NONE',  ( 1.326762908760390423E-13, -4.653657836759941941E-15, 38.00000000000000000 ) ) ;
#107 = AXIS2_PLACEMENT_3D ( 'NONE', #53, #81, #80 ) ;
#108 = AXIS2_PLACEMENT_3D ( 'NONE', #166, #242, #132 ) ;
#109 = FACE_OUTER_BOUND ( 'NONE', #34, .T. ) ;
#110 = EDGE_CURVE ( 'NONE', #194, #68, #8, .T. ) ;
#111 = DIRECTION ( 'NONE',  ( -3.491481338843133355E-15, 1.224646799147353207E-16, -1.000000000000000000 ) ) ;
#112 = EDGE_CURVE ( 'NONE', #276, #11, #125, .T. ) ;
#113 = DIRECTION ( 'NONE',  ( 3.491481338843133355E-15, -1.224646799147353207E-16, 1.000000000000000000 ) ) ;
#114 = COORDINATED_UNIVERSAL_TIME_OFFSET ( 1, 0, .AHEAD. ) ;
#115 = ORIENTED_EDGE ( 'NONE', *, *, #255, .F. ) ;
#116 = DATE_AND_TIME ( #65, #191 ) ;
#117 = ORIENTED_EDGE ( 'NONE', *, *, #293, .T. ) ;
#118 = SECURITY_CLASSIFICATION_LEVEL ( 'unclassified' ) ;
#119 = ORIENTED_EDGE ( 'NONE', *, *, #158, .F. ) ;
#120 = CALENDAR_DATE ( 2021, 3, 9 ) ;
#121 = ORIENTED_EDGE ( 'NONE', *, *, #77, .T. ) ;
#122 = AXIS2_PLACEMENT_3D ( 'NONE', #44, #181, #99 ) ;
#123 = PERSON_AND_ORGANIZATION_ROLE ( 'creator' ) ;
#124 = EDGE_LOOP ( 'NONE', ( #115, #249, #177, #96 ) ) ;
#125 = LINE ( 'NONE', #50, #205 ) ;
#126 = DIRECTION ( 'NONE',  ( -3.491481338843133355E-15, 1.224646799147353207E-16, -1.000000000000000000 ) ) ;
#127 = CARTESIAN_POINT ( 'NONE',  ( 1.319779946082704535E-13, -4.629164900776995227E-15, 37.79999999999999716 ) ) ;
#128 = EDGE_CURVE ( 'NONE', #94, #328, #306, .T. ) ;
#129 = CARTESIAN_POINT ( 'NONE',  ( 2.097893638580473587E-15, -7.358420338258036613E-17, 0.6008606190275641579 ) ) ;
#130 = CIRCLE ( 'NONE', #263, 0.9999999999999965583 ) ;
#131 = AXIS2_PLACEMENT_3D ( 'NONE', #167, #278, #224 ) ;
#132 = DIRECTION ( 'NONE',  ( 0.0000000000000000000, 1.000000000000000000, 0.0000000000000000000 ) ) ;
#133 = ADVANCED_FACE ( 'NONE', ( #309 ), #287, .T. ) ;
#134 = DIRECTION ( 'NONE',  ( 1.798245827342160317E-15, -0.8571673007021098911, 0.5150380749100582634 ) ) ;
#135 = CARTESIAN_POINT ( 'NONE',  ( 2.220358318495208735E-15, 0.9999999999999954481, 0.6008606190275642689 ) ) ;
#136 = LOCAL_TIME ( 9, 48, 56.00000000000000000, #300 ) ;
#137 = CARTESIAN_POINT ( 'NONE',  ( 1.326762908760390423E-13, -4.653657836759941941E-15, 38.00000000000000000 ) ) ;
#138 = ADVANCED_FACE ( 'NONE', ( #46 ), #84, .T. ) ;
#139 = PLANE ( 'NONE',  #314 ) ;
#140 = ADVANCED_FACE ( 'NONE', ( #336 ), #213, .T. ) ;
#141 = DATE_AND_TIME ( #120, #206 ) ;
#142 = AXIS2_PLACEMENT_3D ( 'NONE', #286, #51, #49 ) ;
#143 = EDGE_LOOP ( 'NONE', ( #91, #150, #41 ) ) ;
#144 = EDGE_CURVE ( 'NONE', #13, #152, #130, .T. ) ;
#145 = ORIENTED_EDGE ( 'NONE', *, *, #128, .F. ) ;
#146 = CALENDAR_DATE ( 2021, 3, 9 ) ;
#147 = CC_DESIGN_PERSON_AND_ORGANIZATION_ASSIGNMENT ( #93, #195, ( #73 ) ) ;
#148 = VERTEX_POINT ( 'NONE', #283 ) ;
#149 = CALENDAR_DATE ( 2021, 3, 9 ) ;
#150 = ORIENTED_EDGE ( 'NONE', *, *, #158, .T. ) ;
#151 = APPROVAL_PERSON_ORGANIZATION ( #171, #26, #198 ) ;
#152 = VERTEX_POINT ( 'NONE', #333 ) ;
#153 = CARTESIAN_POINT ( 'NONE',  ( 2.097893638580473587E-15, -7.358420338258036613E-17, 0.6008606190275641579 ) ) ;
#154 = AXIS2_PLACEMENT_3D ( 'NONE', #106, #319, #245 ) ;
#155 = DIRECTION ( 'NONE',  ( -3.491481338843133355E-15, 1.224646799147353207E-16, -1.000000000000000000 ) ) ;
#156 = CARTESIAN_POINT ( 'NONE',  ( 0.0000000000000000000, 0.0000000000000000000, 0.0000000000000000000 ) ) ;
#157 = DIRECTION ( 'NONE',  ( -3.491481338843133355E-15, 1.224646799147353207E-16, -1.000000000000000000 ) ) ;
#158 = EDGE_CURVE ( 'NONE', #148, #281, #208, .T. ) ;
#159 = AXIS2_PLACEMENT_3D ( 'NONE', #127, #126, #335 ) ;
#160 = CIRCLE ( 'NONE', #108, 0.8000000000000001554 ) ;
#161 = CARTESIAN_POINT ( 'NONE',  ( 4.275831445896941966E-31, 0.9999999999999961142, 1.224646799147348523E-16 ) ) ;
#162 = PRODUCT_RELATED_PRODUCT_CATEGORY ( 'detail', '', ( #5 ) ) ;
#163 = CARTESIAN_POINT ( 'NONE',  ( 2.097893638580473587E-15, -7.358420338258036613E-17, 0.6008606190275641579 ) ) ;
#164 =( LENGTH_UNIT ( ) NAMED_UNIT ( * ) SI_UNIT ( .MILLI., .METRE. ) );
#165 = VECTOR ( 'NONE', #134, 1000.000000000000000 ) ;
#166 = CARTESIAN_POINT ( 'NONE',  ( 1.326762908760390423E-13, -4.653657836759941941E-15, 38.00000000000000000 ) ) ;
#167 = CARTESIAN_POINT ( 'NONE',  ( 0.0000000000000000000, 0.0000000000000000000, 0.0000000000000000000 ) ) ;
#168 = PERSON_AND_ORGANIZATION_ROLE ( 'classification_officer' ) ;
#169 = ORIENTED_EDGE ( 'NONE', *, *, #144, .T. ) ;
#170 = EDGE_CURVE ( 'NONE', #281, #304, #102, .T. ) ;
#171 = PERSON_AND_ORGANIZATION ( #236, #35 ) ;
#172 = AXIS2_PLACEMENT_3D ( 'NONE', #101, #204, #211 ) ;
#173 = EDGE_LOOP ( 'NONE', ( #69, #223, #253, #274 ) ) ;
#174 = ADVANCED_FACE ( 'NONE', ( #292 ), #315, .T. ) ;
#175 = SHAPE_DEFINITION_REPRESENTATION ( #277, #254 ) ;
#176 = ORIENTED_EDGE ( 'NONE', *, *, #255, .T. ) ;
#177 = ORIENTED_EDGE ( 'NONE', *, *, #282, .T. ) ;
#178 = ORIENTED_EDGE ( 'NONE', *, *, #110, .T. ) ;
#179 = CIRCLE ( 'NONE', #21, 0.9999999999999965583 ) ;
#180 = DIRECTION ( 'NONE',  ( 0.0000000000000000000, 1.000000000000000000, 0.0000000000000000000 ) ) ;
#181 = DIRECTION ( 'NONE',  ( -3.491481338843133355E-15, 1.224646799147353207E-16, -1.000000000000000000 ) ) ;
#182 = DIRECTION ( 'NONE',  ( -3.491481338843133355E-15, 1.224646799147353207E-16, -1.000000000000000000 ) ) ;
#183 = DIRECTION ( 'NONE',  ( 4.275831445896958607E-31, 1.000000000000000000, 1.224646799147353207E-16 ) ) ;
#184 = CC_DESIGN_DATE_AND_TIME_ASSIGNMENT ( #90, #33, ( #299 ) ) ;
#185 = VECTOR ( 'NONE', #157, 1000.000000000000000 ) ;
#186 = AXIS2_PLACEMENT_3D ( 'NONE', #137, #111, #2 ) ;
#187 = DIRECTION ( 'NONE',  ( 3.851859888774489222E-31, 1.000000000000000000, 1.084202172485509364E-16 ) ) ;
#188 = FACE_OUTER_BOUND ( 'NONE', #279, .T. ) ;
#189 = CYLINDRICAL_SURFACE ( 'NONE', #272, 0.9999999999999983347 ) ;
#190 = CLOSED_SHELL ( 'NONE', ( #174, #138, #259, #140, #318 ) ) ;
#191 = LOCAL_TIME ( 9, 48, 56.00000000000000000, #246 ) ;
#192 = DIRECTION ( 'NONE',  ( -4.275831445896958607E-31, -1.000000000000000000, -1.224646799147353207E-16 ) ) ;
#193 = APPROVAL_STATUS ( 'not_yet_approved' ) ;
#194 = VERTEX_POINT ( 'NONE', #243 ) ;
#195 = PERSON_AND_ORGANIZATION_ROLE ( 'creator' ) ;
#196 = ORIENTED_EDGE ( 'NONE', *, *, #17, .F. ) ;
#197 = VECTOR ( 'NONE', #233, 1000.000000000000000 ) ;
#198 = APPROVAL_ROLE ( '' ) ;
#199 = EDGE_LOOP ( 'NONE', ( #169, #225, #201, #16 ) ) ;
#200 = DATE_AND_TIME ( #149, #239 ) ;
#201 = ORIENTED_EDGE ( 'NONE', *, *, #170, .F. ) ;
#202 = EDGE_CURVE ( 'NONE', #276, #94, #289, .T. ) ;
#203 = ORIENTED_EDGE ( 'NONE', *, *, #112, .T. ) ;
#204 = DIRECTION ( 'NONE',  ( -3.491481338843133355E-15, 1.224646799147353207E-16, -1.000000000000000000 ) ) ;
#205 = VECTOR ( 'NONE', #332, 1000.000000000000000 ) ;
#206 = LOCAL_TIME ( 9, 48, 56.00000000000000000, #114 ) ;
#207 = MANIFOLD_SOLID_BREP ( 'Corps-Déplacer/Copier1[1]', #268 ) ;
#208 = LINE ( 'NONE', #308, #52 ) ;
#209 = EDGE_CURVE ( 'NONE', #13, #281, #294, .T. ) ;
#210 = CC_DESIGN_PERSON_AND_ORGANIZATION_ASSIGNMENT ( #59, #303, ( #251 ) ) ;
#211 = DIRECTION ( 'NONE',  ( 0.0000000000000000000, 1.000000000000000000, 0.0000000000000000000 ) ) ;
#212 = CIRCLE ( 'NONE', #122, 0.9999999999999965583 ) ;
#213 = CYLINDRICAL_SURFACE ( 'NONE', #280, 0.9999999999999961142 ) ;
#214 = DIRECTION ( 'NONE',  ( 3.491481338843133355E-15, -1.224646799147353207E-16, 1.000000000000000000 ) ) ;
#215 = FACE_OUTER_BOUND ( 'NONE', #228, .T. ) ;
#216 = CIRCLE ( 'NONE', #159, 1.000000000000000000 ) ;
#217 = CARTESIAN_POINT ( 'NONE',  ( 1.224646799147346798E-16, -0.9999999999999983347, -1.224646799147355426E-16 ) ) ;
#218 = DIRECTION ( 'NONE',  ( -4.275831445896958607E-31, -1.000000000000000000, -1.224646799147353207E-16 ) ) ;
#219 = CARTESIAN_POINT ( 'NONE',  ( 3.142333204958820020E-14, 7.498798913309246986E-33, 9.000000000000000000 ) ) ;
#220 = CC_DESIGN_SECURITY_CLASSIFICATION ( #299, ( #251 ) ) ;
#221 = EDGE_LOOP ( 'NONE', ( #121, #176, #196, #323 ) ) ;
#222 = COORDINATED_UNIVERSAL_TIME_OFFSET ( 1, 0, .AHEAD. ) ;
#223 = ORIENTED_EDGE ( 'NONE', *, *, #128, .T. ) ;
#224 = DIRECTION ( 'NONE',  ( 1.000000000000000000, 0.0000000000000000000, 0.0000000000000000000 ) ) ;
#225 = ORIENTED_EDGE ( 'NONE', *, *, #42, .T. ) ;
#226 = VECTOR ( 'NONE', #28, 1000.000000000000000 ) ;
#227 = APPROVAL_DATE_TIME ( #15, #26 ) ;
#228 = EDGE_LOOP ( 'NONE', ( #87, #12 ) ) ;
#229 = APPROVAL_STATUS ( 'not_yet_approved' ) ;
#230 = ORIENTED_EDGE ( 'NONE', *, *, #293, .F. ) ;
#231 = DIRECTION ( 'NONE',  ( 3.491481338843133355E-15, -1.224646799147353207E-16, 1.000000000000000000 ) ) ;
#232 = EDGE_CURVE ( 'NONE', #148, #304, #27, .T. ) ;
#233 = DIRECTION ( 'NONE',  ( -2.382254525458709186E-15, -0.7071067811865493491, -0.7071067811865456854 ) ) ;
#234 = APPROVAL_PERSON_ORGANIZATION ( #10, #24, #327 ) ;
#235 = CARTESIAN_POINT ( 'NONE',  ( 3.142333204958820020E-14, -1.102182119232617714E-15, 9.000000000000000000 ) ) ;
#236 = PERSON ( 'UNSPECIFIED', 'UNSPECIFIED', 'UNSPECIFIED', ('UNSPECIFIED'), ('UNSPECIFIED'), ('UNSPECIFIED') ) ;
#237 = DIRECTION ( 'NONE',  ( -3.851859888774489222E-31, -1.000000000000000000, -1.084202172485509364E-16 ) ) ;
#238 = CONICAL_SURFACE ( 'NONE', #142, 0.8000000000000001554, 0.7853981633974510546 ) ;
#239 = LOCAL_TIME ( 9, 48, 56.00000000000000000, #222 ) ;
#240 = CARTESIAN_POINT ( 'NONE',  ( 0.0000000000000000000, 0.0000000000000000000, 0.0000000000000000000 ) ) ;
#241 = CARTESIAN_POINT ( 'NONE',  ( 4.275831445896951600E-31, 0.9999999999999983347, 1.224646799147351235E-16 ) ) ;
#242 = DIRECTION ( 'NONE',  ( -3.491481338843133355E-15, 1.224646799147353207E-16, -1.000000000000000000 ) ) ;
#243 = CARTESIAN_POINT ( 'NONE',  ( 8.182312800884399255E-14, -0.9999999999999976685, 9.000000000000000000 ) ) ;
#244 = CC_DESIGN_DATE_AND_TIME_ASSIGNMENT ( #200, #273, ( #73 ) ) ;
#245 = DIRECTION ( 'NONE',  ( 0.0000000000000000000, 1.000000000000000000, 0.0000000000000000000 ) ) ;
#246 = COORDINATED_UNIVERSAL_TIME_OFFSET ( 1, 0, .AHEAD. ) ;
#247 = CARTESIAN_POINT ( 'NONE',  ( 1.319779946082704535E-13, 0.9999999999999954481, 37.79999999999999716 ) ) ;
#248 = ORIENTED_EDGE ( 'NONE', *, *, #295, .F. ) ;
#249 = ORIENTED_EDGE ( 'NONE', *, *, #67, .T. ) ;
#250 = COORDINATED_UNIVERSAL_TIME_OFFSET ( 1, 0, .AHEAD. ) ;
#251 = PRODUCT_DEFINITION_FORMATION_WITH_SPECIFIED_SOURCE ( 'ANY', '', #5, .NOT_KNOWN. ) ;
#252 = EDGE_LOOP ( 'NONE', ( #305, #178 ) ) ;
#253 = ORIENTED_EDGE ( 'NONE', *, *, #77, .F. ) ;
#254 = ADVANCED_BREP_SHAPE_REPRESENTATION ( '54510', ( #207, #316, #131 ), #64 ) ;
#255 = EDGE_CURVE ( 'NONE', #328, #194, #56, .T. ) ;
#256 = AXIS2_PLACEMENT_3D ( 'NONE', #129, #231, #237 ) ;
#257 = LINE ( 'NONE', #285, #185 ) ;
#258 = CARTESIAN_POINT ( 'NONE',  ( 1.319779946082704535E-13, -4.629164900776995227E-15, 37.79999999999999716 ) ) ;
#259 = ADVANCED_FACE ( 'NONE', ( #188 ), #75, .T. ) ;
#260 = DIRECTION ( 'NONE',  ( 0.0000000000000000000, 1.000000000000000000, 0.0000000000000000000 ) ) ;
#261 = CC_DESIGN_PERSON_AND_ORGANIZATION_ASSIGNMENT ( #40, #38, ( #5 ) ) ;
#262 = DIRECTION ( 'NONE',  ( 3.491481338843133355E-15, -1.224646799147353207E-16, 1.000000000000000000 ) ) ;
#263 = AXIS2_PLACEMENT_3D ( 'NONE', #235, #71, #180 ) ;
#264 = DIRECTION ( 'NONE',  ( -3.491481338843133355E-15, 1.224646799147353207E-16, -1.000000000000000000 ) ) ;
#265 = FACE_OUTER_BOUND ( 'NONE', #221, .T. ) ;
#266 = CC_DESIGN_PERSON_AND_ORGANIZATION_ASSIGNMENT ( #296, #168, ( #299 ) ) ;
#267 = CARTESIAN_POINT ( 'NONE',  ( 2.097893638580473192E-15, -0.9999999999999954481, 0.6008606190275640468 ) ) ;
#268 = CLOSED_SHELL ( 'NONE', ( #45, #329, #331, #133, #302, #58 ) ) ;
#269 = DIRECTION ( 'NONE',  ( -3.851859888774489222E-31, -1.000000000000000000, -1.084202172485509364E-16 ) ) ;
#270 =( NAMED_UNIT ( * ) SI_UNIT ( $, .STERADIAN. ) SOLID_ANGLE_UNIT ( ) );
#271 = EDGE_LOOP ( 'NONE', ( #60, #230 ) ) ;
#272 = AXIS2_PLACEMENT_3D ( 'NONE', #240, #3, #55 ) ;
#273 = DATE_TIME_ROLE ( 'creation_date' ) ;
#274 = ORIENTED_EDGE ( 'NONE', *, *, #112, .F. ) ;
#275 = APPROVAL_STATUS ( 'not_yet_approved' ) ;
#276 = VERTEX_POINT ( 'NONE', #317 ) ;
#277 = PRODUCT_DEFINITION_SHAPE ( 'NONE', 'NONE',  #73 ) ;
#278 = DIRECTION ( 'NONE',  ( 0.0000000000000000000, 0.0000000000000000000, 1.000000000000000000 ) ) ;
#279 = EDGE_LOOP ( 'NONE', ( #119, #324, #325 ) ) ;
#280 = AXIS2_PLACEMENT_3D ( 'NONE', #311, #78, #183 ) ;
#281 = VERTEX_POINT ( 'NONE', #135 ) ;
#282 = EDGE_CURVE ( 'NONE', #11, #68, #105, .T. ) ;
#283 = CARTESIAN_POINT ( 'NONE',  ( 0.0000000000000000000, 0.0000000000000000000, 0.0000000000000000000 ) ) ;
#284 = DIRECTION ( 'NONE',  ( 4.275831445896958607E-31, 1.000000000000000000, 1.224646799147353207E-16 ) ) ;
#285 = CARTESIAN_POINT ( 'NONE',  ( 1.224646799147344332E-16, -0.9999999999999961142, -1.224646799147352714E-16 ) ) ;
#286 = CARTESIAN_POINT ( 'NONE',  ( 1.326762908760390423E-13, -4.653657836759941941E-15, 38.00000000000000000 ) ) ;
#287 = CYLINDRICAL_SURFACE ( 'NONE', #98, 0.9999999999999983347 ) ;
#288 = DIRECTION ( 'NONE',  ( -3.491481338843133355E-15, 1.224646799147353207E-16, -1.000000000000000000 ) ) ;
#289 = CIRCLE ( 'NONE', #154, 0.8000000000000001554 ) ;
#290 = DESIGN_CONTEXT ( 'detailed design', #104, 'design' ) ;
#291 = CARTESIAN_POINT ( 'NONE',  ( 2.097893638580473192E-15, -0.9999999999999954481, 0.6008606190275640468 ) ) ;
#292 = FACE_OUTER_BOUND ( 'NONE', #199, .T. ) ;
#293 = EDGE_CURVE ( 'NONE', #94, #276, #160, .T. ) ;
#294 = LINE ( 'NONE', #161, #92 ) ;
#295 = EDGE_CURVE ( 'NONE', #304, #281, #337, .T. ) ;
#296 = PERSON_AND_ORGANIZATION ( #236, #35 ) ;
#297 = PERSON_AND_ORGANIZATION ( #236, #35 ) ;
#298 = CARTESIAN_POINT ( 'NONE',  ( 3.142333204958820020E-14, -1.102182119232617714E-15, 9.000000000000000000 ) ) ;
#299 = SECURITY_CLASSIFICATION ( '', '', #118 ) ;
#300 = COORDINATED_UNIVERSAL_TIME_OFFSET ( 1, 0, .AHEAD. ) ;
#301 = ORIENTED_EDGE ( 'NONE', *, *, #67, .F. ) ;
#302 = ADVANCED_FACE ( 'NONE', ( #109 ), #310, .T. ) ;
#303 = PERSON_AND_ORGANIZATION_ROLE ( 'design_supplier' ) ;
#304 = VERTEX_POINT ( 'NONE', #291 ) ;
#305 = ORIENTED_EDGE ( 'NONE', *, *, #17, .T. ) ;
#306 = LINE ( 'NONE', #76, #197 ) ;
#307 = APPLICATION_CONTEXT ( 'configuration controlled 3d designs of mechanical parts and assemblies' ) ;
#308 = CARTESIAN_POINT ( 'NONE',  ( 2.220358318495208735E-15, 0.9999999999999954481, 0.6008606190275642689 ) ) ;
#309 = FACE_OUTER_BOUND ( 'NONE', #124, .T. ) ;
#310 = CONICAL_SURFACE ( 'NONE', #186, 0.8000000000000001554, 0.7853981633974510546 ) ;
#311 = CARTESIAN_POINT ( 'NONE',  ( 0.0000000000000000000, 0.0000000000000000000, 0.0000000000000000000 ) ) ;
#312 = DIRECTION ( 'NONE',  ( -3.491481338843133355E-15, 1.224646799147353207E-16, -1.000000000000000000 ) ) ;
#313 = APPROVAL ( #193, 'UNSPECIFIED' ) ;
#314 = AXIS2_PLACEMENT_3D ( 'NONE', #219, #214, #192 ) ;
#315 = CYLINDRICAL_SURFACE ( 'NONE', #107, 0.9999999999999961142 ) ;
#316 = MANIFOLD_SOLID_BREP ( 'Corps-Déplacer/Copier1[2]', #190 ) ;
#317 = CARTESIAN_POINT ( 'NONE',  ( 1.326762908760390423E-13, 0.7999999999999954925, 38.00000000000000000 ) ) ;
#318 = ADVANCED_FACE ( 'NONE', ( #215 ), #54, .T. ) ;
#319 = DIRECTION ( 'NONE',  ( -3.491481338843133355E-15, 1.224646799147353207E-16, -1.000000000000000000 ) ) ;
#320 = AXIS2_PLACEMENT_3D ( 'NONE', #153, #29, #1 ) ;
#321 = APPROVAL_PERSON_ORGANIZATION ( #297, #313, #61 ) ;
#322 = APPROVAL_DATE_TIME ( #116, #313 ) ;
#323 = ORIENTED_EDGE ( 'NONE', *, *, #282, .F. ) ;
#324 = ORIENTED_EDGE ( 'NONE', *, *, #232, .T. ) ;
#325 = ORIENTED_EDGE ( 'NONE', *, *, #295, .T. ) ;
#326 = AXIS2_PLACEMENT_3D ( 'NONE', #163, #288, #187 ) ;
#327 = APPROVAL_ROLE ( '' ) ;
#328 = VERTEX_POINT ( 'NONE', #82 ) ;
#329 = ADVANCED_FACE ( 'NONE', ( #265 ), #189, .T. ) ;
#330 = ORIENTED_EDGE ( 'NONE', *, *, #209, .T. ) ;
#331 = ADVANCED_FACE ( 'NONE', ( #31 ), #139, .F. ) ;
#332 = DIRECTION ( 'NONE',  ( -2.468850131082258244E-15, 0.7071067811865495711, -0.7071067811865454633 ) ) ;
#333 = CARTESIAN_POINT ( 'NONE',  ( 1.688307752399905567E-14, -0.9999999999999976685, 9.000000000000000000 ) ) ;
#334 = FACE_OUTER_BOUND ( 'NONE', #271, .T. ) ;
#335 = DIRECTION ( 'NONE',  ( 0.0000000000000000000, 1.000000000000000000, 0.0000000000000000000 ) ) ;
#336 = FACE_OUTER_BOUND ( 'NONE', #39, .T. ) ;
#337 = CIRCLE ( 'NONE', #326, 0.9999999999999954481 ) ;
ENDSEC;
END-ISO-10303-21;
