ISO-10303-21;
HEADER;
FILE_DESCRIPTION (( 'STEP AP203' ),
    '1' );
FILE_NAME ('54509.step',
    '2021-09-03T07:48:54',
    ( '' ),
    ( '' ),
    'SwSTEP 2.0',
    'SolidWorks 2019',
    '' );
FILE_SCHEMA (( 'CONFIG_CONTROL_DESIGN' ));
ENDSEC;

DATA;
#1 = COORDINATED_UNIVERSAL_TIME_OFFSET ( 1, 0, .AHEAD. ) ;
#2 = EDGE_LOOP ( 'NONE', ( #18, #287, #330 ) ) ;
#3 = CARTESIAN_POINT ( 'NONE',  ( 2.109340402570447647E-15, 0.9499999999999952927, 0.5708175880761858778 ) ) ;
#4 = CALENDAR_DATE ( 2021, 3, 9 ) ;
#5 = DIRECTION ( 'NONE',  ( 0.0000000000000000000, 1.000000000000000000, 0.0000000000000000000 ) ) ;
#6 = AXIS2_PLACEMENT_3D ( 'NONE', #201, #302, #152 ) ;
#7 = EDGE_CURVE ( 'NONE', #260, #228, #234, .T. ) ;
#8 = DIRECTION ( 'NONE',  ( -3.491481338843133355E-15, 1.224646799147353207E-16, -1.000000000000000000 ) ) ;
#9 = CALENDAR_DATE ( 2021, 3, 9 ) ;
#10 = CARTESIAN_POINT ( 'NONE',  ( 3.142333204958820020E-14, 7.123858967643781215E-33, 9.000000000000000000 ) ) ;
#11 = VECTOR ( 'NONE', #109, 1000.000000000000114 ) ;
#12 = DIRECTION ( 'NONE',  ( 3.491481338843133355E-15, -1.224646799147353207E-16, 1.000000000000000000 ) ) ;
#13 = DIRECTION ( 'NONE',  ( -3.491481338843133355E-15, 1.224646799147353207E-16, -1.000000000000000000 ) ) ;
#14 = LINE ( 'NONE', #114, #42 ) ;
#15 = CC_DESIGN_PERSON_AND_ORGANIZATION_ASSIGNMENT ( #25, #135, ( #132 ) ) ;
#16 = PLANE ( 'NONE',  #147 ) ;
#17 = DIRECTION ( 'NONE',  ( -3.491481338843133355E-15, 1.224646799147353207E-16, -1.000000000000000000 ) ) ;
#18 = ORIENTED_EDGE ( 'NONE', *, *, #7, .F. ) ;
#19 =( NAMED_UNIT ( * ) PLANE_ANGLE_UNIT ( ) SI_UNIT ( $, .RADIAN. ) );
#20 = DATE_AND_TIME ( #180, #237 ) ;
#21 = AXIS2_PLACEMENT_3D ( 'NONE', #67, #17, #94 ) ;
#22 = ORIENTED_EDGE ( 'NONE', *, *, #267, .T. ) ;
#23 = PERSON_AND_ORGANIZATION ( #202, #208 ) ;
#24 = ORIENTED_EDGE ( 'NONE', *, *, #332, .F. ) ;
#25 = PERSON_AND_ORGANIZATION ( #202, #208 ) ;
#26 = ORIENTED_EDGE ( 'NONE', *, *, #261, .T. ) ;
#27 = EDGE_CURVE ( 'NONE', #91, #228, #101, .T. ) ;
#28 = DIRECTION ( 'NONE',  ( 3.491481338843133355E-15, -1.224646799147353207E-16, 1.000000000000000000 ) ) ;
#29 = COORDINATED_UNIVERSAL_TIME_OFFSET ( 1, 0, .AHEAD. ) ;
#30 = ORIENTED_EDGE ( 'NONE', *, *, #296, .F. ) ;
#31 = EDGE_LOOP ( 'NONE', ( #126, #120, #204, #95 ) ) ;
#32 = CARTESIAN_POINT ( 'NONE',  ( 1.992998956651449572E-15, -6.990499321345132502E-17, 0.5708175880761857668 ) ) ;
#33 = ADVANCED_FACE ( 'NONE', ( #311 ), #198, .T. ) ;
#34 = DATE_TIME_ROLE ( 'classification_date' ) ;
#35 = DIRECTION ( 'NONE',  ( -4.054589356604726834E-31, -1.000000000000000000, -1.141265444721589181E-16 ) ) ;
#36 = CARTESIAN_POINT ( 'NONE',  ( 0.0000000000000000000, 0.0000000000000000000, 0.0000000000000000000 ) ) ;
#37 = DIRECTION ( 'NONE',  ( -3.491481338843133355E-15, 1.224646799147353207E-16, -1.000000000000000000 ) ) ;
#38 = CARTESIAN_POINT ( 'NONE',  ( 0.0000000000000000000, 0.0000000000000000000, 0.0000000000000000000 ) ) ;
#39 = FACE_OUTER_BOUND ( 'NONE', #181, .T. ) ;
#40 = DIRECTION ( 'NONE',  ( 4.054589356604726834E-31, 1.000000000000000000, 1.141265444721589181E-16 ) ) ;
#41 = CIRCLE ( 'NONE', #207, 0.9499999999999964029 ) ;
#42 = VECTOR ( 'NONE', #89, 1000.000000000000000 ) ;
#43 = DATE_AND_TIME ( #96, #291 ) ;
#44 = ORIENTED_EDGE ( 'NONE', *, *, #81, .T. ) ;
#45 = AXIS2_PLACEMENT_3D ( 'NONE', #168, #196, #299 ) ;
#46 = PRODUCT ( '54509', '54509', '', ( #253 ) ) ;
#47 = SECURITY_CLASSIFICATION_LEVEL ( 'unclassified' ) ;
#48 = ORIENTED_EDGE ( 'NONE', *, *, #172, .F. ) ;
#49 = CC_DESIGN_DATE_AND_TIME_ASSIGNMENT ( #43, #123, ( #108 ) ) ;
#50 = ORIENTED_EDGE ( 'NONE', *, *, #81, .F. ) ;
#51 = VECTOR ( 'NONE', #258, 1000.000000000000000 ) ;
#52 = EDGE_LOOP ( 'NONE', ( #30, #280, #66, #275 ) ) ;
#53 = CYLINDRICAL_SURFACE ( 'NONE', #193, 0.9499999999999981792 ) ;
#54 = DIRECTION ( 'NONE',  ( 4.275831445896959482E-31, 1.000000000000000000, 1.224646799147353207E-16 ) ) ;
#55 = LINE ( 'NONE', #317, #11 ) ;
#56 = DIRECTION ( 'NONE',  ( 3.491481338843133355E-15, -1.224646799147353207E-16, 1.000000000000000000 ) ) ;
#57 = CC_DESIGN_PERSON_AND_ORGANIZATION_ASSIGNMENT ( #178, #98, ( #174 ) ) ;
#58 = DIRECTION ( 'NONE',  ( -3.491481338843133355E-15, 1.224646799147353207E-16, -1.000000000000000000 ) ) ;
#59 = CARTESIAN_POINT ( 'NONE',  ( 1.163414459189976561E-16, -0.9499999999999959588, -1.163414459189984696E-16 ) ) ;
#60 = APPROVAL_PERSON_ORGANIZATION ( #222, #73, #224 ) ;
#61 = CC_DESIGN_PERSON_AND_ORGANIZATION_ASSIGNMENT ( #69, #229, ( #174 ) ) ;
#62 = FACE_OUTER_BOUND ( 'NONE', #175, .T. ) ;
#63 = DIRECTION ( 'NONE',  ( 4.275831445896958607E-31, 1.000000000000000000, 1.224646799147353454E-16 ) ) ;
#64 = AXIS2_PLACEMENT_3D ( 'NONE', #239, #28, #35 ) ;
#65 = PRODUCT_DEFINITION_SHAPE ( 'NONE', 'NONE',  #108 ) ;
#66 = ORIENTED_EDGE ( 'NONE', *, *, #27, .T. ) ;
#67 = CARTESIAN_POINT ( 'NONE',  ( 3.142333204958820020E-14, -1.102182119232617714E-15, 9.000000000000000000 ) ) ;
#68 = EDGE_LOOP ( 'NONE', ( #266, #44, #99, #225 ) ) ;
#69 = PERSON_AND_ORGANIZATION ( #202, #208 ) ;
#70 = VECTOR ( 'NONE', #102, 999.9999999999998863 ) ;
#71 = MANIFOLD_SOLID_BREP ( 'Corps-Déplacer/Copier1[2]', #218 ) ;
#72 = APPLICATION_PROTOCOL_DEFINITION ( 'international standard', 'config_control_design', 1994, #293 ) ;
#73 = APPROVAL ( #145, 'UNSPECIFIED' ) ;
#74 = FACE_OUTER_BOUND ( 'NONE', #68, .T. ) ;
#75 = DESIGN_CONTEXT ( 'detailed design', #328, 'design' ) ;
#76 = DATE_AND_TIME ( #9, #265 ) ;
#77 = ORIENTED_EDGE ( 'NONE', *, *, #322, .T. ) ;
#78 = ORIENTED_EDGE ( 'NONE', *, *, #162, .F. ) ;
#79 = DIRECTION ( 'NONE',  ( -3.491481338843133355E-15, 1.224646799147353207E-16, -1.000000000000000000 ) ) ;
#80 = VERTEX_POINT ( 'NONE', #292 ) ;
#81 = EDGE_CURVE ( 'NONE', #233, #283, #185, .T. ) ;
#82 = AXIS2_PLACEMENT_3D ( 'NONE', #137, #13, #272 ) ;
#83 = LOCAL_TIME ( 9, 48, 54.00000000000000000, #29 ) ;
#84 = CARTESIAN_POINT ( 'NONE',  ( 1.326762908760390423E-13, 0.7499999999999953371, 38.00000000000000000 ) ) ;
#85 = CARTESIAN_POINT ( 'NONE',  ( 8.181700477484826968E-14, -0.9499999999999975131, 9.000000000000000000 ) ) ;
#86 = DIRECTION ( 'NONE',  ( -3.491481338843133355E-15, 1.224646799147353207E-16, -1.000000000000000000 ) ) ;
#87 = CIRCLE ( 'NONE', #329, 0.9499999999999954037 ) ;
#88 = CC_DESIGN_PERSON_AND_ORGANIZATION_ASSIGNMENT ( #119, #307, ( #108 ) ) ;
#89 = DIRECTION ( 'NONE',  ( -3.491481338843133355E-15, 1.224646799147353207E-16, -1.000000000000000000 ) ) ;
#90 = DIRECTION ( 'NONE',  ( -3.491481338843133355E-15, 1.224646799147353207E-16, -1.000000000000000000 ) ) ;
#91 = VERTEX_POINT ( 'NONE', #286 ) ;
#92 = AXIS2_PLACEMENT_3D ( 'NONE', #36, #244, #63 ) ;
#93 = VECTOR ( 'NONE', #245, 1000.000000000000000 ) ;
#94 = DIRECTION ( 'NONE',  ( 0.0000000000000000000, 1.000000000000000000, 0.0000000000000000000 ) ) ;
#95 = ORIENTED_EDGE ( 'NONE', *, *, #261, .F. ) ;
#96 = CALENDAR_DATE ( 2021, 3, 9 ) ;
#97 = ADVANCED_FACE ( 'NONE', ( #212 ), #188, .T. ) ;
#98 = PERSON_AND_ORGANIZATION_ROLE ( 'design_supplier' ) ;
#99 = ORIENTED_EDGE ( 'NONE', *, *, #306, .F. ) ;
#100 = APPROVAL_DATE_TIME ( #20, #167 ) ;
#101 = LINE ( 'NONE', #205, #264 ) ;
#102 = DIRECTION ( 'NONE',  ( 1.903218546456022717E-15, 0.8571673007021097801, 0.5150380749100585964 ) ) ;
#103 = ADVANCED_FACE ( 'NONE', ( #74 ), #53, .T. ) ;
#104 = CONICAL_SURFACE ( 'NONE', #157, 0.9499999999999954037, 1.029744258676649649 ) ;
#105 = APPROVAL_PERSON_ORGANIZATION ( #23, #167, #333 ) ;
#106 = VERTEX_POINT ( 'NONE', #131 ) ;
#107 = CARTESIAN_POINT ( 'NONE',  ( 3.142333204958820020E-14, -1.102182119232617714E-15, 9.000000000000000000 ) ) ;
#108 = PRODUCT_DEFINITION ( 'UNKNOWN', '', #174, #75 ) ;
#109 = DIRECTION ( 'NONE',  ( -2.382254525458708792E-15, -0.7071067811865495711, -0.7071067811865455743 ) ) ;
#110 = DIRECTION ( 'NONE',  ( -2.468850131082257455E-15, 0.7071067811865497932, -0.7071067811865453523 ) ) ;
#111 = CARTESIAN_POINT ( 'NONE',  ( 1.324312377200822765E-13, -0.7500000000000046629, 38.00000000000000000 ) ) ;
#112 = CARTESIAN_POINT ( 'NONE',  ( 1.319779946082704535E-13, -4.629164900776995227E-15, 37.79999999999999716 ) ) ;
#113 = ADVANCED_FACE ( 'NONE', ( #182 ), #262, .T. ) ;
#114 = CARTESIAN_POINT ( 'NONE',  ( 4.062039873602102706E-31, 0.9499999999999981792, 1.163414459189983464E-16 ) ) ;
#115 = AXIS2_PLACEMENT_3D ( 'NONE', #127, #235, #54 ) ;
#116 = CIRCLE ( 'NONE', #45, 0.9499999999999964029 ) ;
#117 = CARTESIAN_POINT ( 'NONE',  ( 3.142333204958820020E-14, 7.123858967643781215E-33, 9.000000000000000000 ) ) ;
#118 = ADVANCED_FACE ( 'NONE', ( #161 ), #104, .T. ) ;
#119 = PERSON_AND_ORGANIZATION ( #202, #208 ) ;
#120 = ORIENTED_EDGE ( 'NONE', *, *, #315, .T. ) ;
#121 = CARTESIAN_POINT ( 'NONE',  ( 1.326762908760390423E-13, -4.653657836759941941E-15, 38.00000000000000000 ) ) ;
#122 = CIRCLE ( 'NONE', #232, 0.7500000000000000000 ) ;
#123 = DATE_TIME_ROLE ( 'creation_date' ) ;
#124 = COORDINATED_UNIVERSAL_TIME_OFFSET ( 1, 0, .AHEAD. ) ;
#125 = ORIENTED_EDGE ( 'NONE', *, *, #296, .T. ) ;
#126 = ORIENTED_EDGE ( 'NONE', *, *, #150, .F. ) ;
#127 = CARTESIAN_POINT ( 'NONE',  ( 0.0000000000000000000, 0.0000000000000000000, 0.0000000000000000000 ) ) ;
#128 = SHAPE_DEFINITION_REPRESENTATION ( #65, #151 ) ;
#129 = ORIENTED_EDGE ( 'NONE', *, *, #134, .F. ) ;
#130 = APPROVAL_STATUS ( 'not_yet_approved' ) ;
#131 = CARTESIAN_POINT ( 'NONE',  ( 3.142333204958820020E-14, 0.9499999999999952927, 9.000000000000000000 ) ) ;
#132 = SECURITY_CLASSIFICATION ( '', '', #47 ) ;
#133 = DIRECTION ( 'NONE',  ( -4.054589356604726834E-31, -1.000000000000000000, -1.141265444721589181E-16 ) ) ;
#134 = EDGE_CURVE ( 'NONE', #80, #91, #41, .T. ) ;
#135 = PERSON_AND_ORGANIZATION_ROLE ( 'classification_officer' ) ;
#136 = DIRECTION ( 'NONE',  ( 4.275831445896958607E-31, 1.000000000000000000, 1.224646799147353454E-16 ) ) ;
#137 = CARTESIAN_POINT ( 'NONE',  ( 3.142333204958820020E-14, -1.102182119232617714E-15, 9.000000000000000000 ) ) ;
#138 = CYLINDRICAL_SURFACE ( 'NONE', #92, 0.9499999999999981792 ) ;
#139 = AXIS2_PLACEMENT_3D ( 'NONE', #10, #12, #215 ) ;
#140 = LINE ( 'NONE', #84, #318 ) ;
#141 = FACE_OUTER_BOUND ( 'NONE', #309, .T. ) ;
#142 = LOCAL_TIME ( 9, 48, 54.00000000000000000, #230 ) ;
#143 = PRODUCT_RELATED_PRODUCT_CATEGORY ( 'detail', '', ( #46 ) ) ;
#144 = APPROVAL_STATUS ( 'not_yet_approved' ) ;
#145 = APPROVAL_STATUS ( 'not_yet_approved' ) ;
#146 = AXIS2_PLACEMENT_3D ( 'NONE', #313, #316, #5 ) ;
#147 = AXIS2_PLACEMENT_3D ( 'NONE', #117, #165, #176 ) ;
#148 =( LENGTH_UNIT ( ) NAMED_UNIT ( * ) SI_UNIT ( .MILLI., .METRE. ) );
#149 = ORIENTED_EDGE ( 'NONE', *, *, #322, .F. ) ;
#150 = EDGE_CURVE ( 'NONE', #159, #233, #55, .T. ) ;
#151 = ADVANCED_BREP_SHAPE_REPRESENTATION ( '54509', ( #183, #71, #6 ), #184 ) ;
#152 = DIRECTION ( 'NONE',  ( 1.000000000000000000, 0.0000000000000000000, 0.0000000000000000000 ) ) ;
#153 = EDGE_LOOP ( 'NONE', ( #48, #129 ) ) ;
#154 = APPROVAL_ROLE ( '' ) ;
#155 = ORIENTED_EDGE ( 'NONE', *, *, #306, .T. ) ;
#156 = EDGE_CURVE ( 'NONE', #260, #334, #164, .T. ) ;
#157 = AXIS2_PLACEMENT_3D ( 'NONE', #32, #56, #133 ) ;
#158 = APPROVAL_PERSON_ORGANIZATION ( #257, #326, #154 ) ;
#159 = VERTEX_POINT ( 'NONE', #111 ) ;
#160 = CARTESIAN_POINT ( 'NONE',  ( 0.0000000000000000000, 0.0000000000000000000, 0.0000000000000000000 ) ) ;
#161 = FACE_OUTER_BOUND ( 'NONE', #2, .T. ) ;
#162 = EDGE_CURVE ( 'NONE', #256, #233, #231, .T. ) ;
#163 = CIRCLE ( 'NONE', #82, 0.9499999999999964029 ) ;
#164 = LINE ( 'NONE', #213, #51 ) ;
#165 = DIRECTION ( 'NONE',  ( 3.491481338843133355E-15, -1.224646799147353207E-16, 1.000000000000000000 ) ) ;
#166 = CARTESIAN_POINT ( 'NONE',  ( 1.319779946082704535E-13, 0.9499999999999952927, 37.79999999999999716 ) ) ;
#167 = APPROVAL ( #144, 'UNSPECIFIED' ) ;
#168 = CARTESIAN_POINT ( 'NONE',  ( 3.142333204958820020E-14, -1.102182119232617714E-15, 9.000000000000000000 ) ) ;
#169 = CIRCLE ( 'NONE', #195, 0.9499999999999954037 ) ;
#170 = CARTESIAN_POINT ( 'NONE',  ( 1.992998956651449572E-15, -6.990499321345132502E-17, 0.5708175880761857668 ) ) ;
#171 = FACE_OUTER_BOUND ( 'NONE', #263, .T. ) ;
#172 = EDGE_CURVE ( 'NONE', #91, #80, #163, .T. ) ;
#173 = DIRECTION ( 'NONE',  ( 0.0000000000000000000, 1.000000000000000000, 0.0000000000000000000 ) ) ;
#174 = PRODUCT_DEFINITION_FORMATION_WITH_SPECIFIED_SOURCE ( 'ANY', '', #46, .NOT_KNOWN. ) ;
#175 = EDGE_LOOP ( 'NONE', ( #77, #303, #78, #210 ) ) ;
#176 = DIRECTION ( 'NONE',  ( -4.275831445896958607E-31, -1.000000000000000000, -1.224646799147353207E-16 ) ) ;
#177 = EDGE_LOOP ( 'NONE', ( #274, #186, #22 ) ) ;
#178 = PERSON_AND_ORGANIZATION ( #202, #208 ) ;
#179 = CC_DESIGN_APPROVAL ( #73, ( #174 ) ) ;
#180 = CALENDAR_DATE ( 2021, 3, 9 ) ;
#181 = EDGE_LOOP ( 'NONE', ( #50, #26, #199, #24 ) ) ;
#182 = FACE_OUTER_BOUND ( 'NONE', #52, .T. ) ;
#183 = MANIFOLD_SOLID_BREP ( 'Corps-Déplacer/Copier1[1]', #336 ) ;
#184 =( GEOMETRIC_REPRESENTATION_CONTEXT ( 3 ) GLOBAL_UNCERTAINTY_ASSIGNED_CONTEXT ( ( #281 ) ) GLOBAL_UNIT_ASSIGNED_CONTEXT ( ( #148, #19, #255 ) ) REPRESENTATION_CONTEXT ( 'NONE', 'WORKASPACE' ) );
#185 = LINE ( 'NONE', #314, #250 ) ;
#186 = ORIENTED_EDGE ( 'NONE', *, *, #7, .T. ) ;
#187 = VERTEX_POINT ( 'NONE', #192 ) ;
#188 = CONICAL_SURFACE ( 'NONE', #64, 0.9499999999999954037, 1.029744258676649649 ) ;
#189 = AXIS2_PLACEMENT_3D ( 'NONE', #321, #58, #216 ) ;
#190 = DIRECTION ( 'NONE',  ( -3.491481338843133355E-15, 1.224646799147353207E-16, -1.000000000000000000 ) ) ;
#191 = PLANE ( 'NONE',  #284 ) ;
#192 = CARTESIAN_POINT ( 'NONE',  ( 1.326762908760390423E-13, 0.7499999999999953371, 38.00000000000000000 ) ) ;
#193 = AXIS2_PLACEMENT_3D ( 'NONE', #160, #190, #136 ) ;
#194 = DIRECTION ( 'NONE',  ( -3.491481338843133355E-15, 1.224646799147353207E-16, -1.000000000000000000 ) ) ;
#195 = AXIS2_PLACEMENT_3D ( 'NONE', #170, #86, #298 ) ;
#196 = DIRECTION ( 'NONE',  ( -3.491481338843133355E-15, 1.224646799147353207E-16, -1.000000000000000000 ) ) ;
#197 = ORIENTED_EDGE ( 'NONE', *, *, #315, .F. ) ;
#198 = CONICAL_SURFACE ( 'NONE', #146, 0.7500000000000000000, 0.7853981633974512766 ) ;
#199 = ORIENTED_EDGE ( 'NONE', *, *, #301, .T. ) ;
#200 = APPROVAL_DATE_TIME ( #331, #73 ) ;
#201 = CARTESIAN_POINT ( 'NONE',  ( 0.0000000000000000000, 0.0000000000000000000, 0.0000000000000000000 ) ) ;
#202 = PERSON ( 'UNSPECIFIED', 'UNSPECIFIED', 'UNSPECIFIED', ('UNSPECIFIED'), ('UNSPECIFIED'), ('UNSPECIFIED') ) ;
#203 = ADVANCED_FACE ( 'NONE', ( #62 ), #242, .T. ) ;
#204 = ORIENTED_EDGE ( 'NONE', *, *, #236, .T. ) ;
#205 = CARTESIAN_POINT ( 'NONE',  ( 4.062039873602093948E-31, 0.9499999999999959588, 1.163414459189980506E-16 ) ) ;
#206 = DIRECTION ( 'NONE',  ( -3.491481338843133355E-15, 1.224646799147353207E-16, -1.000000000000000000 ) ) ;
#207 = AXIS2_PLACEMENT_3D ( 'NONE', #107, #79, #288 ) ;
#208 = ORGANIZATION ( 'UNSPECIFIED', 'UNSPECIFIED', '' ) ;
#209 = DATE_AND_TIME ( #4, #83 ) ;
#210 = ORIENTED_EDGE ( 'NONE', *, *, #236, .F. ) ;
#211 = ADVANCED_FACE ( 'NONE', ( #39 ), #138, .T. ) ;
#212 = FACE_OUTER_BOUND ( 'NONE', #177, .T. ) ;
#213 = CARTESIAN_POINT ( 'NONE',  ( 1.992998956651449178E-15, -0.9499999999999955147, 0.5708175880761856558 ) ) ;
#214 = FACE_OUTER_BOUND ( 'NONE', #238, .T. ) ;
#215 = DIRECTION ( 'NONE',  ( -4.275831445896958607E-31, -1.000000000000000000, -1.224646799147353207E-16 ) ) ;
#216 = DIRECTION ( 'NONE',  ( 4.275831445896959482E-31, 1.000000000000000000, 1.224646799147353207E-16 ) ) ;
#217 = CC_DESIGN_DATE_AND_TIME_ASSIGNMENT ( #209, #34, ( #132 ) ) ;
#218 = CLOSED_SHELL ( 'NONE', ( #254, #97, #118, #113, #240 ) ) ;
#219 = PLANE ( 'NONE',  #139 ) ;
#220 = AXIS2_PLACEMENT_3D ( 'NONE', #273, #304, #173 ) ;
#221 = CARTESIAN_POINT ( 'NONE',  ( 1.319779946082704535E-13, -4.629164900776995227E-15, 37.79999999999999716 ) ) ;
#222 = PERSON_AND_ORGANIZATION ( #202, #208 ) ;
#223 = ORIENTED_EDGE ( 'NONE', *, *, #267, .F. ) ;
#224 = APPROVAL_ROLE ( '' ) ;
#225 = ORIENTED_EDGE ( 'NONE', *, *, #301, .F. ) ;
#226 = ADVANCED_FACE ( 'NONE', ( #171 ), #191, .F. ) ;
#227 = COORDINATED_UNIVERSAL_TIME_OFFSET ( 1, 0, .AHEAD. ) ;
#228 = VERTEX_POINT ( 'NONE', #327 ) ;
#229 = PERSON_AND_ORGANIZATION_ROLE ( 'creator' ) ;
#230 = COORDINATED_UNIVERSAL_TIME_OFFSET ( 1, 0, .AHEAD. ) ;
#231 = CIRCLE ( 'NONE', #308, 0.9499999999999999556 ) ;
#232 = AXIS2_PLACEMENT_3D ( 'NONE', #121, #335, #305 ) ;
#233 = VERTEX_POINT ( 'NONE', #243 ) ;
#234 = LINE ( 'NONE', #3, #70 ) ;
#235 = DIRECTION ( 'NONE',  ( -3.491481338843133355E-15, 1.224646799147353207E-16, -1.000000000000000000 ) ) ;
#236 = EDGE_CURVE ( 'NONE', #187, #256, #140, .T. ) ;
#237 = LOCAL_TIME ( 9, 48, 54.00000000000000000, #124 ) ;
#238 = EDGE_LOOP ( 'NONE', ( #251, #125, #223, #337 ) ) ;
#239 = CARTESIAN_POINT ( 'NONE',  ( 1.992998956651449572E-15, -6.990499321345132502E-17, 0.5708175880761857668 ) ) ;
#240 = ADVANCED_FACE ( 'NONE', ( #300 ), #219, .T. ) ;
#241 = DIRECTION ( 'NONE',  ( 0.0000000000000000000, 1.000000000000000000, 0.0000000000000000000 ) ) ;
#242 = CONICAL_SURFACE ( 'NONE', #290, 0.7500000000000000000, 0.7853981633974512766 ) ;
#243 = CARTESIAN_POINT ( 'NONE',  ( 8.181700477484811822E-14, -0.9500000000000045075, 37.79999999999999716 ) ) ;
#244 = DIRECTION ( 'NONE',  ( -3.491481338843133355E-15, 1.224646799147353207E-16, -1.000000000000000000 ) ) ;
#245 = DIRECTION ( 'NONE',  ( -3.491481338843133355E-15, 1.224646799147353207E-16, -1.000000000000000000 ) ) ;
#246 = CARTESIAN_POINT ( 'NONE',  ( 1.326762908760390423E-13, 5.624099184981896238E-33, 38.00000000000000000 ) ) ;
#247 = APPLICATION_PROTOCOL_DEFINITION ( 'international standard', 'config_control_design', 1994, #328 ) ;
#248 = CARTESIAN_POINT ( 'NONE',  ( 1.992998956651449178E-15, -0.9499999999999955147, 0.5708175880761856558 ) ) ;
#249 = PERSON_AND_ORGANIZATION ( #202, #208 ) ;
#250 = VECTOR ( 'NONE', #8, 1000.000000000000000 ) ;
#251 = ORIENTED_EDGE ( 'NONE', *, *, #172, .T. ) ;
#252 = CIRCLE ( 'NONE', #220, 0.7500000000000000000 ) ;
#253 = MECHANICAL_CONTEXT ( 'NONE', #293, 'mechanical' ) ;
#254 = ADVANCED_FACE ( 'NONE', ( #214 ), #320, .T. ) ;
#255 =( NAMED_UNIT ( * ) SI_UNIT ( $, .STERADIAN. ) SOLID_ANGLE_UNIT ( ) );
#256 = VERTEX_POINT ( 'NONE', #166 ) ;
#257 = PERSON_AND_ORGANIZATION ( #202, #208 ) ;
#258 = DIRECTION ( 'NONE',  ( 1.798245827342160317E-15, -0.8571673007021098911, 0.5150380749100582634 ) ) ;
#259 = APPROVAL_DATE_TIME ( #76, #326 ) ;
#260 = VERTEX_POINT ( 'NONE', #38 ) ;
#261 = EDGE_CURVE ( 'NONE', #233, #256, #297, .T. ) ;
#262 = CYLINDRICAL_SURFACE ( 'NONE', #115, 0.9499999999999959588 ) ;
#263 = EDGE_LOOP ( 'NONE', ( #149, #197 ) ) ;
#264 = VECTOR ( 'NONE', #206, 1000.000000000000000 ) ;
#265 = LOCAL_TIME ( 9, 48, 54.00000000000000000, #1 ) ;
#266 = ORIENTED_EDGE ( 'NONE', *, *, #162, .T. ) ;
#267 = EDGE_CURVE ( 'NONE', #228, #334, #169, .T. ) ;
#268 = CARTESIAN_POINT ( 'NONE',  ( 1.326762908760390423E-13, -4.653657836759941941E-15, 38.00000000000000000 ) ) ;
#269 = DIRECTION ( 'NONE',  ( 0.0000000000000000000, 1.000000000000000000, 0.0000000000000000000 ) ) ;
#270 = DIRECTION ( 'NONE',  ( -3.491481338843133355E-15, 1.224646799147353207E-16, -1.000000000000000000 ) ) ;
#271 = CARTESIAN_POINT ( 'NONE',  ( 1.992998956651449572E-15, -6.990499321345132502E-17, 0.5708175880761857668 ) ) ;
#272 = DIRECTION ( 'NONE',  ( 0.0000000000000000000, 1.000000000000000000, 0.0000000000000000000 ) ) ;
#273 = CARTESIAN_POINT ( 'NONE',  ( 1.326762908760390423E-13, -4.653657836759941941E-15, 38.00000000000000000 ) ) ;
#274 = ORIENTED_EDGE ( 'NONE', *, *, #156, .F. ) ;
#275 = ORIENTED_EDGE ( 'NONE', *, *, #289, .F. ) ;
#276 = PERSON_AND_ORGANIZATION_ROLE ( 'design_owner' ) ;
#277 = CC_DESIGN_PERSON_AND_ORGANIZATION_ASSIGNMENT ( #249, #276, ( #46 ) ) ;
#278 = CC_DESIGN_APPROVAL ( #167, ( #108 ) ) ;
#279 = CALENDAR_DATE ( 2021, 3, 9 ) ;
#280 = ORIENTED_EDGE ( 'NONE', *, *, #134, .T. ) ;
#281 = UNCERTAINTY_MEASURE_WITH_UNIT (LENGTH_MEASURE( 1.000000000000000082E-05 ), #148, 'distance_accuracy_value', 'NONE');
#282 = ORIENTED_EDGE ( 'NONE', *, *, #332, .T. ) ;
#283 = VERTEX_POINT ( 'NONE', #85 ) ;
#284 = AXIS2_PLACEMENT_3D ( 'NONE', #246, #270, #294 ) ;
#285 = AXIS2_PLACEMENT_3D ( 'NONE', #221, #325, #323 ) ;
#286 = CARTESIAN_POINT ( 'NONE',  ( 3.142333204958820020E-14, 0.9499999999999952927, 9.000000000000000000 ) ) ;
#287 = ORIENTED_EDGE ( 'NONE', *, *, #156, .T. ) ;
#288 = DIRECTION ( 'NONE',  ( 0.0000000000000000000, 1.000000000000000000, 0.0000000000000000000 ) ) ;
#289 = EDGE_CURVE ( 'NONE', #334, #228, #87, .T. ) ;
#290 = AXIS2_PLACEMENT_3D ( 'NONE', #268, #37, #269 ) ;
#291 = LOCAL_TIME ( 9, 48, 54.00000000000000000, #227 ) ;
#292 = CARTESIAN_POINT ( 'NONE',  ( 1.682450694903881310E-14, -0.9499999999999975131, 9.000000000000000000 ) ) ;
#293 = APPLICATION_CONTEXT ( 'configuration controlled 3d designs of mechanical parts and assemblies' ) ;
#294 = DIRECTION ( 'NONE',  ( 4.275831445896958607E-31, 1.000000000000000000, 1.224646799147353207E-16 ) ) ;
#295 = LINE ( 'NONE', #59, #93 ) ;
#296 = EDGE_CURVE ( 'NONE', #80, #334, #295, .T. ) ;
#297 = CIRCLE ( 'NONE', #285, 0.9499999999999999556 ) ;
#298 = DIRECTION ( 'NONE',  ( 4.054589356604726834E-31, 1.000000000000000000, 1.141265444721589181E-16 ) ) ;
#299 = DIRECTION ( 'NONE',  ( 0.0000000000000000000, 1.000000000000000000, 0.0000000000000000000 ) ) ;
#300 = FACE_OUTER_BOUND ( 'NONE', #153, .T. ) ;
#301 = EDGE_CURVE ( 'NONE', #256, #106, #14, .T. ) ;
#302 = DIRECTION ( 'NONE',  ( 0.0000000000000000000, 0.0000000000000000000, 1.000000000000000000 ) ) ;
#303 = ORIENTED_EDGE ( 'NONE', *, *, #150, .T. ) ;
#304 = DIRECTION ( 'NONE',  ( -3.491481338843133355E-15, 1.224646799147353207E-16, -1.000000000000000000 ) ) ;
#305 = DIRECTION ( 'NONE',  ( 0.0000000000000000000, 1.000000000000000000, 0.0000000000000000000 ) ) ;
#306 = EDGE_CURVE ( 'NONE', #106, #283, #116, .T. ) ;
#307 = PERSON_AND_ORGANIZATION_ROLE ( 'creator' ) ;
#308 = AXIS2_PLACEMENT_3D ( 'NONE', #112, #194, #241 ) ;
#309 = EDGE_LOOP ( 'NONE', ( #155, #282 ) ) ;
#310 = CC_DESIGN_APPROVAL ( #326, ( #132 ) ) ;
#311 = FACE_OUTER_BOUND ( 'NONE', #31, .T. ) ;
#312 = ADVANCED_FACE ( 'NONE', ( #141 ), #16, .F. ) ;
#313 = CARTESIAN_POINT ( 'NONE',  ( 1.326762908760390423E-13, -4.653657836759941941E-15, 38.00000000000000000 ) ) ;
#314 = CARTESIAN_POINT ( 'NONE',  ( 1.163414459189979273E-16, -0.9499999999999981792, -1.163414459189987162E-16 ) ) ;
#315 = EDGE_CURVE ( 'NONE', #159, #187, #122, .T. ) ;
#316 = DIRECTION ( 'NONE',  ( -3.491481338843133355E-15, 1.224646799147353207E-16, -1.000000000000000000 ) ) ;
#317 = CARTESIAN_POINT ( 'NONE',  ( 1.327681393859751126E-13, -0.7500000000000046629, 38.00000000000000000 ) ) ;
#318 = VECTOR ( 'NONE', #110, 1000.000000000000114 ) ;
#319 = CIRCLE ( 'NONE', #21, 0.9499999999999964029 ) ;
#320 = CYLINDRICAL_SURFACE ( 'NONE', #189, 0.9499999999999959588 ) ;
#321 = CARTESIAN_POINT ( 'NONE',  ( 0.0000000000000000000, 0.0000000000000000000, 0.0000000000000000000 ) ) ;
#322 = EDGE_CURVE ( 'NONE', #187, #159, #252, .T. ) ;
#323 = DIRECTION ( 'NONE',  ( 0.0000000000000000000, 1.000000000000000000, 0.0000000000000000000 ) ) ;
#324 = CC_DESIGN_SECURITY_CLASSIFICATION ( #132, ( #174 ) ) ;
#325 = DIRECTION ( 'NONE',  ( -3.491481338843133355E-15, 1.224646799147353207E-16, -1.000000000000000000 ) ) ;
#326 = APPROVAL ( #130, 'UNSPECIFIED' ) ;
#327 = CARTESIAN_POINT ( 'NONE',  ( 2.109340402570447647E-15, 0.9499999999999952927, 0.5708175880761858778 ) ) ;
#328 = APPLICATION_CONTEXT ( 'configuration controlled 3d designs of mechanical parts and assemblies' ) ;
#329 = AXIS2_PLACEMENT_3D ( 'NONE', #271, #90, #40 ) ;
#330 = ORIENTED_EDGE ( 'NONE', *, *, #289, .T. ) ;
#331 = DATE_AND_TIME ( #279, #142 ) ;
#332 = EDGE_CURVE ( 'NONE', #283, #106, #319, .T. ) ;
#333 = APPROVAL_ROLE ( '' ) ;
#334 = VERTEX_POINT ( 'NONE', #248 ) ;
#335 = DIRECTION ( 'NONE',  ( -3.491481338843133355E-15, 1.224646799147353207E-16, -1.000000000000000000 ) ) ;
#336 = CLOSED_SHELL ( 'NONE', ( #203, #103, #312, #211, #33, #226 ) ) ;
#337 = ORIENTED_EDGE ( 'NONE', *, *, #27, .F. ) ;
ENDSEC;
END-ISO-10303-21;
