ISO-10303-21;
HEADER;
FILE_DESCRIPTION (( 'STEP AP203' ),
    '1' );
FILE_NAME ('54508.step',
    '2021-09-03T07:48:53',
    ( '' ),
    ( '' ),
    'SwSTEP 2.0',
    'SolidWorks 2019',
    '' );
FILE_SCHEMA (( 'CONFIG_CONTROL_DESIGN' ));
ENDSEC;

DATA;
#1 = ORIENTED_EDGE ( 'NONE', *, *, #264, .T. ) ;
#2 = CIRCLE ( 'NONE', #24, 0.9749999999999964251 ) ;
#3 = EDGE_CURVE ( 'NONE', #120, #242, #60, .T. ) ;
#4 = ORGANIZATION ( 'UNSPECIFIED', 'UNSPECIFIED', '' ) ;
#5 = DATE_TIME_ROLE ( 'classification_date' ) ;
#6 = COORDINATED_UNIVERSAL_TIME_OFFSET ( 1, 0, .AHEAD. ) ;
#7 = ORIENTED_EDGE ( 'NONE', *, *, #269, .T. ) ;
#8 = PRODUCT_DEFINITION_FORMATION_WITH_SPECIFIED_SOURCE ( 'ANY', '', #146, .NOT_KNOWN. ) ;
#9 = ORIENTED_EDGE ( 'NONE', *, *, #331, .F. ) ;
#10 = ORIENTED_EDGE ( 'NONE', *, *, #42, .T. ) ;
#11 = VERTEX_POINT ( 'NONE', #52 ) ;
#12 = DIRECTION ( 'NONE',  ( 0.0000000000000000000, 1.000000000000000000, 0.0000000000000000000 ) ) ;
#13 = EDGE_CURVE ( 'NONE', #120, #326, #273, .T. ) ;
#14 = CLOSED_SHELL ( 'NONE', ( #101, #176, #161, #240, #124 ) ) ;
#15 = CARTESIAN_POINT ( 'NONE',  ( 1.326762908760390423E-13, -4.653657836759941941E-15, 38.00000000000000000 ) ) ;
#16 = VERTEX_POINT ( 'NONE', #35 ) ;
#17 = DIRECTION ( 'NONE',  ( -3.491481338843133355E-15, 1.224646799147353207E-16, -1.000000000000000000 ) ) ;
#18 = CARTESIAN_POINT ( 'NONE',  ( 1.324342993370801253E-13, -0.7750000000000046851, 38.00000000000000000 ) ) ;
#19 = ADVANCED_FACE ( 'NONE', ( #297 ), #294, .F. ) ;
#20 = DIRECTION ( 'NONE',  ( 4.275831445896958607E-31, 1.000000000000000000, 1.224646799147353207E-16 ) ) ;
#21 = DIRECTION ( 'NONE',  ( -3.491481338843133355E-15, 1.224646799147353207E-16, -1.000000000000000000 ) ) ;
#22 = DIRECTION ( 'NONE',  ( -3.491481338843133355E-15, 1.224646799147353207E-16, -1.000000000000000000 ) ) ;
#23 = EDGE_CURVE ( 'NONE', #168, #127, #232, .T. ) ;
#24 = AXIS2_PLACEMENT_3D ( 'NONE', #41, #202, #175 ) ;
#25 = ORIENTED_EDGE ( 'NONE', *, *, #318, .F. ) ;
#26 = CARTESIAN_POINT ( 'NONE',  ( 1.194030629168660200E-16, -0.9749999999999958700, -1.194030629168668335E-16 ) ) ;
#27 = CC_DESIGN_PERSON_AND_ORGANIZATION_ASSIGNMENT ( #217, #81, ( #8 ) ) ;
#28 = AXIS2_PLACEMENT_3D ( 'NONE', #310, #164, #156 ) ;
#29 = CC_DESIGN_APPROVAL ( #166, ( #324 ) ) ;
#30 = PERSON_AND_ORGANIZATION ( #135, #4 ) ;
#31 = CARTESIAN_POINT ( 'NONE',  ( 1.319779946082704535E-13, -4.629164900776995227E-15, 37.79999999999999716 ) ) ;
#32 = VERTEX_POINT ( 'NONE', #209 ) ;
#33 = AXIS2_PLACEMENT_3D ( 'NONE', #306, #90, #65 ) ;
#34 = ORIENTED_EDGE ( 'NONE', *, *, #23, .F. ) ;
#35 = CARTESIAN_POINT ( 'NONE',  ( 3.142333204958820020E-14, 0.9749999999999953149, 9.000000000000000000 ) ) ;
#36 = FACE_OUTER_BOUND ( 'NONE', #321, .T. ) ;
#37 = EDGE_CURVE ( 'NONE', #11, #136, #133, .T. ) ;
#38 = DIRECTION ( 'NONE',  ( 3.950625526948194478E-31, 1.000000000000000000, 1.112002228190266129E-16 ) ) ;
#39 = AXIS2_PLACEMENT_3D ( 'NONE', #31, #234, #56 ) ;
#40 = DIRECTION ( 'NONE',  ( -3.491481338843133355E-15, 1.224646799147353207E-16, -1.000000000000000000 ) ) ;
#41 = CARTESIAN_POINT ( 'NONE',  ( 3.142333204958820020E-14, -1.102182119232617714E-15, 9.000000000000000000 ) ) ;
#42 = EDGE_CURVE ( 'NONE', #32, #127, #308, .T. ) ;
#43 = PLANE ( 'NONE',  #278 ) ;
#44 = EDGE_LOOP ( 'NONE', ( #261, #49, #201, #107 ) ) ;
#45 = CONICAL_SURFACE ( 'NONE', #237, 0.7750000000000000222, 0.7853981633974512766 ) ;
#46 = MECHANICAL_CONTEXT ( 'NONE', #67, 'mechanical' ) ;
#47 = ADVANCED_FACE ( 'NONE', ( #112 ), #231, .T. ) ;
#48 = CYLINDRICAL_SURFACE ( 'NONE', #84, 0.9749999999999982014 ) ;
#49 = ORIENTED_EDGE ( 'NONE', *, *, #331, .T. ) ;
#50 = DIRECTION ( 'NONE',  ( -3.491481338843133355E-15, 1.224646799147353207E-16, -1.000000000000000000 ) ) ;
#51 = CIRCLE ( 'NONE', #249, 0.9749999999999999778 ) ;
#52 = CARTESIAN_POINT ( 'NONE',  ( 0.0000000000000000000, 0.0000000000000000000, 0.0000000000000000000 ) ) ;
#53 = DIRECTION ( 'NONE',  ( 0.0000000000000000000, 1.000000000000000000, 0.0000000000000000000 ) ) ;
#54 = EDGE_CURVE ( 'NONE', #127, #32, #51, .T. ) ;
#55 = APPROVAL_STATUS ( 'not_yet_approved' ) ;
#56 = DIRECTION ( 'NONE',  ( 0.0000000000000000000, 1.000000000000000000, 0.0000000000000000000 ) ) ;
#57 = CALENDAR_DATE ( 2021, 3, 9 ) ;
#58 = ORIENTED_EDGE ( 'NONE', *, *, #114, .F. ) ;
#59 = DIRECTION ( 'NONE',  ( 3.491481338843133355E-15, -1.224646799147353207E-16, 1.000000000000000000 ) ) ;
#60 = CIRCLE ( 'NONE', #28, 0.9749999999999964251 ) ;
#61 = DIRECTION ( 'NONE',  ( -4.275831445896958607E-31, -1.000000000000000000, -1.224646799147353207E-16 ) ) ;
#62 = EDGE_CURVE ( 'NONE', #127, #16, #170, .T. ) ;
#63 = DIRECTION ( 'NONE',  ( 0.0000000000000000000, 1.000000000000000000, 0.0000000000000000000 ) ) ;
#64 = CARTESIAN_POINT ( 'NONE',  ( 1.326762908760390423E-13, 0.7749999999999953593, 38.00000000000000000 ) ) ;
#65 = DIRECTION ( 'NONE',  ( -3.950625526948194478E-31, -1.000000000000000000, -1.112002228190266129E-16 ) ) ;
#66 = AXIS2_PLACEMENT_3D ( 'NONE', #307, #50, #20 ) ;
#67 = APPLICATION_CONTEXT ( 'configuration controlled 3d designs of mechanical parts and assemblies' ) ;
#68 = CARTESIAN_POINT ( 'NONE',  ( 0.0000000000000000000, 0.0000000000000000000, 0.0000000000000000000 ) ) ;
#69 = LOCAL_TIME ( 9, 48, 52.00000000000000000, #191 ) ;
#70 = LOCAL_TIME ( 9, 48, 52.00000000000000000, #6 ) ;
#71 = CALENDAR_DATE ( 2021, 3, 9 ) ;
#72 = ORIENTED_EDGE ( 'NONE', *, *, #212, .F. ) ;
#73 = VERTEX_POINT ( 'NONE', #18 ) ;
#74 = DIRECTION ( 'NONE',  ( -3.491481338843133355E-15, 1.224646799147353207E-16, -1.000000000000000000 ) ) ;
#75 = AXIS2_PLACEMENT_3D ( 'NONE', #92, #275, #63 ) ;
#76 = ORIENTED_EDGE ( 'NONE', *, *, #147, .F. ) ;
#77 = CIRCLE ( 'NONE', #213, 0.7750000000000000222 ) ;
#78 = COORDINATED_UNIVERSAL_TIME_OFFSET ( 1, 0, .AHEAD. ) ;
#79 = APPROVAL_STATUS ( 'not_yet_approved' ) ;
#80 = MANIFOLD_SOLID_BREP ( 'Corps-Déplacer/Copier1[2]', #14 ) ;
#81 = PERSON_AND_ORGANIZATION_ROLE ( 'design_supplier' ) ;
#82 = MANIFOLD_SOLID_BREP ( 'Corps-Déplacer/Copier1[1]', #299 ) ;
#83 = PRODUCT_DEFINITION ( 'UNKNOWN', '', #8, #159 ) ;
#84 = AXIS2_PLACEMENT_3D ( 'NONE', #180, #22, #154 ) ;
#85 = ORIENTED_EDGE ( 'NONE', *, *, #3, .T. ) ;
#86 = APPLICATION_CONTEXT ( 'configuration controlled 3d designs of mechanical parts and assemblies' ) ;
#87 = CALENDAR_DATE ( 2021, 3, 9 ) ;
#88 = EDGE_LOOP ( 'NONE', ( #194, #25 ) ) ;
#89 = APPROVAL ( #233, 'UNSPECIFIED' ) ;
#90 = DIRECTION ( 'NONE',  ( 3.491481338843133355E-15, -1.224646799147353207E-16, 1.000000000000000000 ) ) ;
#91 = CIRCLE ( 'NONE', #330, 0.9749999999999954259 ) ;
#92 = CARTESIAN_POINT ( 'NONE',  ( 3.142333204958820020E-14, -1.102182119232617714E-15, 9.000000000000000000 ) ) ;
#93 = FACE_OUTER_BOUND ( 'NONE', #211, .T. ) ;
#94 = CARTESIAN_POINT ( 'NONE',  ( 2.164849360532827205E-15, 0.9749999999999953149, 0.5858391035518748513 ) ) ;
#95 = ORIENTED_EDGE ( 'NONE', *, *, #318, .T. ) ;
#96 = VECTOR ( 'NONE', #336, 1000.000000000000114 ) ;
#97 = CYLINDRICAL_SURFACE ( 'NONE', #145, 0.9749999999999958700 ) ;
#98 = APPROVAL_PERSON_ORGANIZATION ( #214, #166, #315 ) ;
#99 =( LENGTH_UNIT ( ) NAMED_UNIT ( * ) SI_UNIT ( .MILLI., .METRE. ) );
#100 = FACE_OUTER_BOUND ( 'NONE', #88, .T. ) ;
#101 = ADVANCED_FACE ( 'NONE', ( #121 ), #97, .T. ) ;
#102 = ORIENTED_EDGE ( 'NONE', *, *, #182, .T. ) ;
#103 = PERSON_AND_ORGANIZATION ( #135, #4 ) ;
#104 = PERSON_AND_ORGANIZATION_ROLE ( 'design_owner' ) ;
#105 = ORIENTED_EDGE ( 'NONE', *, *, #37, .F. ) ;
#106 = DIRECTION ( 'NONE',  ( 3.950625526948194478E-31, 1.000000000000000000, 1.112002228190266129E-16 ) ) ;
#107 = ORIENTED_EDGE ( 'NONE', *, *, #62, .F. ) ;
#108 = PERSON_AND_ORGANIZATION_ROLE ( 'classification_officer' ) ;
#109 = CONICAL_SURFACE ( 'NONE', #329, 0.9749999999999954259, 1.029744258676649871 ) ;
#110 = LOCAL_TIME ( 9, 48, 52.00000000000000000, #78 ) ;
#111 = COORDINATED_UNIVERSAL_TIME_OFFSET ( 1, 0, .AHEAD. ) ;
#112 = FACE_OUTER_BOUND ( 'NONE', #272, .T. ) ;
#113 = VERTEX_POINT ( 'NONE', #169 ) ;
#114 = EDGE_CURVE ( 'NONE', #326, #136, #289, .T. ) ;
#115 = LINE ( 'NONE', #148, #138 ) ;
#116 = CARTESIAN_POINT ( 'NONE',  ( 1.685379223651892807E-14, -0.9749999999999975353, 9.000000000000000000 ) ) ;
#117 = CC_DESIGN_APPROVAL ( #89, ( #83 ) ) ;
#118 = LINE ( 'NONE', #200, #122 ) ;
#119 = CARTESIAN_POINT ( 'NONE',  ( 2.045446297615960593E-15, -7.174459829801581476E-17, 0.5858391035518747403 ) ) ;
#120 = VERTEX_POINT ( 'NONE', #116 ) ;
#121 = FACE_OUTER_BOUND ( 'NONE', #244, .T. ) ;
#122 = VECTOR ( 'NONE', #301, 1000.000000000000000 ) ;
#123 =( NAMED_UNIT ( * ) SI_UNIT ( $, .STERADIAN. ) SOLID_ANGLE_UNIT ( ) );
#124 = ADVANCED_FACE ( 'NONE', ( #277 ), #43, .T. ) ;
#125 = DIRECTION ( 'NONE',  ( -3.491481338843133355E-15, 1.224646799147353207E-16, -1.000000000000000000 ) ) ;
#126 = PERSON_AND_ORGANIZATION ( #135, #4 ) ;
#127 = VERTEX_POINT ( 'NONE', #151 ) ;
#128 = DIRECTION ( 'NONE',  ( 1.903218546456021928E-15, 0.8571673007021098911, 0.5150380749100583744 ) ) ;
#129 = PERSON_AND_ORGANIZATION ( #135, #4 ) ;
#130 = SECURITY_CLASSIFICATION_LEVEL ( 'unclassified' ) ;
#131 = AXIS2_PLACEMENT_3D ( 'NONE', #285, #125, #53 ) ;
#132 = PRODUCT_RELATED_PRODUCT_CATEGORY ( 'detail', '', ( #146 ) ) ;
#133 = LINE ( 'NONE', #184, #335 ) ;
#134 = CALENDAR_DATE ( 2021, 3, 9 ) ;
#135 = PERSON ( 'UNSPECIFIED', 'UNSPECIFIED', 'UNSPECIFIED', ('UNSPECIFIED'), ('UNSPECIFIED'), ('UNSPECIFIED') ) ;
#136 = VERTEX_POINT ( 'NONE', #94 ) ;
#137 = ADVANCED_FACE ( 'NONE', ( #300 ), #227, .T. ) ;
#138 = VECTOR ( 'NONE', #174, 1000.000000000000114 ) ;
#139 = LOCAL_TIME ( 9, 48, 52.00000000000000000, #111 ) ;
#140 = EDGE_LOOP ( 'NONE', ( #192, #85, #332, #58 ) ) ;
#141 = ORIENTED_EDGE ( 'NONE', *, *, #152, .F. ) ;
#142 = DIRECTION ( 'NONE',  ( -3.491481338843133355E-15, 1.224646799147353207E-16, -1.000000000000000000 ) ) ;
#143 = ORIENTED_EDGE ( 'NONE', *, *, #23, .T. ) ;
#144 = DIRECTION ( 'NONE',  ( 4.275831445896957731E-31, 1.000000000000000000, 1.224646799147353454E-16 ) ) ;
#145 = AXIS2_PLACEMENT_3D ( 'NONE', #68, #303, #325 ) ;
#146 = PRODUCT ( '54508', '54508', '', ( #46 ) ) ;
#147 = EDGE_CURVE ( 'NONE', #242, #136, #198, .T. ) ;
#148 = CARTESIAN_POINT ( 'NONE',  ( 1.327712010029729866E-13, -0.7750000000000046851, 38.00000000000000000 ) ) ;
#149 = FACE_OUTER_BOUND ( 'NONE', #140, .T. ) ;
#150 = ADVANCED_BREP_SHAPE_REPRESENTATION ( '54508', ( #82, #80, #187 ), #243 ) ;
#151 = CARTESIAN_POINT ( 'NONE',  ( 1.319779946082704535E-13, 0.9749999999999953149, 37.79999999999999716 ) ) ;
#152 = EDGE_CURVE ( 'NONE', #73, #32, #115, .T. ) ;
#153 = ORIENTED_EDGE ( 'NONE', *, *, #212, .T. ) ;
#154 = DIRECTION ( 'NONE',  ( 4.275831445896957731E-31, 1.000000000000000000, 1.224646799147353454E-16 ) ) ;
#155 = CARTESIAN_POINT ( 'NONE',  ( 3.142333204958820020E-14, -1.102182119232617714E-15, 9.000000000000000000 ) ) ;
#156 = DIRECTION ( 'NONE',  ( 0.0000000000000000000, 1.000000000000000000, 0.0000000000000000000 ) ) ;
#157 = DATE_AND_TIME ( #71, #256 ) ;
#158 = AXIS2_PLACEMENT_3D ( 'NONE', #218, #226, #280 ) ;
#159 = DESIGN_CONTEXT ( 'detailed design', #86, 'design' ) ;
#160 = PERSON_AND_ORGANIZATION_ROLE ( 'creator' ) ;
#161 = ADVANCED_FACE ( 'NONE', ( #93 ), #109, .T. ) ;
#162 = CC_DESIGN_SECURITY_CLASSIFICATION ( #324, ( #8 ) ) ;
#163 = DATE_AND_TIME ( #236, #69 ) ;
#164 = DIRECTION ( 'NONE',  ( -3.491481338843133355E-15, 1.224646799147353207E-16, -1.000000000000000000 ) ) ;
#165 = SHAPE_DEFINITION_REPRESENTATION ( #298, #150 ) ;
#166 = APPROVAL ( #55, 'UNSPECIFIED' ) ;
#167 = ORIENTED_EDGE ( 'NONE', *, *, #3, .F. ) ;
#168 = VERTEX_POINT ( 'NONE', #64 ) ;
#169 = CARTESIAN_POINT ( 'NONE',  ( 8.182006639184614374E-14, -0.9749999999999974243, 9.000000000000000000 ) ) ;
#170 = LINE ( 'NONE', #203, #292 ) ;
#171 = EDGE_CURVE ( 'NONE', #16, #113, #2, .T. ) ;
#172 = CARTESIAN_POINT ( 'NONE',  ( 0.0000000000000000000, 0.0000000000000000000, 0.0000000000000000000 ) ) ;
#173 = VECTOR ( 'NONE', #193, 1000.000000000000000 ) ;
#174 = DIRECTION ( 'NONE',  ( -2.382254525458708792E-15, -0.7071067811865495711, -0.7071067811865455743 ) ) ;
#175 = DIRECTION ( 'NONE',  ( 0.0000000000000000000, 1.000000000000000000, 0.0000000000000000000 ) ) ;
#176 = ADVANCED_FACE ( 'NONE', ( #220 ), #186, .T. ) ;
#177 = DIRECTION ( 'NONE',  ( 4.275831445896958607E-31, 1.000000000000000000, 1.224646799147352961E-16 ) ) ;
#178 = CARTESIAN_POINT ( 'NONE',  ( 0.0000000000000000000, 0.0000000000000000000, 0.0000000000000000000 ) ) ;
#179 = APPROVAL_PERSON_ORGANIZATION ( #208, #89, #230 ) ;
#180 = CARTESIAN_POINT ( 'NONE',  ( 0.0000000000000000000, 0.0000000000000000000, 0.0000000000000000000 ) ) ;
#181 = ORIENTED_EDGE ( 'NONE', *, *, #37, .T. ) ;
#182 = EDGE_CURVE ( 'NONE', #242, #120, #196, .T. ) ;
#183 = APPLICATION_PROTOCOL_DEFINITION ( 'international standard', 'config_control_design', 1994, #67 ) ;
#184 = CARTESIAN_POINT ( 'NONE',  ( 2.164849360532827205E-15, 0.9749999999999953149, 0.5858391035518748513 ) ) ;
#185 = CARTESIAN_POINT ( 'NONE',  ( 1.326762908760390423E-13, -4.653657836759941941E-15, 38.00000000000000000 ) ) ;
#186 = CONICAL_SURFACE ( 'NONE', #33, 0.9749999999999954259, 1.029744258676649871 ) ;
#187 = AXIS2_PLACEMENT_3D ( 'NONE', #178, #313, #281 ) ;
#188 = ORIENTED_EDGE ( 'NONE', *, *, #114, .T. ) ;
#189 = CC_DESIGN_PERSON_AND_ORGANIZATION_ASSIGNMENT ( #266, #160, ( #8 ) ) ;
#190 = DATE_AND_TIME ( #57, #110 ) ;
#191 = COORDINATED_UNIVERSAL_TIME_OFFSET ( 1, 0, .AHEAD. ) ;
#192 = ORIENTED_EDGE ( 'NONE', *, *, #13, .F. ) ;
#193 = DIRECTION ( 'NONE',  ( -3.491481338843133355E-15, 1.224646799147353207E-16, -1.000000000000000000 ) ) ;
#194 = ORIENTED_EDGE ( 'NONE', *, *, #269, .F. ) ;
#195 = DIRECTION ( 'NONE',  ( -3.491481338843133355E-15, 1.224646799147353207E-16, -1.000000000000000000 ) ) ;
#196 = CIRCLE ( 'NONE', #75, 0.9749999999999964251 ) ;
#197 = EDGE_LOOP ( 'NONE', ( #207, #167 ) ) ;
#198 = LINE ( 'NONE', #328, #255 ) ;
#199 = ADVANCED_FACE ( 'NONE', ( #36 ), #45, .T. ) ;
#200 = CARTESIAN_POINT ( 'NONE',  ( 2.045446297615960199E-15, -0.9749999999999955369, 0.5858391035518746293 ) ) ;
#201 = ORIENTED_EDGE ( 'NONE', *, *, #171, .F. ) ;
#202 = DIRECTION ( 'NONE',  ( -3.491481338843133355E-15, 1.224646799147353207E-16, -1.000000000000000000 ) ) ;
#203 = CARTESIAN_POINT ( 'NONE',  ( 4.168935659749526277E-31, 0.9749999999999982014, 1.194030629168667349E-16 ) ) ;
#204 = CARTESIAN_POINT ( 'NONE',  ( 1.194030629168663159E-16, -0.9749999999999982014, -1.194030629168671294E-16 ) ) ;
#205 = PERSON_AND_ORGANIZATION_ROLE ( 'creator' ) ;
#206 = CC_DESIGN_DATE_AND_TIME_ASSIGNMENT ( #190, #267, ( #83 ) ) ;
#207 = ORIENTED_EDGE ( 'NONE', *, *, #182, .F. ) ;
#208 = PERSON_AND_ORGANIZATION ( #135, #4 ) ;
#209 = CARTESIAN_POINT ( 'NONE',  ( 8.182006639184599228E-14, -0.9750000000000047518, 37.79999999999999716 ) ) ;
#210 = APPROVAL_DATE_TIME ( #157, #89 ) ;
#211 = EDGE_LOOP ( 'NONE', ( #105, #153, #188 ) ) ;
#212 = EDGE_CURVE ( 'NONE', #11, #326, #118, .T. ) ;
#213 = AXIS2_PLACEMENT_3D ( 'NONE', #185, #334, #333 ) ;
#214 = PERSON_AND_ORGANIZATION ( #135, #4 ) ;
#215 = APPROVAL_DATE_TIME ( #295, #282 ) ;
#216 = UNCERTAINTY_MEASURE_WITH_UNIT (LENGTH_MEASURE( 1.000000000000000082E-05 ), #99, 'distance_accuracy_value', 'NONE');
#217 = PERSON_AND_ORGANIZATION ( #135, #4 ) ;
#218 = CARTESIAN_POINT ( 'NONE',  ( 1.326762908760390423E-13, -4.653657836759941941E-15, 38.00000000000000000 ) ) ;
#219 = ORIENTED_EDGE ( 'NONE', *, *, #152, .T. ) ;
#220 = FACE_OUTER_BOUND ( 'NONE', #314, .T. ) ;
#221 = CC_DESIGN_DATE_AND_TIME_ASSIGNMENT ( #270, #5, ( #324 ) ) ;
#222 = DIRECTION ( 'NONE',  ( -3.950625526948194478E-31, -1.000000000000000000, -1.112002228190266129E-16 ) ) ;
#223 = CIRCLE ( 'NONE', #268, 0.9749999999999964251 ) ;
#224 = AXIS2_PLACEMENT_3D ( 'NONE', #172, #17, #177 ) ;
#225 = DIRECTION ( 'NONE',  ( -3.491481338843133355E-15, 1.224646799147353207E-16, -1.000000000000000000 ) ) ;
#226 = DIRECTION ( 'NONE',  ( -3.491481338843133355E-15, 1.224646799147353207E-16, -1.000000000000000000 ) ) ;
#227 = CYLINDRICAL_SURFACE ( 'NONE', #228, 0.9749999999999982014 ) ;
#228 = AXIS2_PLACEMENT_3D ( 'NONE', #279, #254, #144 ) ;
#229 = DIRECTION ( 'NONE',  ( -3.491481338843133355E-15, 1.224646799147353207E-16, -1.000000000000000000 ) ) ;
#230 = APPROVAL_ROLE ( '' ) ;
#231 = CONICAL_SURFACE ( 'NONE', #158, 0.7750000000000000222, 0.7853981633974512766 ) ;
#232 = LINE ( 'NONE', #241, #96 ) ;
#233 = APPROVAL_STATUS ( 'not_yet_approved' ) ;
#234 = DIRECTION ( 'NONE',  ( -3.491481338843133355E-15, 1.224646799147353207E-16, -1.000000000000000000 ) ) ;
#235 = CC_DESIGN_PERSON_AND_ORGANIZATION_ASSIGNMENT ( #129, #108, ( #324 ) ) ;
#236 = CALENDAR_DATE ( 2021, 3, 9 ) ;
#237 = AXIS2_PLACEMENT_3D ( 'NONE', #15, #142, #247 ) ;
#238 = APPROVAL_ROLE ( '' ) ;
#239 = EDGE_LOOP ( 'NONE', ( #288, #1 ) ) ;
#240 = ADVANCED_FACE ( 'NONE', ( #149 ), #253, .T. ) ;
#241 = CARTESIAN_POINT ( 'NONE',  ( 1.326762908760390423E-13, 0.7749999999999953593, 38.00000000000000000 ) ) ;
#242 = VERTEX_POINT ( 'NONE', #337 ) ;
#243 =( GEOMETRIC_REPRESENTATION_CONTEXT ( 3 ) GLOBAL_UNCERTAINTY_ASSIGNED_CONTEXT ( ( #216 ) ) GLOBAL_UNIT_ASSIGNED_CONTEXT ( ( #99, #309, #123 ) ) REPRESENTATION_CONTEXT ( 'NONE', 'WORKASPACE' ) );
#244 = EDGE_LOOP ( 'NONE', ( #102, #319, #302, #76 ) ) ;
#245 = ORIENTED_EDGE ( 'NONE', *, *, #264, .F. ) ;
#246 = ADVANCED_FACE ( 'NONE', ( #257 ), #48, .T. ) ;
#247 = DIRECTION ( 'NONE',  ( 0.0000000000000000000, 1.000000000000000000, 0.0000000000000000000 ) ) ;
#248 = CARTESIAN_POINT ( 'NONE',  ( 3.142333204958820020E-14, 7.311328940476512048E-33, 9.000000000000000000 ) ) ;
#249 = AXIS2_PLACEMENT_3D ( 'NONE', #327, #195, #12 ) ;
#250 = CIRCLE ( 'NONE', #131, 0.7750000000000000222 ) ;
#251 = ORIENTED_EDGE ( 'NONE', *, *, #316, .T. ) ;
#252 = DIRECTION ( 'NONE',  ( 3.491481338843133355E-15, -1.224646799147353207E-16, 1.000000000000000000 ) ) ;
#253 = CYLINDRICAL_SURFACE ( 'NONE', #224, 0.9749999999999958700 ) ;
#254 = DIRECTION ( 'NONE',  ( -3.491481338843133355E-15, 1.224646799147353207E-16, -1.000000000000000000 ) ) ;
#255 = VECTOR ( 'NONE', #40, 1000.000000000000000 ) ;
#256 = LOCAL_TIME ( 9, 48, 52.00000000000000000, #311 ) ;
#257 = FACE_OUTER_BOUND ( 'NONE', #286, .T. ) ;
#258 = CC_DESIGN_PERSON_AND_ORGANIZATION_ASSIGNMENT ( #103, #205, ( #83 ) ) ;
#259 = LINE ( 'NONE', #204, #283 ) ;
#260 = CARTESIAN_POINT ( 'NONE',  ( 2.045446297615960593E-15, -7.174459829801581476E-17, 0.5858391035518747403 ) ) ;
#261 = ORIENTED_EDGE ( 'NONE', *, *, #54, .T. ) ;
#262 = CC_DESIGN_APPROVAL ( #282, ( #8 ) ) ;
#263 = APPLICATION_PROTOCOL_DEFINITION ( 'international standard', 'config_control_design', 1994, #86 ) ;
#264 = EDGE_CURVE ( 'NONE', #113, #16, #223, .T. ) ;
#265 = ORIENTED_EDGE ( 'NONE', *, *, #54, .F. ) ;
#266 = PERSON_AND_ORGANIZATION ( #135, #4 ) ;
#267 = DATE_TIME_ROLE ( 'creation_date' ) ;
#268 = AXIS2_PLACEMENT_3D ( 'NONE', #155, #74, #287 ) ;
#269 = EDGE_CURVE ( 'NONE', #168, #73, #77, .T. ) ;
#270 = DATE_AND_TIME ( #87, #139 ) ;
#271 = DIRECTION ( 'NONE',  ( -4.275831445896958607E-31, -1.000000000000000000, -1.224646799147353207E-16 ) ) ;
#272 = EDGE_LOOP ( 'NONE', ( #7, #219, #265, #34 ) ) ;
#273 = LINE ( 'NONE', #26, #173 ) ;
#274 = CC_DESIGN_PERSON_AND_ORGANIZATION_ASSIGNMENT ( #126, #104, ( #146 ) ) ;
#275 = DIRECTION ( 'NONE',  ( -3.491481338843133355E-15, 1.224646799147353207E-16, -1.000000000000000000 ) ) ;
#276 = DIRECTION ( 'NONE',  ( -3.491481338843133355E-15, 1.224646799147353207E-16, -1.000000000000000000 ) ) ;
#277 = FACE_OUTER_BOUND ( 'NONE', #197, .T. ) ;
#278 = AXIS2_PLACEMENT_3D ( 'NONE', #248, #252, #61 ) ;
#279 = CARTESIAN_POINT ( 'NONE',  ( 0.0000000000000000000, 0.0000000000000000000, 0.0000000000000000000 ) ) ;
#280 = DIRECTION ( 'NONE',  ( 0.0000000000000000000, 1.000000000000000000, 0.0000000000000000000 ) ) ;
#281 = DIRECTION ( 'NONE',  ( 1.000000000000000000, 0.0000000000000000000, 0.0000000000000000000 ) ) ;
#282 = APPROVAL ( #79, 'UNSPECIFIED' ) ;
#283 = VECTOR ( 'NONE', #21, 1000.000000000000000 ) ;
#284 = CARTESIAN_POINT ( 'NONE',  ( 2.045446297615960199E-15, -0.9749999999999955369, 0.5858391035518746293 ) ) ;
#285 = CARTESIAN_POINT ( 'NONE',  ( 1.326762908760390423E-13, -4.653657836759941941E-15, 38.00000000000000000 ) ) ;
#286 = EDGE_LOOP ( 'NONE', ( #9, #10, #317, #245 ) ) ;
#287 = DIRECTION ( 'NONE',  ( 0.0000000000000000000, 1.000000000000000000, 0.0000000000000000000 ) ) ;
#288 = ORIENTED_EDGE ( 'NONE', *, *, #171, .T. ) ;
#289 = CIRCLE ( 'NONE', #323, 0.9749999999999954259 ) ;
#290 = PLANE ( 'NONE',  #66 ) ;
#291 = ADVANCED_FACE ( 'NONE', ( #100 ), #290, .F. ) ;
#292 = VECTOR ( 'NONE', #225, 1000.000000000000000 ) ;
#293 = APPROVAL_DATE_TIME ( #163, #166 ) ;
#294 = PLANE ( 'NONE',  #304 ) ;
#295 = DATE_AND_TIME ( #134, #70 ) ;
#296 = CARTESIAN_POINT ( 'NONE',  ( 3.142333204958820020E-14, 7.311328940476512048E-33, 9.000000000000000000 ) ) ;
#297 = FACE_OUTER_BOUND ( 'NONE', #239, .T. ) ;
#298 = PRODUCT_DEFINITION_SHAPE ( 'NONE', 'NONE',  #83 ) ;
#299 = CLOSED_SHELL ( 'NONE', ( #47, #137, #19, #246, #199, #291 ) ) ;
#300 = FACE_OUTER_BOUND ( 'NONE', #44, .T. ) ;
#301 = DIRECTION ( 'NONE',  ( 1.798245827342159528E-15, -0.8571673007021100021, 0.5150380749100580413 ) ) ;
#302 = ORIENTED_EDGE ( 'NONE', *, *, #316, .F. ) ;
#303 = DIRECTION ( 'NONE',  ( -3.491481338843133355E-15, 1.224646799147353207E-16, -1.000000000000000000 ) ) ;
#304 = AXIS2_PLACEMENT_3D ( 'NONE', #296, #59, #271 ) ;
#305 = APPROVAL_PERSON_ORGANIZATION ( #30, #282, #238 ) ;
#306 = CARTESIAN_POINT ( 'NONE',  ( 2.045446297615960593E-15, -7.174459829801581476E-17, 0.5858391035518747403 ) ) ;
#307 = CARTESIAN_POINT ( 'NONE',  ( 1.326762908760390423E-13, 5.811569157814627755E-33, 38.00000000000000000 ) ) ;
#308 = CIRCLE ( 'NONE', #39, 0.9749999999999999778 ) ;
#309 =( NAMED_UNIT ( * ) PLANE_ANGLE_UNIT ( ) SI_UNIT ( $, .RADIAN. ) );
#310 = CARTESIAN_POINT ( 'NONE',  ( 3.142333204958820020E-14, -1.102182119232617714E-15, 9.000000000000000000 ) ) ;
#311 = COORDINATED_UNIVERSAL_TIME_OFFSET ( 1, 0, .AHEAD. ) ;
#312 = ORIENTED_EDGE ( 'NONE', *, *, #42, .F. ) ;
#313 = DIRECTION ( 'NONE',  ( 0.0000000000000000000, 0.0000000000000000000, 1.000000000000000000 ) ) ;
#314 = EDGE_LOOP ( 'NONE', ( #72, #181, #251 ) ) ;
#315 = APPROVAL_ROLE ( '' ) ;
#316 = EDGE_CURVE ( 'NONE', #136, #326, #91, .T. ) ;
#317 = ORIENTED_EDGE ( 'NONE', *, *, #62, .T. ) ;
#318 = EDGE_CURVE ( 'NONE', #73, #168, #250, .T. ) ;
#319 = ORIENTED_EDGE ( 'NONE', *, *, #13, .T. ) ;
#320 = DIRECTION ( 'NONE',  ( 3.491481338843133355E-15, -1.224646799147353207E-16, 1.000000000000000000 ) ) ;
#321 = EDGE_LOOP ( 'NONE', ( #141, #95, #143, #312 ) ) ;
#322 = CARTESIAN_POINT ( 'NONE',  ( 2.045446297615960593E-15, -7.174459829801581476E-17, 0.5858391035518747403 ) ) ;
#323 = AXIS2_PLACEMENT_3D ( 'NONE', #119, #276, #38 ) ;
#324 = SECURITY_CLASSIFICATION ( '', '', #130 ) ;
#325 = DIRECTION ( 'NONE',  ( 4.275831445896958607E-31, 1.000000000000000000, 1.224646799147352961E-16 ) ) ;
#326 = VERTEX_POINT ( 'NONE', #284 ) ;
#327 = CARTESIAN_POINT ( 'NONE',  ( 1.319779946082704535E-13, -4.629164900776995227E-15, 37.79999999999999716 ) ) ;
#328 = CARTESIAN_POINT ( 'NONE',  ( 4.168935659749516643E-31, 0.9749999999999958700, 1.194030629168664145E-16 ) ) ;
#329 = AXIS2_PLACEMENT_3D ( 'NONE', #322, #320, #222 ) ;
#330 = AXIS2_PLACEMENT_3D ( 'NONE', #260, #229, #106 ) ;
#331 = EDGE_CURVE ( 'NONE', #32, #113, #259, .T. ) ;
#332 = ORIENTED_EDGE ( 'NONE', *, *, #147, .T. ) ;
#333 = DIRECTION ( 'NONE',  ( 0.0000000000000000000, 1.000000000000000000, 0.0000000000000000000 ) ) ;
#334 = DIRECTION ( 'NONE',  ( -3.491481338843133355E-15, 1.224646799147353207E-16, -1.000000000000000000 ) ) ;
#335 = VECTOR ( 'NONE', #128, 1000.000000000000114 ) ;
#336 = DIRECTION ( 'NONE',  ( -2.468850131082257455E-15, 0.7071067811865497932, -0.7071067811865453523 ) ) ;
#337 = CARTESIAN_POINT ( 'NONE',  ( 3.142333204958820020E-14, 0.9749999999999953149, 9.000000000000000000 ) ) ;
ENDSEC;
END-ISO-10303-21;
