ISO-10303-21;
HEADER;
FILE_DESCRIPTION (( 'STEP AP203' ),
    '1' );
FILE_NAME ('54507.step',
    '2021-09-03T07:48:51',
    ( '' ),
    ( '' ),
    'SwSTEP 2.0',
    'SolidWorks 2019',
    '' );
FILE_SCHEMA (( 'CONFIG_CONTROL_DESIGN' ));
ENDSEC;

DATA;
#1 = PRODUCT_RELATED_PRODUCT_CATEGORY ( 'detail', '', ( #109 ) ) ;
#2 = ORIENTED_EDGE ( 'NONE', *, *, #145, .T. ) ;
#3 = AXIS2_PLACEMENT_3D ( 'NONE', #282, #150, #258 ) ;
#4 = CARTESIAN_POINT ( 'NONE',  ( 1.319779946082704535E-13, 0.9249999999999953815, 37.79999999999999716 ) ) ;
#5 = DIRECTION ( 'NONE',  ( -3.491481338843133355E-15, 1.224646799147353207E-16, -1.000000000000000000 ) ) ;
#6 = CARTESIAN_POINT ( 'NONE',  ( 1.319779946082704535E-13, -4.629164900776995227E-15, 37.79999999999999716 ) ) ;
#7 = VECTOR ( 'NONE', #69, 1000.000000000000114 ) ;
#8 = DIRECTION ( 'NONE',  ( -3.491481338843133355E-15, 1.224646799147353207E-16, -1.000000000000000000 ) ) ;
#9 = CARTESIAN_POINT ( 'NONE',  ( 1.319779946082704535E-13, -4.629164900776995227E-15, 37.79999999999999716 ) ) ;
#10 = CARTESIAN_POINT ( 'NONE',  ( 1.940551615686937368E-15, -6.806538812888682296E-17, 0.5557960726004966823 ) ) ;
#11 = AXIS2_PLACEMENT_3D ( 'NONE', #6, #218, #296 ) ;
#12 = PERSON ( 'UNSPECIFIED', 'UNSPECIFIED', 'UNSPECIFIED', ('UNSPECIFIED'), ('UNSPECIFIED'), ('UNSPECIFIED') ) ;
#13 = DIRECTION ( 'NONE',  ( 0.0000000000000000000, 1.000000000000000000, 0.0000000000000000000 ) ) ;
#14 = ORIENTED_EDGE ( 'NONE', *, *, #163, .T. ) ;
#15 = DIRECTION ( 'NONE',  ( -3.491481338843133355E-15, 1.224646799147353207E-16, -1.000000000000000000 ) ) ;
#16 = EDGE_LOOP ( 'NONE', ( #81, #206, #304, #75 ) ) ;
#17 = FACE_OUTER_BOUND ( 'NONE', #287, .T. ) ;
#18 = AXIS2_PLACEMENT_3D ( 'NONE', #161, #139, #243 ) ;
#19 = VERTEX_POINT ( 'NONE', #262 ) ;
#20 = COORDINATED_UNIVERSAL_TIME_OFFSET ( 1, 0, .AHEAD. ) ;
#21 = CARTESIAN_POINT ( 'NONE',  ( 3.142333204958820020E-14, 0.9249999999999953815, 9.000000000000000000 ) ) ;
#22 = CALENDAR_DATE ( 2021, 3, 9 ) ;
#23 = AXIS2_PLACEMENT_3D ( 'NONE', #278, #36, #199 ) ;
#24 = CC_DESIGN_SECURITY_CLASSIFICATION ( #89, ( #130 ) ) ;
#25 = ORIENTED_EDGE ( 'NONE', *, *, #169, .T. ) ;
#26 = APPROVAL_DATE_TIME ( #151, #305 ) ;
#27 = EDGE_LOOP ( 'NONE', ( #335, #186 ) ) ;
#28 = ADVANCED_FACE ( 'NONE', ( #108 ), #175, .T. ) ;
#29 = ORIENTED_EDGE ( 'NONE', *, *, #145, .F. ) ;
#30 = CARTESIAN_POINT ( 'NONE',  ( 0.0000000000000000000, 0.0000000000000000000, 0.0000000000000000000 ) ) ;
#31 = LINE ( 'NONE', #317, #123 ) ;
#32 = DIRECTION ( 'NONE',  ( 4.275831445896958607E-31, 1.000000000000000000, 1.224646799147353454E-16 ) ) ;
#33 = DIRECTION ( 'NONE',  ( 4.275831445896958607E-31, 1.000000000000000000, 1.224646799147352961E-16 ) ) ;
#34 = CLOSED_SHELL ( 'NONE', ( #93, #294, #57, #202, #238, #277 ) ) ;
#35 = CARTESIAN_POINT ( 'NONE',  ( 1.940551615686937368E-15, -6.806538812888682296E-17, 0.5557960726004966823 ) ) ;
#36 = DIRECTION ( 'NONE',  ( 0.0000000000000000000, 0.0000000000000000000, 1.000000000000000000 ) ) ;
#37 = DIRECTION ( 'NONE',  ( 3.491481338843133355E-15, -1.224646799147353207E-16, 1.000000000000000000 ) ) ;
#38 = VECTOR ( 'NONE', #203, 1000.000000000000000 ) ;
#39 = FACE_OUTER_BOUND ( 'NONE', #153, .T. ) ;
#40 = DIRECTION ( 'NONE',  ( -3.491481338843133355E-15, 1.224646799147353207E-16, -1.000000000000000000 ) ) ;
#41 = AXIS2_PLACEMENT_3D ( 'NONE', #35, #5, #242 ) ;
#42 = ORIENTED_EDGE ( 'NONE', *, *, #82, .F. ) ;
#43 = EDGE_CURVE ( 'NONE', #46, #200, #269, .T. ) ;
#44 = DATE_AND_TIME ( #22, #204 ) ;
#45 = ORIENTED_EDGE ( 'NONE', *, *, #195, .T. ) ;
#46 = VERTEX_POINT ( 'NONE', #21 ) ;
#47 = ADVANCED_FACE ( 'NONE', ( #128 ), #234, .T. ) ;
#48 = COORDINATED_UNIVERSAL_TIME_OFFSET ( 1, 0, .AHEAD. ) ;
#49 = ADVANCED_FACE ( 'NONE', ( #118 ), #289, .T. ) ;
#50 = LOCAL_TIME ( 9, 48, 51.00000000000000000, #125 ) ;
#51 = EDGE_LOOP ( 'NONE', ( #182, #45, #29, #227 ) ) ;
#52 = PERSON_AND_ORGANIZATION ( #12, #220 ) ;
#53 = EDGE_LOOP ( 'NONE', ( #77, #329 ) ) ;
#54 = DIRECTION ( 'NONE',  ( -3.491481338843133355E-15, 1.224646799147353207E-16, -1.000000000000000000 ) ) ;
#55 = FACE_OUTER_BOUND ( 'NONE', #217, .T. ) ;
#56 = CIRCLE ( 'NONE', #148, 0.9249999999999964917 ) ;
#57 = ADVANCED_FACE ( 'NONE', ( #276 ), #219, .F. ) ;
#58 = DIRECTION ( 'NONE',  ( -4.275831445896958607E-31, -1.000000000000000000, -1.224646799147353207E-16 ) ) ;
#59 = CARTESIAN_POINT ( 'NONE',  ( 1.940551615686936973E-15, -0.9249999999999956035, 0.5557960726004965712 ) ) ;
#60 = CARTESIAN_POINT ( 'NONE',  ( 3.142333204958820020E-14, -1.102182119232617714E-15, 9.000000000000000000 ) ) ;
#61 = EDGE_CURVE ( 'NONE', #211, #158, #281, .T. ) ;
#62 = CIRCLE ( 'NONE', #11, 0.9250000000000000444 ) ;
#63 = DIRECTION ( 'NONE',  ( 3.491481338843133355E-15, -1.224646799147353207E-16, 1.000000000000000000 ) ) ;
#64 = APPLICATION_CONTEXT ( 'configuration controlled 3d designs of mechanical parts and assemblies' ) ;
#65 = MANIFOLD_SOLID_BREP ( 'Corps-Déplacer/Copier1[1]', #34 ) ;
#66 = DIRECTION ( 'NONE',  ( -3.491481338843133355E-15, 1.224646799147353207E-16, -1.000000000000000000 ) ) ;
#67 = EDGE_CURVE ( 'NONE', #156, #19, #224, .T. ) ;
#68 = APPROVAL_PERSON_ORGANIZATION ( #336, #305, #110 ) ;
#69 = DIRECTION ( 'NONE',  ( -2.382254525458708792E-15, -0.7071067811865495711, -0.7071067811865455743 ) ) ;
#70 = LINE ( 'NONE', #171, #38 ) ;
#71 = APPROVAL_DATE_TIME ( #208, #246 ) ;
#72 = ORIENTED_EDGE ( 'NONE', *, *, #226, .T. ) ;
#73 = CONICAL_SURFACE ( 'NONE', #18, 0.7250000000000000888, 0.7853981633974512766 ) ;
#74 = PERSON_AND_ORGANIZATION ( #12, #220 ) ;
#75 = ORIENTED_EDGE ( 'NONE', *, *, #173, .F. ) ;
#76 = DATE_TIME_ROLE ( 'creation_date' ) ;
#77 = ORIENTED_EDGE ( 'NONE', *, *, #43, .T. ) ;
#78 = EDGE_CURVE ( 'NONE', #19, #211, #31, .T. ) ;
#79 = EDGE_CURVE ( 'NONE', #158, #211, #62, .T. ) ;
#80 = PERSON_AND_ORGANIZATION_ROLE ( 'classification_officer' ) ;
#81 = ORIENTED_EDGE ( 'NONE', *, *, #146, .F. ) ;
#82 = EDGE_CURVE ( 'NONE', #209, #180, #321, .T. ) ;
#83 =( GEOMETRIC_REPRESENTATION_CONTEXT ( 3 ) GLOBAL_UNCERTAINTY_ASSIGNED_CONTEXT ( ( #165 ) ) GLOBAL_UNIT_ASSIGNED_CONTEXT ( ( #280, #120, #144 ) ) REPRESENTATION_CONTEXT ( 'NONE', 'WORKASPACE' ) );
#84 = EDGE_LOOP ( 'NONE', ( #283, #14, #239, #265 ) ) ;
#85 = DIRECTION ( 'NONE',  ( 1.903218546456022717E-15, 0.8571673007021097801, 0.5150380749100585964 ) ) ;
#86 = CARTESIAN_POINT ( 'NONE',  ( 8.181394315785025678E-14, -0.9250000000000045963, 37.79999999999999716 ) ) ;
#87 = CARTESIAN_POINT ( 'NONE',  ( 1.326762908760390423E-13, -4.653657836759941941E-15, 38.00000000000000000 ) ) ;
#88 = CONICAL_SURFACE ( 'NONE', #322, 0.9249999999999954925, 1.029744258676649649 ) ;
#89 = SECURITY_CLASSIFICATION ( '', '', #312 ) ;
#90 = DESIGN_CONTEXT ( 'detailed design', #135, 'design' ) ;
#91 = DIRECTION ( 'NONE',  ( 4.275831445896958607E-31, 1.000000000000000000, 1.224646799147352961E-16 ) ) ;
#92 = CC_DESIGN_PERSON_AND_ORGANIZATION_ASSIGNMENT ( #52, #264, ( #109 ) ) ;
#93 = ADVANCED_FACE ( 'NONE', ( #166 ), #73, .T. ) ;
#94 = DIRECTION ( 'NONE',  ( -3.491481338843133355E-15, 1.224646799147353207E-16, -1.000000000000000000 ) ) ;
#95 = CARTESIAN_POINT ( 'NONE',  ( 3.142333204958820020E-14, -1.102182119232617714E-15, 9.000000000000000000 ) ) ;
#96 = DIRECTION ( 'NONE',  ( 0.0000000000000000000, 1.000000000000000000, 0.0000000000000000000 ) ) ;
#97 = LINE ( 'NONE', #302, #7 ) ;
#98 = CARTESIAN_POINT ( 'NONE',  ( 2.053831444608067695E-15, 0.9249999999999953815, 0.5557960726004967933 ) ) ;
#99 = AXIS2_PLACEMENT_3D ( 'NONE', #147, #37, #300 ) ;
#100 = DIRECTION ( 'NONE',  ( -3.491481338843133355E-15, 1.224646799147353207E-16, -1.000000000000000000 ) ) ;
#101 = APPROVAL_DATE_TIME ( #106, #191 ) ;
#102 = DATE_AND_TIME ( #229, #303 ) ;
#103 = ORIENTED_EDGE ( 'NONE', *, *, #146, .T. ) ;
#104 = CIRCLE ( 'NONE', #291, 0.9249999999999954925 ) ;
#105 = AXIS2_PLACEMENT_3D ( 'NONE', #126, #232, #152 ) ;
#106 = DATE_AND_TIME ( #177, #50 ) ;
#107 = ORIENTED_EDGE ( 'NONE', *, *, #162, .F. ) ;
#108 = FACE_OUTER_BOUND ( 'NONE', #27, .T. ) ;
#109 = PRODUCT ( '54507', '54507', '', ( #170 ) ) ;
#110 = APPROVAL_ROLE ( '' ) ;
#111 = ORIENTED_EDGE ( 'NONE', *, *, #43, .F. ) ;
#112 = VECTOR ( 'NONE', #94, 1000.000000000000000 ) ;
#113 = EDGE_LOOP ( 'NONE', ( #288, #121, #131, #314 ) ) ;
#114 = FACE_OUTER_BOUND ( 'NONE', #16, .T. ) ;
#115 = DIRECTION ( 'NONE',  ( -3.491481338843133355E-15, 1.224646799147353207E-16, -1.000000000000000000 ) ) ;
#116 = DIRECTION ( 'NONE',  ( -3.491481338843133355E-15, 1.224646799147353207E-16, -1.000000000000000000 ) ) ;
#117 = LINE ( 'NONE', #222, #112 ) ;
#118 = FACE_OUTER_BOUND ( 'NONE', #84, .T. ) ;
#119 = CARTESIAN_POINT ( 'NONE',  ( 1.679522166155867919E-14, -0.9249999999999976019, 9.000000000000000000 ) ) ;
#120 =( NAMED_UNIT ( * ) PLANE_ANGLE_UNIT ( ) SI_UNIT ( $, .RADIAN. ) );
#121 = ORIENTED_EDGE ( 'NONE', *, *, #67, .T. ) ;
#122 = DIRECTION ( 'NONE',  ( -3.491481338843133355E-15, 1.224646799147353207E-16, -1.000000000000000000 ) ) ;
#123 = VECTOR ( 'NONE', #196, 1000.000000000000114 ) ;
#124 = PERSON_AND_ORGANIZATION ( #12, #220 ) ;
#125 = COORDINATED_UNIVERSAL_TIME_OFFSET ( 1, 0, .AHEAD. ) ;
#126 = CARTESIAN_POINT ( 'NONE',  ( 3.142333204958820020E-14, -1.102182119232617714E-15, 9.000000000000000000 ) ) ;
#127 = DATE_TIME_ROLE ( 'classification_date' ) ;
#128 = FACE_OUTER_BOUND ( 'NONE', #51, .T. ) ;
#129 = AXIS2_PLACEMENT_3D ( 'NONE', #268, #221, #33 ) ;
#130 = PRODUCT_DEFINITION_FORMATION_WITH_SPECIFIED_SOURCE ( 'ANY', '', #109, .NOT_KNOWN. ) ;
#131 = ORIENTED_EDGE ( 'NONE', *, *, #78, .T. ) ;
#132 = PERSON_AND_ORGANIZATION_ROLE ( 'creator' ) ;
#133 = ORIENTED_EDGE ( 'NONE', *, *, #61, .F. ) ;
#134 = EDGE_LOOP ( 'NONE', ( #313, #311, #133, #310 ) ) ;
#135 = APPLICATION_CONTEXT ( 'configuration controlled 3d designs of mechanical parts and assemblies' ) ;
#136 = DIRECTION ( 'NONE',  ( 0.0000000000000000000, 1.000000000000000000, 0.0000000000000000000 ) ) ;
#137 = DIRECTION ( 'NONE',  ( 0.0000000000000000000, 1.000000000000000000, 0.0000000000000000000 ) ) ;
#138 = LINE ( 'NONE', #244, #257 ) ;
#139 = DIRECTION ( 'NONE',  ( -3.491481338843133355E-15, 1.224646799147353207E-16, -1.000000000000000000 ) ) ;
#140 = CONICAL_SURFACE ( 'NONE', #184, 0.7250000000000000888, 0.7853981633974512766 ) ;
#141 = DIRECTION ( 'NONE',  ( 0.0000000000000000000, 1.000000000000000000, 0.0000000000000000000 ) ) ;
#142 = CARTESIAN_POINT ( 'NONE',  ( 1.326762908760390423E-13, 5.436629212149164721E-33, 38.00000000000000000 ) ) ;
#143 = CIRCLE ( 'NONE', #192, 0.7250000000000000888 ) ;
#144 =( NAMED_UNIT ( * ) SI_UNIT ( $, .STERADIAN. ) SOLID_ANGLE_UNIT ( ) );
#145 = EDGE_CURVE ( 'NONE', #236, #180, #168, .T. ) ;
#146 = EDGE_CURVE ( 'NONE', #158, #200, #297, .T. ) ;
#147 = CARTESIAN_POINT ( 'NONE',  ( 1.940551615686937368E-15, -6.806538812888682296E-17, 0.5557960726004966823 ) ) ;
#148 = AXIS2_PLACEMENT_3D ( 'NONE', #188, #54, #136 ) ;
#149 = APPROVAL_STATUS ( 'not_yet_approved' ) ;
#150 = DIRECTION ( 'NONE',  ( 3.491481338843133355E-15, -1.224646799147353207E-16, 1.000000000000000000 ) ) ;
#151 = DATE_AND_TIME ( #259, #263 ) ;
#152 = DIRECTION ( 'NONE',  ( 0.0000000000000000000, 1.000000000000000000, 0.0000000000000000000 ) ) ;
#153 = EDGE_LOOP ( 'NONE', ( #254, #103, #111, #107 ) ) ;
#154 = CIRCLE ( 'NONE', #325, 0.9249999999999964917 ) ;
#155 = APPROVAL_PERSON_ORGANIZATION ( #233, #246, #210 ) ;
#156 = VERTEX_POINT ( 'NONE', #245 ) ;
#157 = APPLICATION_PROTOCOL_DEFINITION ( 'international standard', 'config_control_design', 1994, #135 ) ;
#158 = VERTEX_POINT ( 'NONE', #86 ) ;
#159 = CARTESIAN_POINT ( 'NONE',  ( 1.940551615686936973E-15, -0.9249999999999956035, 0.5557960726004965712 ) ) ;
#160 = CLOSED_SHELL ( 'NONE', ( #47, #334, #212, #49, #28 ) ) ;
#161 = CARTESIAN_POINT ( 'NONE',  ( 1.326762908760390423E-13, -4.653657836759941941E-15, 38.00000000000000000 ) ) ;
#162 = EDGE_CURVE ( 'NONE', #211, #46, #117, .T. ) ;
#163 = EDGE_CURVE ( 'NONE', #285, #240, #207, .T. ) ;
#164 = DIRECTION ( 'NONE',  ( -3.491481338843133355E-15, 1.224646799147353207E-16, -1.000000000000000000 ) ) ;
#165 = UNCERTAINTY_MEASURE_WITH_UNIT (LENGTH_MEASURE( 1.000000000000000082E-05 ), #280, 'distance_accuracy_value', 'NONE');
#166 = FACE_OUTER_BOUND ( 'NONE', #134, .T. ) ;
#167 = DIRECTION ( 'NONE',  ( -3.491481338843133355E-15, 1.224646799147353207E-16, -1.000000000000000000 ) ) ;
#168 = CIRCLE ( 'NONE', #41, 0.9249999999999954925 ) ;
#169 = EDGE_CURVE ( 'NONE', #209, #236, #138, .T. ) ;
#170 = MECHANICAL_CONTEXT ( 'NONE', #64, 'mechanical' ) ;
#171 = CARTESIAN_POINT ( 'NONE',  ( 3.955144087454669501E-31, 0.9249999999999959366, 1.132798289211296620E-16 ) ) ;
#172 = CC_DESIGN_APPROVAL ( #191, ( #89 ) ) ;
#173 = EDGE_CURVE ( 'NONE', #200, #46, #56, .T. ) ;
#174 = CYLINDRICAL_SURFACE ( 'NONE', #176, 0.9249999999999982681 ) ;
#175 = PLANE ( 'NONE',  #3 ) ;
#176 = AXIS2_PLACEMENT_3D ( 'NONE', #201, #122, #279 ) ;
#177 = CALENDAR_DATE ( 2021, 3, 9 ) ;
#178 = ORIENTED_EDGE ( 'NONE', *, *, #249, .F. ) ;
#179 = APPROVAL_STATUS ( 'not_yet_approved' ) ;
#180 = VERTEX_POINT ( 'NONE', #159 ) ;
#181 = SHAPE_DEFINITION_REPRESENTATION ( #295, #187 ) ;
#182 = ORIENTED_EDGE ( 'NONE', *, *, #230, .T. ) ;
#183 = MANIFOLD_SOLID_BREP ( 'Corps-Déplacer/Copier1[2]', #160 ) ;
#184 = AXIS2_PLACEMENT_3D ( 'NONE', #205, #225, #255 ) ;
#185 = APPROVAL_ROLE ( '' ) ;
#186 = ORIENTED_EDGE ( 'NONE', *, *, #163, .F. ) ;
#187 = ADVANCED_BREP_SHAPE_REPRESENTATION ( '54507', ( #65, #183, #23 ), #83 ) ;
#188 = CARTESIAN_POINT ( 'NONE',  ( 3.142333204958820020E-14, -1.102182119232617714E-15, 9.000000000000000000 ) ) ;
#189 = CARTESIAN_POINT ( 'NONE',  ( 1.132798289211292676E-16, -0.9249999999999959366, -1.132798289211300811E-16 ) ) ;
#190 = CC_DESIGN_DATE_AND_TIME_ASSIGNMENT ( #102, #127, ( #89 ) ) ;
#191 = APPROVAL ( #179, 'UNSPECIFIED' ) ;
#192 = AXIS2_PLACEMENT_3D ( 'NONE', #307, #40, #13 ) ;
#193 = APPROVAL_PERSON_ORGANIZATION ( #330, #191, #185 ) ;
#194 = LINE ( 'NONE', #189, #241 ) ;
#195 = EDGE_CURVE ( 'NONE', #285, #180, #194, .T. ) ;
#196 = DIRECTION ( 'NONE',  ( -2.468850131082257455E-15, 0.7071067811865497932, -0.7071067811865453523 ) ) ;
#197 = DIRECTION ( 'NONE',  ( -3.491481338843133355E-15, 1.224646799147353207E-16, -1.000000000000000000 ) ) ;
#198 = AXIS2_PLACEMENT_3D ( 'NONE', #273, #270, #58 ) ;
#199 = DIRECTION ( 'NONE',  ( 1.000000000000000000, 0.0000000000000000000, 0.0000000000000000000 ) ) ;
#200 = VERTEX_POINT ( 'NONE', #293 ) ;
#201 = CARTESIAN_POINT ( 'NONE',  ( 0.0000000000000000000, 0.0000000000000000000, 0.0000000000000000000 ) ) ;
#202 = ADVANCED_FACE ( 'NONE', ( #114 ), #271, .T. ) ;
#203 = DIRECTION ( 'NONE',  ( -3.491481338843133355E-15, 1.224646799147353207E-16, -1.000000000000000000 ) ) ;
#204 = LOCAL_TIME ( 9, 48, 51.00000000000000000, #20 ) ;
#205 = CARTESIAN_POINT ( 'NONE',  ( 1.326762908760390423E-13, -4.653657836759941941E-15, 38.00000000000000000 ) ) ;
#206 = ORIENTED_EDGE ( 'NONE', *, *, #79, .T. ) ;
#207 = CIRCLE ( 'NONE', #315, 0.9249999999999964917 ) ;
#208 = DATE_AND_TIME ( #328, #319 ) ;
#209 = VERTEX_POINT ( 'NONE', #30 ) ;
#210 = APPROVAL_ROLE ( '' ) ;
#211 = VERTEX_POINT ( 'NONE', #4 ) ;
#212 = ADVANCED_FACE ( 'NONE', ( #55 ), #331, .T. ) ;
#213 = CC_DESIGN_PERSON_AND_ORGANIZATION_ASSIGNMENT ( #124, #308, ( #130 ) ) ;
#214 = APPROVAL_STATUS ( 'not_yet_approved' ) ;
#215 = ORIENTED_EDGE ( 'NONE', *, *, #67, .F. ) ;
#216 = VECTOR ( 'NONE', #316, 1000.000000000000000 ) ;
#217 = EDGE_LOOP ( 'NONE', ( #260, #267, #72 ) ) ;
#218 = DIRECTION ( 'NONE',  ( -3.491481338843133355E-15, 1.224646799147353207E-16, -1.000000000000000000 ) ) ;
#219 = PLANE ( 'NONE',  #198 ) ;
#220 = ORGANIZATION ( 'UNSPECIFIED', 'UNSPECIFIED', '' ) ;
#221 = DIRECTION ( 'NONE',  ( -3.491481338843133355E-15, 1.224646799147353207E-16, -1.000000000000000000 ) ) ;
#222 = CARTESIAN_POINT ( 'NONE',  ( 3.955144087454679135E-31, 0.9249999999999982681, 1.132798289211299825E-16 ) ) ;
#223 = DIRECTION ( 'NONE',  ( -4.164172852729178579E-31, -1.000000000000000000, -1.172110456741091498E-16 ) ) ;
#224 = CIRCLE ( 'NONE', #292, 0.7250000000000000888 ) ;
#225 = DIRECTION ( 'NONE',  ( -3.491481338843133355E-15, 1.224646799147353207E-16, -1.000000000000000000 ) ) ;
#226 = EDGE_CURVE ( 'NONE', #180, #236, #104, .T. ) ;
#227 = ORIENTED_EDGE ( 'NONE', *, *, #261, .F. ) ;
#228 = AXIS2_PLACEMENT_3D ( 'NONE', #142, #66, #253 ) ;
#229 = CALENDAR_DATE ( 2021, 3, 9 ) ;
#230 = EDGE_CURVE ( 'NONE', #240, #285, #154, .T. ) ;
#231 = PERSON_AND_ORGANIZATION ( #12, #220 ) ;
#232 = DIRECTION ( 'NONE',  ( -3.491481338843133355E-15, 1.224646799147353207E-16, -1.000000000000000000 ) ) ;
#233 = PERSON_AND_ORGANIZATION ( #12, #220 ) ;
#234 = CYLINDRICAL_SURFACE ( 'NONE', #309, 0.9249999999999959366 ) ;
#235 = COORDINATED_UNIVERSAL_TIME_OFFSET ( 1, 0, .AHEAD. ) ;
#236 = VERTEX_POINT ( 'NONE', #98 ) ;
#237 = CC_DESIGN_DATE_AND_TIME_ASSIGNMENT ( #44, #76, ( #306 ) ) ;
#238 = ADVANCED_FACE ( 'NONE', ( #251 ), #140, .T. ) ;
#239 = ORIENTED_EDGE ( 'NONE', *, *, #261, .T. ) ;
#240 = VERTEX_POINT ( 'NONE', #299 ) ;
#241 = VECTOR ( 'NONE', #164, 1000.000000000000000 ) ;
#242 = DIRECTION ( 'NONE',  ( 4.164172852729178579E-31, 1.000000000000000000, 1.172110456741091498E-16 ) ) ;
#243 = DIRECTION ( 'NONE',  ( 0.0000000000000000000, 1.000000000000000000, 0.0000000000000000000 ) ) ;
#244 = CARTESIAN_POINT ( 'NONE',  ( 2.053831444608067695E-15, 0.9249999999999953815, 0.5557960726004967933 ) ) ;
#245 = CARTESIAN_POINT ( 'NONE',  ( 1.324281761030844277E-13, -0.7250000000000047518, 38.00000000000000000 ) ) ;
#246 = APPROVAL ( #214, 'UNSPECIFIED' ) ;
#247 = CC_DESIGN_PERSON_AND_ORGANIZATION_ASSIGNMENT ( #266, #286, ( #130 ) ) ;
#248 = CARTESIAN_POINT ( 'NONE',  ( 1.132798289211295880E-16, -0.9249999999999982681, -1.132798289211303522E-16 ) ) ;
#249 = EDGE_CURVE ( 'NONE', #19, #156, #143, .T. ) ;
#250 = CARTESIAN_POINT ( 'NONE',  ( 1.940551615686937368E-15, -6.806538812888682296E-17, 0.5557960726004966823 ) ) ;
#251 = FACE_OUTER_BOUND ( 'NONE', #113, .T. ) ;
#252 = AXIS2_PLACEMENT_3D ( 'NONE', #290, #116, #32 ) ;
#253 = DIRECTION ( 'NONE',  ( 4.275831445896958607E-31, 1.000000000000000000, 1.224646799147353207E-16 ) ) ;
#254 = ORIENTED_EDGE ( 'NONE', *, *, #61, .T. ) ;
#255 = DIRECTION ( 'NONE',  ( 0.0000000000000000000, 1.000000000000000000, 0.0000000000000000000 ) ) ;
#256 = FACE_OUTER_BOUND ( 'NONE', #337, .T. ) ;
#257 = VECTOR ( 'NONE', #85, 999.9999999999998863 ) ;
#258 = DIRECTION ( 'NONE',  ( -4.275831445896958607E-31, -1.000000000000000000, -1.224646799147353207E-16 ) ) ;
#259 = CALENDAR_DATE ( 2021, 3, 9 ) ;
#260 = ORIENTED_EDGE ( 'NONE', *, *, #169, .F. ) ;
#261 = EDGE_CURVE ( 'NONE', #240, #236, #70, .T. ) ;
#262 = CARTESIAN_POINT ( 'NONE',  ( 1.326762908760390423E-13, 0.7249999999999954259, 38.00000000000000000 ) ) ;
#263 = LOCAL_TIME ( 9, 48, 51.00000000000000000, #235 ) ;
#264 = PERSON_AND_ORGANIZATION_ROLE ( 'design_owner' ) ;
#265 = ORIENTED_EDGE ( 'NONE', *, *, #226, .F. ) ;
#266 = PERSON_AND_ORGANIZATION ( #12, #220 ) ;
#267 = ORIENTED_EDGE ( 'NONE', *, *, #82, .T. ) ;
#268 = CARTESIAN_POINT ( 'NONE',  ( 0.0000000000000000000, 0.0000000000000000000, 0.0000000000000000000 ) ) ;
#269 = CIRCLE ( 'NONE', #105, 0.9249999999999964917 ) ;
#270 = DIRECTION ( 'NONE',  ( 3.491481338843133355E-15, -1.224646799147353207E-16, 1.000000000000000000 ) ) ;
#271 = CYLINDRICAL_SURFACE ( 'NONE', #252, 0.9249999999999982681 ) ;
#272 = EDGE_CURVE ( 'NONE', #156, #158, #97, .T. ) ;
#273 = CARTESIAN_POINT ( 'NONE',  ( 3.142333204958820020E-14, 6.936388994811049014E-33, 9.000000000000000000 ) ) ;
#274 = CC_DESIGN_PERSON_AND_ORGANIZATION_ASSIGNMENT ( #231, #132, ( #306 ) ) ;
#275 = CC_DESIGN_APPROVAL ( #305, ( #306 ) ) ;
#276 = FACE_OUTER_BOUND ( 'NONE', #53, .T. ) ;
#277 = ADVANCED_FACE ( 'NONE', ( #17 ), #323, .F. ) ;
#278 = CARTESIAN_POINT ( 'NONE',  ( 0.0000000000000000000, 0.0000000000000000000, 0.0000000000000000000 ) ) ;
#279 = DIRECTION ( 'NONE',  ( 4.275831445896958607E-31, 1.000000000000000000, 1.224646799147353454E-16 ) ) ;
#280 =( LENGTH_UNIT ( ) NAMED_UNIT ( * ) SI_UNIT ( .MILLI., .METRE. ) );
#281 = CIRCLE ( 'NONE', #298, 0.9250000000000000444 ) ;
#282 = CARTESIAN_POINT ( 'NONE',  ( 3.142333204958820020E-14, 6.936388994811049014E-33, 9.000000000000000000 ) ) ;
#283 = ORIENTED_EDGE ( 'NONE', *, *, #195, .F. ) ;
#284 = CC_DESIGN_PERSON_AND_ORGANIZATION_ASSIGNMENT ( #74, #80, ( #89 ) ) ;
#285 = VERTEX_POINT ( 'NONE', #119 ) ;
#286 = PERSON_AND_ORGANIZATION_ROLE ( 'creator' ) ;
#287 = EDGE_LOOP ( 'NONE', ( #178, #215 ) ) ;
#288 = ORIENTED_EDGE ( 'NONE', *, *, #272, .F. ) ;
#289 = CYLINDRICAL_SURFACE ( 'NONE', #129, 0.9249999999999959366 ) ;
#290 = CARTESIAN_POINT ( 'NONE',  ( 0.0000000000000000000, 0.0000000000000000000, 0.0000000000000000000 ) ) ;
#291 = AXIS2_PLACEMENT_3D ( 'NONE', #250, #100, #324 ) ;
#292 = AXIS2_PLACEMENT_3D ( 'NONE', #87, #318, #320 ) ;
#293 = CARTESIAN_POINT ( 'NONE',  ( 8.181394315785040824E-14, -0.9249999999999976019, 9.000000000000000000 ) ) ;
#294 = ADVANCED_FACE ( 'NONE', ( #39 ), #174, .T. ) ;
#295 = PRODUCT_DEFINITION_SHAPE ( 'NONE', 'NONE',  #306 ) ;
#296 = DIRECTION ( 'NONE',  ( 0.0000000000000000000, 1.000000000000000000, 0.0000000000000000000 ) ) ;
#297 = LINE ( 'NONE', #248, #301 ) ;
#298 = AXIS2_PLACEMENT_3D ( 'NONE', #9, #115, #137 ) ;
#299 = CARTESIAN_POINT ( 'NONE',  ( 3.142333204958820020E-14, 0.9249999999999953815, 9.000000000000000000 ) ) ;
#300 = DIRECTION ( 'NONE',  ( -4.164172852729178579E-31, -1.000000000000000000, -1.172110456741091498E-16 ) ) ;
#301 = VECTOR ( 'NONE', #8, 1000.000000000000000 ) ;
#302 = CARTESIAN_POINT ( 'NONE',  ( 1.327650777689772385E-13, -0.7250000000000047518, 38.00000000000000000 ) ) ;
#303 = LOCAL_TIME ( 9, 48, 51.00000000000000000, #48 ) ;
#304 = ORIENTED_EDGE ( 'NONE', *, *, #162, .T. ) ;
#305 = APPROVAL ( #149, 'UNSPECIFIED' ) ;
#306 = PRODUCT_DEFINITION ( 'UNKNOWN', '', #130, #90 ) ;
#307 = CARTESIAN_POINT ( 'NONE',  ( 1.326762908760390423E-13, -4.653657836759941941E-15, 38.00000000000000000 ) ) ;
#308 = PERSON_AND_ORGANIZATION_ROLE ( 'design_supplier' ) ;
#309 = AXIS2_PLACEMENT_3D ( 'NONE', #333, #197, #91 ) ;
#310 = ORIENTED_EDGE ( 'NONE', *, *, #78, .F. ) ;
#311 = ORIENTED_EDGE ( 'NONE', *, *, #272, .T. ) ;
#312 = SECURITY_CLASSIFICATION_LEVEL ( 'unclassified' ) ;
#313 = ORIENTED_EDGE ( 'NONE', *, *, #249, .T. ) ;
#314 = ORIENTED_EDGE ( 'NONE', *, *, #79, .F. ) ;
#315 = AXIS2_PLACEMENT_3D ( 'NONE', #60, #167, #141 ) ;
#316 = DIRECTION ( 'NONE',  ( 1.798245827342160317E-15, -0.8571673007021098911, 0.5150380749100582634 ) ) ;
#317 = CARTESIAN_POINT ( 'NONE',  ( 1.326762908760390423E-13, 0.7249999999999954259, 38.00000000000000000 ) ) ;
#318 = DIRECTION ( 'NONE',  ( -3.491481338843133355E-15, 1.224646799147353207E-16, -1.000000000000000000 ) ) ;
#319 = LOCAL_TIME ( 9, 48, 51.00000000000000000, #327 ) ;
#320 = DIRECTION ( 'NONE',  ( 0.0000000000000000000, 1.000000000000000000, 0.0000000000000000000 ) ) ;
#321 = LINE ( 'NONE', #59, #216 ) ;
#322 = AXIS2_PLACEMENT_3D ( 'NONE', #10, #63, #223 ) ;
#323 = PLANE ( 'NONE',  #228 ) ;
#324 = DIRECTION ( 'NONE',  ( 4.164172852729178579E-31, 1.000000000000000000, 1.172110456741091498E-16 ) ) ;
#325 = AXIS2_PLACEMENT_3D ( 'NONE', #95, #15, #96 ) ;
#326 = APPLICATION_PROTOCOL_DEFINITION ( 'international standard', 'config_control_design', 1994, #64 ) ;
#327 = COORDINATED_UNIVERSAL_TIME_OFFSET ( 1, 0, .AHEAD. ) ;
#328 = CALENDAR_DATE ( 2021, 3, 9 ) ;
#329 = ORIENTED_EDGE ( 'NONE', *, *, #173, .T. ) ;
#330 = PERSON_AND_ORGANIZATION ( #12, #220 ) ;
#331 = CONICAL_SURFACE ( 'NONE', #99, 0.9249999999999954925, 1.029744258676649649 ) ;
#332 = CC_DESIGN_APPROVAL ( #246, ( #130 ) ) ;
#333 = CARTESIAN_POINT ( 'NONE',  ( 0.0000000000000000000, 0.0000000000000000000, 0.0000000000000000000 ) ) ;
#334 = ADVANCED_FACE ( 'NONE', ( #256 ), #88, .T. ) ;
#335 = ORIENTED_EDGE ( 'NONE', *, *, #230, .F. ) ;
#336 = PERSON_AND_ORGANIZATION ( #12, #220 ) ;
#337 = EDGE_LOOP ( 'NONE', ( #42, #25, #2 ) ) ;
ENDSEC;
END-ISO-10303-21;
