ISO-10303-21;
HEADER;
FILE_DESCRIPTION (( 'STEP AP203' ),
    '1' );
FILE_NAME ('54506.step',
    '2021-09-03T07:48:49',
    ( '' ),
    ( '' ),
    'SwSTEP 2.0',
    'SolidWorks 2019',
    '' );
FILE_SCHEMA (( 'CONFIG_CONTROL_DESIGN' ));
ENDSEC;

DATA;
#1 = CARTESIAN_POINT ( 'NONE',  ( 1.102182119232609036E-16, -0.8999999999999958034, -1.102182119232616555E-16 ) ) ;
#2 = CALENDAR_DATE ( 2021, 3, 9 ) ;
#3 = EDGE_CURVE ( 'NONE', #293, #266, #88, .T. ) ;
#4 = EDGE_CURVE ( 'NONE', #137, #35, #136, .T. ) ;
#5 = DIRECTION ( 'NONE',  ( 0.0000000000000000000, 1.000000000000000000, 0.0000000000000000000 ) ) ;
#6 = LINE ( 'NONE', #54, #247 ) ;
#7 = CIRCLE ( 'NONE', #164, 0.8999999999999963585 ) ;
#8 = CLOSED_SHELL ( 'NONE', ( #44, #68, #321, #280, #242, #256 ) ) ;
#9 = ORIENTED_EDGE ( 'NONE', *, *, #30, .T. ) ;
#10 = CARTESIAN_POINT ( 'NONE',  ( 1.319779946082704535E-13, 0.8999999999999953593, 37.79999999999999716 ) ) ;
#11 = CC_DESIGN_PERSON_AND_ORGANIZATION_ASSIGNMENT ( #311, #26, ( #109 ) ) ;
#12 = CARTESIAN_POINT ( 'NONE',  ( 1.326762908760390423E-13, -4.653657836759941941E-15, 38.00000000000000000 ) ) ;
#13 = CONICAL_SURFACE ( 'NONE', #202, 0.6999999999999999556, 0.7853981633974512766 ) ;
#14 = CONICAL_SURFACE ( 'NONE', #131, 0.8999999999999954703, 1.029744258676649871 ) ;
#15 = CARTESIAN_POINT ( 'NONE',  ( 3.142333204958820020E-14, -1.102182119232617714E-15, 9.000000000000000000 ) ) ;
#16 = EDGE_CURVE ( 'NONE', #266, #128, #49, .T. ) ;
#17 = EDGE_LOOP ( 'NONE', ( #206, #118, #223, #265 ) ) ;
#18 = CARTESIAN_POINT ( 'NONE',  ( 1.998322486645686165E-15, 0.8999999999999953593, 0.5407745571248073757 ) ) ;
#19 = APPLICATION_PROTOCOL_DEFINITION ( 'international standard', 'config_control_design', 1994, #159 ) ;
#20 = AXIS2_PLACEMENT_3D ( 'NONE', #97, #229, #24 ) ;
#21 = CALENDAR_DATE ( 2021, 3, 9 ) ;
#22 = CARTESIAN_POINT ( 'NONE',  ( 3.142333204958820020E-14, 6.748919021978315445E-33, 9.000000000000000000 ) ) ;
#23 = APPLICATION_CONTEXT ( 'configuration controlled 3d designs of mechanical parts and assemblies' ) ;
#24 = DIRECTION ( 'NONE',  ( 1.000000000000000000, 0.0000000000000000000, 0.0000000000000000000 ) ) ;
#25 = EDGE_LOOP ( 'NONE', ( #45, #39, #85, #305 ) ) ;
#26 = PERSON_AND_ORGANIZATION_ROLE ( 'design_supplier' ) ;
#27 = CARTESIAN_POINT ( 'NONE',  ( 8.181088154085253418E-14, -0.8999999999999974687, 9.000000000000000000 ) ) ;
#28 = PRODUCT_RELATED_PRODUCT_CATEGORY ( 'detail', '', ( #270 ) ) ;
#29 = PERSON_AND_ORGANIZATION_ROLE ( 'classification_officer' ) ;
#30 = EDGE_CURVE ( 'NONE', #267, #137, #86, .T. ) ;
#31 = AXIS2_PLACEMENT_3D ( 'NONE', #138, #93, #197 ) ;
#32 = VECTOR ( 'NONE', #221, 1000.000000000000000 ) ;
#33 = DIRECTION ( 'NONE',  ( -3.491481338843133355E-15, 1.224646799147353207E-16, -1.000000000000000000 ) ) ;
#34 = DIRECTION ( 'NONE',  ( -3.491481338843133355E-15, 1.224646799147353207E-16, -1.000000000000000000 ) ) ;
#35 = VERTEX_POINT ( 'NONE', #104 ) ;
#36 = DIRECTION ( 'NONE',  ( 0.0000000000000000000, 1.000000000000000000, 0.0000000000000000000 ) ) ;
#37 = DIRECTION ( 'NONE',  ( 4.275831445896958607E-31, 1.000000000000000000, 1.224646799147353207E-16 ) ) ;
#38 = CYLINDRICAL_SURFACE ( 'NONE', #190, 0.8999999999999958034 ) ;
#39 = ORIENTED_EDGE ( 'NONE', *, *, #188, .T. ) ;
#40 = AXIS2_PLACEMENT_3D ( 'NONE', #219, #303, #298 ) ;
#41 = CYLINDRICAL_SURFACE ( 'NONE', #31, 0.8999999999999982458 ) ;
#42 = ORIENTED_EDGE ( 'NONE', *, *, #63, .F. ) ;
#43 = DIRECTION ( 'NONE',  ( -3.491481338843133355E-15, 1.224646799147353207E-16, -1.000000000000000000 ) ) ;
#44 = ADVANCED_FACE ( 'NONE', ( #180 ), #179, .T. ) ;
#45 = ORIENTED_EDGE ( 'NONE', *, *, #121, .F. ) ;
#46 = COORDINATED_UNIVERSAL_TIME_OFFSET ( 1, 0, .AHEAD. ) ;
#47 = ORIENTED_EDGE ( 'NONE', *, *, #184, .F. ) ;
#48 = CC_DESIGN_PERSON_AND_ORGANIZATION_ASSIGNMENT ( #127, #176, ( #129 ) ) ;
#49 = CIRCLE ( 'NONE', #59, 0.8999999999999963585 ) ;
#50 = CALENDAR_DATE ( 2021, 3, 9 ) ;
#51 = PERSON_AND_ORGANIZATION ( #225, #315 ) ;
#52 = DIRECTION ( 'NONE',  ( -3.491481338843133355E-15, 1.224646799147353207E-16, -1.000000000000000000 ) ) ;
#53 = DIRECTION ( 'NONE',  ( -4.275831445896958607E-31, -1.000000000000000000, -1.224646799147353207E-16 ) ) ;
#54 = CARTESIAN_POINT ( 'NONE',  ( 1.102182119232611995E-16, -0.8999999999999982458, -1.102182119232619390E-16 ) ) ;
#55 =( NAMED_UNIT ( * ) SI_UNIT ( $, .STERADIAN. ) SOLID_ANGLE_UNIT ( ) );
#56 = UNCERTAINTY_MEASURE_WITH_UNIT (LENGTH_MEASURE( 1.000000000000000082E-05 ), #253, 'distance_accuracy_value', 'NONE');
#57 = LOCAL_TIME ( 9, 48, 49.00000000000000000, #46 ) ;
#58 = ORIENTED_EDGE ( 'NONE', *, *, #317, .T. ) ;
#59 = AXIS2_PLACEMENT_3D ( 'NONE', #161, #210, #77 ) ;
#60 = AXIS2_PLACEMENT_3D ( 'NONE', #162, #312, #5 ) ;
#61 = DIRECTION ( 'NONE',  ( -3.491481338843133355E-15, 1.224646799147353207E-16, -1.000000000000000000 ) ) ;
#62 = EDGE_LOOP ( 'NONE', ( #98, #235 ) ) ;
#63 = EDGE_CURVE ( 'NONE', #332, #146, #309, .T. ) ;
#64 = DIRECTION ( 'NONE',  ( -3.491481338843133355E-15, 1.224646799147353207E-16, -1.000000000000000000 ) ) ;
#65 = DIRECTION ( 'NONE',  ( 3.491481338843133355E-15, -1.224646799147353207E-16, 1.000000000000000000 ) ) ;
#66 = CARTESIAN_POINT ( 'NONE',  ( 1.676593637407855475E-14, -0.8999999999999974687, 9.000000000000000000 ) ) ;
#67 = ORIENTED_EDGE ( 'NONE', *, *, #156, .F. ) ;
#68 = ADVANCED_FACE ( 'NONE', ( #281 ), #282, .T. ) ;
#69 = CARTESIAN_POINT ( 'NONE',  ( 3.142333204958820020E-14, 0.8999999999999953593, 9.000000000000000000 ) ) ;
#70 = EDGE_LOOP ( 'NONE', ( #133, #125, #72, #217 ) ) ;
#71 = DIRECTION ( 'NONE',  ( -3.491481338843133355E-15, 1.224646799147353207E-16, -1.000000000000000000 ) ) ;
#72 = ORIENTED_EDGE ( 'NONE', *, *, #156, .T. ) ;
#73 = ORIENTED_EDGE ( 'NONE', *, *, #252, .T. ) ;
#74 = AXIS2_PLACEMENT_3D ( 'NONE', #91, #111, #271 ) ;
#75 = AXIS2_PLACEMENT_3D ( 'NONE', #185, #52, #152 ) ;
#76 = PERSON_AND_ORGANIZATION ( #225, #315 ) ;
#77 = DIRECTION ( 'NONE',  ( 0.0000000000000000000, 1.000000000000000000, 0.0000000000000000000 ) ) ;
#78 = DATE_AND_TIME ( #21, #57 ) ;
#79 = CARTESIAN_POINT ( 'NONE',  ( 0.0000000000000000000, 0.0000000000000000000, 0.0000000000000000000 ) ) ;
#80 = CC_DESIGN_PERSON_AND_ORGANIZATION_ASSIGNMENT ( #187, #29, ( #220 ) ) ;
#81 = DIRECTION ( 'NONE',  ( 0.0000000000000000000, 1.000000000000000000, 0.0000000000000000000 ) ) ;
#82 = DATE_TIME_ROLE ( 'classification_date' ) ;
#83 = COORDINATED_UNIVERSAL_TIME_OFFSET ( 1, 0, .AHEAD. ) ;
#84 = AXIS2_PLACEMENT_3D ( 'NONE', #22, #304, #53 ) ;
#85 = ORIENTED_EDGE ( 'NONE', *, *, #3, .T. ) ;
#86 = CIRCLE ( 'NONE', #101, 0.8999999999999963585 ) ;
#87 = AXIS2_PLACEMENT_3D ( 'NONE', #336, #215, #81 ) ;
#88 = LINE ( 'NONE', #238, #92 ) ;
#89 = PLANE ( 'NONE',  #284 ) ;
#90 = ADVANCED_FACE ( 'NONE', ( #107 ), #14, .T. ) ;
#91 = CARTESIAN_POINT ( 'NONE',  ( 1.888104274722424374E-15, -6.622578304432228391E-17, 0.5407745571248072647 ) ) ;
#92 = VECTOR ( 'NONE', #33, 1000.000000000000000 ) ;
#93 = DIRECTION ( 'NONE',  ( -3.491481338843133355E-15, 1.224646799147353207E-16, -1.000000000000000000 ) ) ;
#94 = LINE ( 'NONE', #18, #236 ) ;
#95 = DIRECTION ( 'NONE',  ( 0.0000000000000000000, 1.000000000000000000, 0.0000000000000000000 ) ) ;
#96 = PLANE ( 'NONE',  #84 ) ;
#97 = CARTESIAN_POINT ( 'NONE',  ( 0.0000000000000000000, 0.0000000000000000000, 0.0000000000000000000 ) ) ;
#98 = ORIENTED_EDGE ( 'NONE', *, *, #16, .T. ) ;
#99 = APPROVAL_ROLE ( '' ) ;
#100 = ORIENTED_EDGE ( 'NONE', *, *, #317, .F. ) ;
#101 = AXIS2_PLACEMENT_3D ( 'NONE', #313, #61, #182 ) ;
#102 = APPROVAL_ROLE ( '' ) ;
#103 = ORIENTED_EDGE ( 'NONE', *, *, #4, .T. ) ;
#104 = CARTESIAN_POINT ( 'NONE',  ( 1.888104274722423980E-15, -0.8999999999999955813, 0.5407745571248071537 ) ) ;
#105 = AXIS2_PLACEMENT_3D ( 'NONE', #174, #334, #181 ) ;
#106 = APPROVAL_ROLE ( '' ) ;
#107 = FACE_OUTER_BOUND ( 'NONE', #173, .T. ) ;
#108 = ADVANCED_FACE ( 'NONE', ( #259 ), #318, .T. ) ;
#109 = PRODUCT_DEFINITION_FORMATION_WITH_SPECIFIED_SOURCE ( 'ANY', '', #270, .NOT_KNOWN. ) ;
#110 = DIRECTION ( 'NONE',  ( -4.279844320860545916E-31, -1.000000000000000000, -1.204669080539455507E-16 ) ) ;
#111 = DIRECTION ( 'NONE',  ( -3.491481338843133355E-15, 1.224646799147353207E-16, -1.000000000000000000 ) ) ;
#112 = DIRECTION ( 'NONE',  ( -4.279844320860545916E-31, -1.000000000000000000, -1.204669080539455507E-16 ) ) ;
#113 = LINE ( 'NONE', #268, #262 ) ;
#114 = VECTOR ( 'NONE', #326, 1000.000000000000114 ) ;
#115 = CARTESIAN_POINT ( 'NONE',  ( 1.327620161519793644E-13, -0.7000000000000046185, 38.00000000000000000 ) ) ;
#116 = ORIENTED_EDGE ( 'NONE', *, *, #188, .F. ) ;
#117 = CARTESIAN_POINT ( 'NONE',  ( 3.142333204958820020E-14, -1.102182119232617714E-15, 9.000000000000000000 ) ) ;
#118 = ORIENTED_EDGE ( 'NONE', *, *, #121, .T. ) ;
#119 = FACE_OUTER_BOUND ( 'NONE', #299, .T. ) ;
#120 = EDGE_LOOP ( 'NONE', ( #9, #103, #232, #67 ) ) ;
#121 = EDGE_CURVE ( 'NONE', #240, #128, #6, .T. ) ;
#122 = APPROVAL_DATE_TIME ( #78, #166 ) ;
#123 = DATE_AND_TIME ( #257, #290 ) ;
#124 = EDGE_CURVE ( 'NONE', #146, #293, #295, .T. ) ;
#125 = ORIENTED_EDGE ( 'NONE', *, *, #150, .T. ) ;
#126 =( GEOMETRIC_REPRESENTATION_CONTEXT ( 3 ) GLOBAL_UNCERTAINTY_ASSIGNED_CONTEXT ( ( #56 ) ) GLOBAL_UNIT_ASSIGNED_CONTEXT ( ( #253, #276, #55 ) ) REPRESENTATION_CONTEXT ( 'NONE', 'WORKASPACE' ) );
#127 = PERSON_AND_ORGANIZATION ( #225, #315 ) ;
#128 = VERTEX_POINT ( 'NONE', #27 ) ;
#129 = PRODUCT_DEFINITION ( 'UNKNOWN', '', #109, #286 ) ;
#130 = CIRCLE ( 'NONE', #74, 0.8999999999999954703 ) ;
#131 = AXIS2_PLACEMENT_3D ( 'NONE', #216, #289, #110 ) ;
#132 = SHAPE_DEFINITION_REPRESENTATION ( #246, #314 ) ;
#133 = ORIENTED_EDGE ( 'NONE', *, *, #4, .F. ) ;
#134 = CC_DESIGN_PERSON_AND_ORGANIZATION_ASSIGNMENT ( #76, #227, ( #270 ) ) ;
#135 = CALENDAR_DATE ( 2021, 3, 9 ) ;
#136 = LINE ( 'NONE', #1, #279 ) ;
#137 = VERTEX_POINT ( 'NONE', #66 ) ;
#138 = CARTESIAN_POINT ( 'NONE',  ( 0.0000000000000000000, 0.0000000000000000000, 0.0000000000000000000 ) ) ;
#139 = APPROVAL ( #151, 'UNSPECIFIED' ) ;
#140 = CARTESIAN_POINT ( 'NONE',  ( 3.142333204958820020E-14, 0.8999999999999953593, 9.000000000000000000 ) ) ;
#141 = CARTESIAN_POINT ( 'NONE',  ( 0.0000000000000000000, 0.0000000000000000000, 0.0000000000000000000 ) ) ;
#142 = APPROVAL_PERSON_ORGANIZATION ( #189, #319, #106 ) ;
#143 = FACE_OUTER_BOUND ( 'NONE', #25, .T. ) ;
#144 = ORIENTED_EDGE ( 'NONE', *, *, #124, .T. ) ;
#145 = DIRECTION ( 'NONE',  ( 0.0000000000000000000, 1.000000000000000000, 0.0000000000000000000 ) ) ;
#146 = VERTEX_POINT ( 'NONE', #194 ) ;
#147 = PLANE ( 'NONE',  #105 ) ;
#148 = LOCAL_TIME ( 9, 48, 49.00000000000000000, #288 ) ;
#149 = EDGE_LOOP ( 'NONE', ( #100, #277, #200 ) ) ;
#150 = EDGE_CURVE ( 'NONE', #137, #267, #263, .T. ) ;
#151 = APPROVAL_STATUS ( 'not_yet_approved' ) ;
#152 = DIRECTION ( 'NONE',  ( 4.275831445896958607E-31, 1.000000000000000000, 1.224646799147353207E-16 ) ) ;
#153 = CARTESIAN_POINT ( 'NONE',  ( 1.324251144860865032E-13, -0.7000000000000046185, 38.00000000000000000 ) ) ;
#154 = CARTESIAN_POINT ( 'NONE',  ( 1.326762908760390423E-13, 0.6999999999999952927, 38.00000000000000000 ) ) ;
#155 = APPROVAL_PERSON_ORGANIZATION ( #283, #166, #102 ) ;
#156 = EDGE_CURVE ( 'NONE', #267, #307, #170, .T. ) ;
#157 = APPROVAL_DATE_TIME ( #285, #319 ) ;
#158 = CIRCLE ( 'NONE', #302, 0.8999999999999954703 ) ;
#159 = APPLICATION_CONTEXT ( 'configuration controlled 3d designs of mechanical parts and assemblies' ) ;
#160 = AXIS2_PLACEMENT_3D ( 'NONE', #79, #34, #239 ) ;
#161 = CARTESIAN_POINT ( 'NONE',  ( 3.142333204958820020E-14, -1.102182119232617714E-15, 9.000000000000000000 ) ) ;
#162 = CARTESIAN_POINT ( 'NONE',  ( 1.326762908760390423E-13, -4.653657836759941941E-15, 38.00000000000000000 ) ) ;
#163 = ORIENTED_EDGE ( 'NONE', *, *, #252, .F. ) ;
#164 = AXIS2_PLACEMENT_3D ( 'NONE', #117, #323, #36 ) ;
#165 = DIRECTION ( 'NONE',  ( 4.275831445896958607E-31, 1.000000000000000000, 1.224646799147353207E-16 ) ) ;
#166 = APPROVAL ( #260, 'UNSPECIFIED' ) ;
#167 = FACE_OUTER_BOUND ( 'NONE', #149, .T. ) ;
#168 = DIRECTION ( 'NONE',  ( 0.0000000000000000000, 1.000000000000000000, 0.0000000000000000000 ) ) ;
#169 = EDGE_LOOP ( 'NONE', ( #163, #248, #144, #116 ) ) ;
#170 = LINE ( 'NONE', #172, #32 ) ;
#171 = ORIENTED_EDGE ( 'NONE', *, *, #203, .T. ) ;
#172 = CARTESIAN_POINT ( 'NONE',  ( 3.848248301307245055E-31, 0.8999999999999958034, 1.102182119232612734E-16 ) ) ;
#173 = EDGE_LOOP ( 'NONE', ( #213, #58, #192 ) ) ;
#174 = CARTESIAN_POINT ( 'NONE',  ( 3.142333204958820020E-14, 6.748919021978315445E-33, 9.000000000000000000 ) ) ;
#175 = EDGE_LOOP ( 'NONE', ( #320, #42 ) ) ;
#176 = PERSON_AND_ORGANIZATION_ROLE ( 'creator' ) ;
#177 = AXIS2_PLACEMENT_3D ( 'NONE', #272, #43, #168 ) ;
#178 = ADVANCED_FACE ( 'NONE', ( #167 ), #191, .T. ) ;
#179 = CONICAL_SURFACE ( 'NONE', #60, 0.6999999999999999556, 0.7853981633974512766 ) ;
#180 = FACE_OUTER_BOUND ( 'NONE', #251, .T. ) ;
#181 = DIRECTION ( 'NONE',  ( -4.275831445896958607E-31, -1.000000000000000000, -1.224646799147353207E-16 ) ) ;
#182 = DIRECTION ( 'NONE',  ( 0.0000000000000000000, 1.000000000000000000, 0.0000000000000000000 ) ) ;
#183 = MECHANICAL_CONTEXT ( 'NONE', #159, 'mechanical' ) ;
#184 = EDGE_CURVE ( 'NONE', #293, #240, #233, .T. ) ;
#185 = CARTESIAN_POINT ( 'NONE',  ( 0.0000000000000000000, 0.0000000000000000000, 0.0000000000000000000 ) ) ;
#186 = MANIFOLD_SOLID_BREP ( 'Corps-Déplacer/Copier1[2]', #196 ) ;
#187 = PERSON_AND_ORGANIZATION ( #225, #315 ) ;
#188 = EDGE_CURVE ( 'NONE', #240, #293, #325, .T. ) ;
#189 = PERSON_AND_ORGANIZATION ( #225, #315 ) ;
#190 = AXIS2_PLACEMENT_3D ( 'NONE', #141, #329, #165 ) ;
#191 = CONICAL_SURFACE ( 'NONE', #211, 0.8999999999999954703, 1.029744258676649871 ) ;
#192 = ORIENTED_EDGE ( 'NONE', *, *, #292, .T. ) ;
#193 = DIRECTION ( 'NONE',  ( -3.491481338843133355E-15, 1.224646799147353207E-16, -1.000000000000000000 ) ) ;
#194 = CARTESIAN_POINT ( 'NONE',  ( 1.326762908760390423E-13, 0.6999999999999952927, 38.00000000000000000 ) ) ;
#195 = FACE_OUTER_BOUND ( 'NONE', #169, .T. ) ;
#196 = CLOSED_SHELL ( 'NONE', ( #108, #90, #178, #226, #328 ) ) ;
#197 = DIRECTION ( 'NONE',  ( 4.275831445896958607E-31, 1.000000000000000000, 1.224646799147353207E-16 ) ) ;
#198 = EDGE_CURVE ( 'NONE', #35, #307, #130, .T. ) ;
#199 = LINE ( 'NONE', #115, #114 ) ;
#200 = ORIENTED_EDGE ( 'NONE', *, *, #198, .T. ) ;
#201 = DIRECTION ( 'NONE',  ( 0.0000000000000000000, 1.000000000000000000, 0.0000000000000000000 ) ) ;
#202 = AXIS2_PLACEMENT_3D ( 'NONE', #12, #297, #95 ) ;
#203 = EDGE_CURVE ( 'NONE', #146, #332, #324, .T. ) ;
#204 = APPLICATION_PROTOCOL_DEFINITION ( 'international standard', 'config_control_design', 1994, #23 ) ;
#205 = CC_DESIGN_DATE_AND_TIME_ASSIGNMENT ( #331, #278, ( #129 ) ) ;
#206 = ORIENTED_EDGE ( 'NONE', *, *, #184, .T. ) ;
#207 = COORDINATED_UNIVERSAL_TIME_OFFSET ( 1, 0, .AHEAD. ) ;
#208 = LOCAL_TIME ( 9, 48, 49.00000000000000000, #337 ) ;
#209 = AXIS2_PLACEMENT_3D ( 'NONE', #218, #273, #145 ) ;
#210 = DIRECTION ( 'NONE',  ( -3.491481338843133355E-15, 1.224646799147353207E-16, -1.000000000000000000 ) ) ;
#211 = AXIS2_PLACEMENT_3D ( 'NONE', #250, #65, #112 ) ;
#212 = PERSON_AND_ORGANIZATION_ROLE ( 'creator' ) ;
#213 = ORIENTED_EDGE ( 'NONE', *, *, #258, .F. ) ;
#214 = PERSON_AND_ORGANIZATION ( #225, #315 ) ;
#215 = DIRECTION ( 'NONE',  ( -3.491481338843133355E-15, 1.224646799147353207E-16, -1.000000000000000000 ) ) ;
#216 = CARTESIAN_POINT ( 'NONE',  ( 1.888104274722424374E-15, -6.622578304432228391E-17, 0.5407745571248072647 ) ) ;
#217 = ORIENTED_EDGE ( 'NONE', *, *, #198, .F. ) ;
#218 = CARTESIAN_POINT ( 'NONE',  ( 1.326762908760390423E-13, -4.653657836759941941E-15, 38.00000000000000000 ) ) ;
#219 = CARTESIAN_POINT ( 'NONE',  ( 1.319779946082704535E-13, -4.629164900776995227E-15, 37.79999999999999716 ) ) ;
#220 = SECURITY_CLASSIFICATION ( '', '', #234 ) ;
#221 = DIRECTION ( 'NONE',  ( -3.491481338843133355E-15, 1.224646799147353207E-16, -1.000000000000000000 ) ) ;
#222 = CARTESIAN_POINT ( 'NONE',  ( 1.998322486645686165E-15, 0.8999999999999953593, 0.5407745571248073757 ) ) ;
#223 = ORIENTED_EDGE ( 'NONE', *, *, #16, .F. ) ;
#224 = DIRECTION ( 'NONE',  ( 1.903218546456021928E-15, 0.8571673007021098911, 0.5150380749100583744 ) ) ;
#225 = PERSON ( 'UNSPECIFIED', 'UNSPECIFIED', 'UNSPECIFIED', ('UNSPECIFIED'), ('UNSPECIFIED'), ('UNSPECIFIED') ) ;
#226 = ADVANCED_FACE ( 'NONE', ( #243 ), #38, .T. ) ;
#227 = PERSON_AND_ORGANIZATION_ROLE ( 'design_owner' ) ;
#228 = ORIENTED_EDGE ( 'NONE', *, *, #150, .F. ) ;
#229 = DIRECTION ( 'NONE',  ( 0.0000000000000000000, 0.0000000000000000000, 1.000000000000000000 ) ) ;
#230 = APPROVAL_DATE_TIME ( #123, #139 ) ;
#231 = CC_DESIGN_APPROVAL ( #319, ( #220 ) ) ;
#232 = ORIENTED_EDGE ( 'NONE', *, *, #292, .F. ) ;
#233 = CIRCLE ( 'NONE', #40, 0.9000000000000000222 ) ;
#234 = SECURITY_CLASSIFICATION_LEVEL ( 'unclassified' ) ;
#235 = ORIENTED_EDGE ( 'NONE', *, *, #274, .T. ) ;
#236 = VECTOR ( 'NONE', #224, 1000.000000000000114 ) ;
#237 = DATE_AND_TIME ( #135, #333 ) ;
#238 = CARTESIAN_POINT ( 'NONE',  ( 3.848248301307255126E-31, 0.8999999999999982458, 1.102182119232615816E-16 ) ) ;
#239 = DIRECTION ( 'NONE',  ( 4.275831445896958607E-31, 1.000000000000000000, 1.224646799147353207E-16 ) ) ;
#240 = VERTEX_POINT ( 'NONE', #327 ) ;
#241 = DIRECTION ( 'NONE',  ( 4.279844320860545916E-31, 1.000000000000000000, 1.204669080539455507E-16 ) ) ;
#242 = ADVANCED_FACE ( 'NONE', ( #195 ), #13, .T. ) ;
#243 = FACE_OUTER_BOUND ( 'NONE', #70, .T. ) ;
#244 = CC_DESIGN_APPROVAL ( #139, ( #109 ) ) ;
#245 = DIRECTION ( 'NONE',  ( -3.491481338843133355E-15, 1.224646799147353207E-16, -1.000000000000000000 ) ) ;
#246 = PRODUCT_DEFINITION_SHAPE ( 'NONE', 'NONE',  #129 ) ;
#247 = VECTOR ( 'NONE', #193, 1000.000000000000000 ) ;
#248 = ORIENTED_EDGE ( 'NONE', *, *, #63, .T. ) ;
#249 = CARTESIAN_POINT ( 'NONE',  ( 1.888104274722424374E-15, -6.622578304432228391E-17, 0.5407745571248072647 ) ) ;
#250 = CARTESIAN_POINT ( 'NONE',  ( 1.888104274722424374E-15, -6.622578304432228391E-17, 0.5407745571248072647 ) ) ;
#251 = EDGE_LOOP ( 'NONE', ( #171, #73, #47, #301 ) ) ;
#252 = EDGE_CURVE ( 'NONE', #332, #240, #199, .T. ) ;
#253 =( LENGTH_UNIT ( ) NAMED_UNIT ( * ) SI_UNIT ( .MILLI., .METRE. ) );
#254 = CC_DESIGN_SECURITY_CLASSIFICATION ( #220, ( #109 ) ) ;
#255 = FACE_OUTER_BOUND ( 'NONE', #62, .T. ) ;
#256 = ADVANCED_FACE ( 'NONE', ( #322 ), #89, .F. ) ;
#257 = CALENDAR_DATE ( 2021, 3, 9 ) ;
#258 = EDGE_CURVE ( 'NONE', #330, #35, #113, .T. ) ;
#259 = FACE_OUTER_BOUND ( 'NONE', #120, .T. ) ;
#260 = APPROVAL_STATUS ( 'not_yet_approved' ) ;
#261 = DIRECTION ( 'NONE',  ( -2.468850131082257455E-15, 0.7071067811865497932, -0.7071067811865453523 ) ) ;
#262 = VECTOR ( 'NONE', #300, 1000.000000000000000 ) ;
#263 = CIRCLE ( 'NONE', #335, 0.8999999999999963585 ) ;
#264 = CC_DESIGN_DATE_AND_TIME_ASSIGNMENT ( #237, #82, ( #220 ) ) ;
#265 = ORIENTED_EDGE ( 'NONE', *, *, #3, .F. ) ;
#266 = VERTEX_POINT ( 'NONE', #69 ) ;
#267 = VERTEX_POINT ( 'NONE', #140 ) ;
#268 = CARTESIAN_POINT ( 'NONE',  ( 1.888104274722423980E-15, -0.8999999999999955813, 0.5407745571248071537 ) ) ;
#269 = CARTESIAN_POINT ( 'NONE',  ( 1.326762908760390423E-13, 5.249159239316431836E-33, 38.00000000000000000 ) ) ;
#270 = PRODUCT ( '54506', '54506', '', ( #183 ) ) ;
#271 = DIRECTION ( 'NONE',  ( 4.279844320860545916E-31, 1.000000000000000000, 1.204669080539455507E-16 ) ) ;
#272 = CARTESIAN_POINT ( 'NONE',  ( 1.319779946082704535E-13, -4.629164900776995227E-15, 37.79999999999999716 ) ) ;
#273 = DIRECTION ( 'NONE',  ( -3.491481338843133355E-15, 1.224646799147353207E-16, -1.000000000000000000 ) ) ;
#274 = EDGE_CURVE ( 'NONE', #128, #266, #7, .T. ) ;
#275 = ORIENTED_EDGE ( 'NONE', *, *, #30, .F. ) ;
#276 =( NAMED_UNIT ( * ) PLANE_ANGLE_UNIT ( ) SI_UNIT ( $, .RADIAN. ) );
#277 = ORIENTED_EDGE ( 'NONE', *, *, #258, .T. ) ;
#278 = DATE_TIME_ROLE ( 'creation_date' ) ;
#279 = VECTOR ( 'NONE', #310, 1000.000000000000000 ) ;
#280 = ADVANCED_FACE ( 'NONE', ( #143 ), #41, .T. ) ;
#281 = FACE_OUTER_BOUND ( 'NONE', #17, .T. ) ;
#282 = CYLINDRICAL_SURFACE ( 'NONE', #75, 0.8999999999999982458 ) ;
#283 = PERSON_AND_ORGANIZATION ( #225, #315 ) ;
#284 = AXIS2_PLACEMENT_3D ( 'NONE', #269, #64, #37 ) ;
#285 = DATE_AND_TIME ( #2, #148 ) ;
#286 = DESIGN_CONTEXT ( 'detailed design', #23, 'design' ) ;
#287 = MANIFOLD_SOLID_BREP ( 'Corps-Déplacer/Copier1[1]', #8 ) ;
#288 = COORDINATED_UNIVERSAL_TIME_OFFSET ( 1, 0, .AHEAD. ) ;
#289 = DIRECTION ( 'NONE',  ( 3.491481338843133355E-15, -1.224646799147353207E-16, 1.000000000000000000 ) ) ;
#290 = LOCAL_TIME ( 9, 48, 49.00000000000000000, #207 ) ;
#291 = VECTOR ( 'NONE', #261, 1000.000000000000114 ) ;
#292 = EDGE_CURVE ( 'NONE', #307, #35, #158, .T. ) ;
#293 = VERTEX_POINT ( 'NONE', #10 ) ;
#294 = CC_DESIGN_PERSON_AND_ORGANIZATION_ASSIGNMENT ( #214, #212, ( #109 ) ) ;
#295 = LINE ( 'NONE', #154, #291 ) ;
#296 = APPROVAL_PERSON_ORGANIZATION ( #51, #139, #99 ) ;
#297 = DIRECTION ( 'NONE',  ( -3.491481338843133355E-15, 1.224646799147353207E-16, -1.000000000000000000 ) ) ;
#298 = DIRECTION ( 'NONE',  ( 0.0000000000000000000, 1.000000000000000000, 0.0000000000000000000 ) ) ;
#299 = EDGE_LOOP ( 'NONE', ( #275, #228 ) ) ;
#300 = DIRECTION ( 'NONE',  ( 1.798245827342159528E-15, -0.8571673007021100021, 0.5150380749100580413 ) ) ;
#301 = ORIENTED_EDGE ( 'NONE', *, *, #124, .F. ) ;
#302 = AXIS2_PLACEMENT_3D ( 'NONE', #249, #245, #241 ) ;
#303 = DIRECTION ( 'NONE',  ( -3.491481338843133355E-15, 1.224646799147353207E-16, -1.000000000000000000 ) ) ;
#304 = DIRECTION ( 'NONE',  ( 3.491481338843133355E-15, -1.224646799147353207E-16, 1.000000000000000000 ) ) ;
#305 = ORIENTED_EDGE ( 'NONE', *, *, #274, .F. ) ;
#306 = CARTESIAN_POINT ( 'NONE',  ( 0.0000000000000000000, 0.0000000000000000000, 0.0000000000000000000 ) ) ;
#307 = VERTEX_POINT ( 'NONE', #222 ) ;
#308 = CC_DESIGN_APPROVAL ( #166, ( #129 ) ) ;
#309 = CIRCLE ( 'NONE', #87, 0.6999999999999999556 ) ;
#310 = DIRECTION ( 'NONE',  ( -3.491481338843133355E-15, 1.224646799147353207E-16, -1.000000000000000000 ) ) ;
#311 = PERSON_AND_ORGANIZATION ( #225, #315 ) ;
#312 = DIRECTION ( 'NONE',  ( -3.491481338843133355E-15, 1.224646799147353207E-16, -1.000000000000000000 ) ) ;
#313 = CARTESIAN_POINT ( 'NONE',  ( 3.142333204958820020E-14, -1.102182119232617714E-15, 9.000000000000000000 ) ) ;
#314 = ADVANCED_BREP_SHAPE_REPRESENTATION ( '54506', ( #287, #186, #20 ), #126 ) ;
#315 = ORGANIZATION ( 'UNSPECIFIED', 'UNSPECIFIED', '' ) ;
#316 = APPROVAL_STATUS ( 'not_yet_approved' ) ;
#317 = EDGE_CURVE ( 'NONE', #330, #307, #94, .T. ) ;
#318 = CYLINDRICAL_SURFACE ( 'NONE', #160, 0.8999999999999958034 ) ;
#319 = APPROVAL ( #316, 'UNSPECIFIED' ) ;
#320 = ORIENTED_EDGE ( 'NONE', *, *, #203, .F. ) ;
#321 = ADVANCED_FACE ( 'NONE', ( #255 ), #147, .F. ) ;
#322 = FACE_OUTER_BOUND ( 'NONE', #175, .T. ) ;
#323 = DIRECTION ( 'NONE',  ( -3.491481338843133355E-15, 1.224646799147353207E-16, -1.000000000000000000 ) ) ;
#324 = CIRCLE ( 'NONE', #209, 0.6999999999999999556 ) ;
#325 = CIRCLE ( 'NONE', #177, 0.9000000000000000222 ) ;
#326 = DIRECTION ( 'NONE',  ( -2.382254525458708792E-15, -0.7071067811865495711, -0.7071067811865455743 ) ) ;
#327 = CARTESIAN_POINT ( 'NONE',  ( 8.181088154085238272E-14, -0.9000000000000046851, 37.79999999999999716 ) ) ;
#328 = ADVANCED_FACE ( 'NONE', ( #119 ), #96, .T. ) ;
#329 = DIRECTION ( 'NONE',  ( -3.491481338843133355E-15, 1.224646799147353207E-16, -1.000000000000000000 ) ) ;
#330 = VERTEX_POINT ( 'NONE', #306 ) ;
#331 = DATE_AND_TIME ( #50, #208 ) ;
#332 = VERTEX_POINT ( 'NONE', #153 ) ;
#333 = LOCAL_TIME ( 9, 48, 49.00000000000000000, #83 ) ;
#334 = DIRECTION ( 'NONE',  ( 3.491481338843133355E-15, -1.224646799147353207E-16, 1.000000000000000000 ) ) ;
#335 = AXIS2_PLACEMENT_3D ( 'NONE', #15, #71, #201 ) ;
#336 = CARTESIAN_POINT ( 'NONE',  ( 1.326762908760390423E-13, -4.653657836759941941E-15, 38.00000000000000000 ) ) ;
#337 = COORDINATED_UNIVERSAL_TIME_OFFSET ( 1, 0, .AHEAD. ) ;
ENDSEC;
END-ISO-10303-21;
