ISO-10303-21;
HEADER;
FILE_DESCRIPTION (( 'STEP AP203' ),
    '1' );
FILE_NAME ('54505.step',
    '2021-09-03T07:48:47',
    ( '' ),
    ( '' ),
    'SwSTEP 2.0',
    'SolidWorks 2019',
    '' );
FILE_SCHEMA (( 'CONFIG_CONTROL_DESIGN' ));
ENDSEC;

DATA;
#1 = AXIS2_PLACEMENT_3D ( 'NONE', #155, #332, #283 ) ;
#2 = CC_DESIGN_APPROVAL ( #211, ( #147 ) ) ;
#3 = PRODUCT_DEFINITION_SHAPE ( 'NONE', 'NONE',  #262 ) ;
#4 =( NAMED_UNIT ( * ) SI_UNIT ( $, .STERADIAN. ) SOLID_ANGLE_UNIT ( ) );
#5 = AXIS2_PLACEMENT_3D ( 'NONE', #34, #26, #266 ) ;
#6 = ORIENTED_EDGE ( 'NONE', *, *, #131, .T. ) ;
#7 = DIRECTION ( 'NONE',  ( 0.0000000000000000000, 1.000000000000000000, 0.0000000000000000000 ) ) ;
#8 = EDGE_LOOP ( 'NONE', ( #145, #175, #247 ) ) ;
#9 = LINE ( 'NONE', #169, #288 ) ;
#10 = EDGE_LOOP ( 'NONE', ( #54, #112, #63, #118 ) ) ;
#11 = PERSON_AND_ORGANIZATION ( #72, #199 ) ;
#12 = LOCAL_TIME ( 9, 48, 47.00000000000000000, #18 ) ;
#13 = CARTESIAN_POINT ( 'NONE',  ( 3.741352515159821921E-31, 0.8749999999999960032, 1.071565949253929095E-16 ) ) ;
#14 = MECHANICAL_CONTEXT ( 'NONE', #104, 'mechanical' ) ;
#15 = DIRECTION ( 'NONE',  ( -3.491481338843133355E-15, 1.224646799147353207E-16, -1.000000000000000000 ) ) ;
#16 = APPROVAL_STATUS ( 'not_yet_approved' ) ;
#17 = CARTESIAN_POINT ( 'NONE',  ( 1.326762908760390423E-13, 5.061689266483700319E-33, 38.00000000000000000 ) ) ;
#18 = COORDINATED_UNIVERSAL_TIME_OFFSET ( 1, 0, .AHEAD. ) ;
#19 = DIRECTION ( 'NONE',  ( 4.402125587170847703E-31, 1.000000000000000000, 1.239088197126297226E-16 ) ) ;
#20 = AXIS2_PLACEMENT_3D ( 'NONE', #129, #44, #97 ) ;
#21 = CARTESIAN_POINT ( 'NONE',  ( 1.326762908760390423E-13, 0.6749999999999953815, 38.00000000000000000 ) ) ;
#22 = DIRECTION ( 'NONE',  ( -3.491481338843133355E-15, 1.224646799147353207E-16, -1.000000000000000000 ) ) ;
#23 = DIRECTION ( 'NONE',  ( 4.275831445896958607E-31, 1.000000000000000000, 1.224646799147353207E-16 ) ) ;
#24 = VECTOR ( 'NONE', #74, 1000.000000000000000 ) ;
#25 = DIRECTION ( 'NONE',  ( -3.491481338843133355E-15, 1.224646799147353207E-16, -1.000000000000000000 ) ) ;
#26 = DIRECTION ( 'NONE',  ( -3.491481338843133355E-15, 1.224646799147353207E-16, -1.000000000000000000 ) ) ;
#27 = CIRCLE ( 'NONE', #284, 0.8749999999999964473 ) ;
#28 = EDGE_CURVE ( 'NONE', #138, #198, #39, .T. ) ;
#29 = CARTESIAN_POINT ( 'NONE',  ( 0.0000000000000000000, 0.0000000000000000000, 0.0000000000000000000 ) ) ;
#30 = ORIENTED_EDGE ( 'NONE', *, *, #190, .F. ) ;
#31 = CARTESIAN_POINT ( 'NONE',  ( 3.142333204958820020E-14, 0.8749999999999953371, 9.000000000000000000 ) ) ;
#32 = AXIS2_PLACEMENT_3D ( 'NONE', #305, #103, #23 ) ;
#33 = VERTEX_POINT ( 'NONE', #35 ) ;
#34 = CARTESIAN_POINT ( 'NONE',  ( 1.326762908760390423E-13, -4.653657836759941941E-15, 38.00000000000000000 ) ) ;
#35 = CARTESIAN_POINT ( 'NONE',  ( 1.324220528690886543E-13, -0.6750000000000047073, 38.00000000000000000 ) ) ;
#36 = EDGE_LOOP ( 'NONE', ( #271, #201, #203, #318 ) ) ;
#37 = APPROVAL_DATE_TIME ( #149, #211 ) ;
#38 = AXIS2_PLACEMENT_3D ( 'NONE', #185, #157, #259 ) ;
#39 = LINE ( 'NONE', #249, #152 ) ;
#40 = CC_DESIGN_SECURITY_CLASSIFICATION ( #147, ( #251 ) ) ;
#41 = CIRCLE ( 'NONE', #156, 0.8749999999999954481 ) ;
#42 = CARTESIAN_POINT ( 'NONE',  ( 1.835656933757912959E-15, -6.438617795975778185E-17, 0.5257530416491182912 ) ) ;
#43 = APPROVAL_ROLE ( '' ) ;
#44 = DIRECTION ( 'NONE',  ( -3.491481338843133355E-15, 1.224646799147353207E-16, -1.000000000000000000 ) ) ;
#45 = PERSON_AND_ORGANIZATION_ROLE ( 'classification_officer' ) ;
#46 = EDGE_CURVE ( 'NONE', #205, #328, #143, .T. ) ;
#47 = CARTESIAN_POINT ( 'NONE',  ( 3.142333204958820020E-14, -1.102182119232617714E-15, 9.000000000000000000 ) ) ;
#48 = CIRCLE ( 'NONE', #38, 0.8749999999999964473 ) ;
#49 = DIRECTION ( 'NONE',  ( 4.275831445896958607E-31, 1.000000000000000000, 1.224646799147353207E-16 ) ) ;
#50 = CC_DESIGN_PERSON_AND_ORGANIZATION_ASSIGNMENT ( #202, #281, ( #251 ) ) ;
#51 = CYLINDRICAL_SURFACE ( 'NONE', #20, 0.8749999999999960032 ) ;
#52 = AXIS2_PLACEMENT_3D ( 'NONE', #81, #317, #160 ) ;
#53 = CIRCLE ( 'NONE', #1, 0.6750000000000000444 ) ;
#54 = ORIENTED_EDGE ( 'NONE', *, *, #28, .F. ) ;
#55 = CARTESIAN_POINT ( 'NONE',  ( 1.319779946082704535E-13, -4.629164900776995227E-15, 37.79999999999999716 ) ) ;
#56 = MANIFOLD_SOLID_BREP ( 'Corps-Déplacer/Copier1[2]', #106 ) ;
#57 = ORIENTED_EDGE ( 'NONE', *, *, #190, .T. ) ;
#58 = FACE_OUTER_BOUND ( 'NONE', #222, .T. ) ;
#59 = EDGE_CURVE ( 'NONE', #198, #328, #41, .T. ) ;
#60 = AXIS2_PLACEMENT_3D ( 'NONE', #264, #337, #79 ) ;
#61 = ORIENTED_EDGE ( 'NONE', *, *, #314, .F. ) ;
#62 = DIRECTION ( 'NONE',  ( 1.000000000000000000, 0.0000000000000000000, 0.0000000000000000000 ) ) ;
#63 = ORIENTED_EDGE ( 'NONE', *, *, #46, .T. ) ;
#64 = MANIFOLD_SOLID_BREP ( 'Corps-Déplacer/Copier1[1]', #291 ) ;
#65 = APPLICATION_PROTOCOL_DEFINITION ( 'international standard', 'config_control_design', 1994, #70 ) ;
#66 = EDGE_LOOP ( 'NONE', ( #30, #243 ) ) ;
#67 = CONICAL_SURFACE ( 'NONE', #315, 0.6750000000000000444, 0.7853981633974512766 ) ;
#68 = DIRECTION ( 'NONE',  ( 1.903218546456022717E-15, 0.8571673007021097801, 0.5150380749100585964 ) ) ;
#69 = ADVANCED_FACE ( 'NONE', ( #150 ), #333, .T. ) ;
#70 = APPLICATION_CONTEXT ( 'configuration controlled 3d designs of mechanical parts and assemblies' ) ;
#71 = DIRECTION ( 'NONE',  ( -4.402125587170847703E-31, -1.000000000000000000, -1.239088197126297226E-16 ) ) ;
#72 = PERSON ( 'UNSPECIFIED', 'UNSPECIFIED', 'UNSPECIFIED', ('UNSPECIFIED'), ('UNSPECIFIED'), ('UNSPECIFIED') ) ;
#73 = EDGE_CURVE ( 'NONE', #33, #93, #236, .T. ) ;
#74 = DIRECTION ( 'NONE',  ( 1.798245827342160317E-15, -0.8571673007021098911, 0.5150380749100582634 ) ) ;
#75 = DIRECTION ( 'NONE',  ( 3.491481338843133355E-15, -1.224646799147353207E-16, 1.000000000000000000 ) ) ;
#76 = CIRCLE ( 'NONE', #212, 0.8750000000000000000 ) ;
#77 = DIRECTION ( 'NONE',  ( -3.491481338843133355E-15, 1.224646799147353207E-16, -1.000000000000000000 ) ) ;
#78 = FACE_OUTER_BOUND ( 'NONE', #115, .T. ) ;
#79 = DIRECTION ( 'NONE',  ( -4.402125587170847703E-31, -1.000000000000000000, -1.239088197126297226E-16 ) ) ;
#80 = CONICAL_SURFACE ( 'NONE', #301, 0.8749999999999954481, 1.029744258676649649 ) ;
#81 = CARTESIAN_POINT ( 'NONE',  ( 1.835656933757912959E-15, -6.438617795975778185E-17, 0.5257530416491182912 ) ) ;
#82 = EDGE_CURVE ( 'NONE', #120, #148, #209, .T. ) ;
#83 = DESIGN_CONTEXT ( 'detailed design', #70, 'design' ) ;
#84 = VECTOR ( 'NONE', #208, 1000.000000000000000 ) ;
#85 = FACE_OUTER_BOUND ( 'NONE', #88, .T. ) ;
#86 = ORIENTED_EDGE ( 'NONE', *, *, #183, .F. ) ;
#87 = CARTESIAN_POINT ( 'NONE',  ( 3.142333204958820020E-14, 6.561449049145583244E-33, 9.000000000000000000 ) ) ;
#88 = EDGE_LOOP ( 'NONE', ( #196, #166 ) ) ;
#89 = AXIS2_PLACEMENT_3D ( 'NONE', #303, #300, #278 ) ;
#90 = VERTEX_POINT ( 'NONE', #122 ) ;
#91 = ADVANCED_FACE ( 'NONE', ( #178 ), #280, .T. ) ;
#92 = PERSON_AND_ORGANIZATION_ROLE ( 'creator' ) ;
#93 = VERTEX_POINT ( 'NONE', #309 ) ;
#94 = VERTEX_POINT ( 'NONE', #285 ) ;
#95 = CARTESIAN_POINT ( 'NONE',  ( 1.835656933757912564E-15, -0.8749999999999955591, 0.5257530416491181802 ) ) ;
#96 = CALENDAR_DATE ( 2021, 3, 9 ) ;
#97 = DIRECTION ( 'NONE',  ( 4.275831445896958607E-31, 1.000000000000000000, 1.224646799147353207E-16 ) ) ;
#98 = ADVANCED_BREP_SHAPE_REPRESENTATION ( '54505', ( #64, #56, #139 ), #154 ) ;
#99 = DIRECTION ( 'NONE',  ( 0.0000000000000000000, 1.000000000000000000, 0.0000000000000000000 ) ) ;
#100 = FACE_OUTER_BOUND ( 'NONE', #66, .T. ) ;
#101 = LOCAL_TIME ( 9, 48, 47.00000000000000000, #206 ) ;
#102 = EDGE_CURVE ( 'NONE', #90, #224, #184, .T. ) ;
#103 = DIRECTION ( 'NONE',  ( -3.491481338843133355E-15, 1.224646799147353207E-16, -1.000000000000000000 ) ) ;
#104 = APPLICATION_CONTEXT ( 'configuration controlled 3d designs of mechanical parts and assemblies' ) ;
#105 = DIRECTION ( 'NONE',  ( 4.275831445896958607E-31, 1.000000000000000000, 1.224646799147353207E-16 ) ) ;
#106 = CLOSED_SHELL ( 'NONE', ( #128, #187, #261, #91, #308 ) ) ;
#107 = DIRECTION ( 'NONE',  ( -3.491481338843133355E-15, 1.224646799147353207E-16, -1.000000000000000000 ) ) ;
#108 = CIRCLE ( 'NONE', #52, 0.8749999999999954481 ) ;
#109 = AXIS2_PLACEMENT_3D ( 'NONE', #87, #312, #113 ) ;
#110 = CARTESIAN_POINT ( 'NONE',  ( 3.142333204958820020E-14, 6.561449049145583244E-33, 9.000000000000000000 ) ) ;
#111 = APPROVAL ( #16, 'UNSPECIFIED' ) ;
#112 = ORIENTED_EDGE ( 'NONE', *, *, #142, .T. ) ;
#113 = DIRECTION ( 'NONE',  ( -4.275831445896958607E-31, -1.000000000000000000, -1.224646799147353207E-16 ) ) ;
#114 = EDGE_LOOP ( 'NONE', ( #57, #173, #275, #324 ) ) ;
#115 = EDGE_LOOP ( 'NONE', ( #61, #6, #292, #320 ) ) ;
#116 = CARTESIAN_POINT ( 'NONE',  ( 0.0000000000000000000, 0.0000000000000000000, 0.0000000000000000000 ) ) ;
#117 = CONICAL_SURFACE ( 'NONE', #60, 0.8749999999999954481, 1.029744258676649649 ) ;
#118 = ORIENTED_EDGE ( 'NONE', *, *, #59, .F. ) ;
#119 = DATE_AND_TIME ( #144, #101 ) ;
#120 = VERTEX_POINT ( 'NONE', #21 ) ;
#121 = PERSON_AND_ORGANIZATION ( #72, #199 ) ;
#122 = CARTESIAN_POINT ( 'NONE',  ( 8.180781992385467275E-14, -0.8749999999999975575, 9.000000000000000000 ) ) ;
#123 = APPROVAL_DATE_TIME ( #225, #137 ) ;
#124 = CIRCLE ( 'NONE', #134, 0.8749999999999964473 ) ;
#125 = FACE_OUTER_BOUND ( 'NONE', #269, .T. ) ;
#126 = DIRECTION ( 'NONE',  ( -2.382254525458708792E-15, -0.7071067811865495711, -0.7071067811865455743 ) ) ;
#127 = CARTESIAN_POINT ( 'NONE',  ( 3.142333204958820020E-14, -1.102182119232617714E-15, 9.000000000000000000 ) ) ;
#128 = ADVANCED_FACE ( 'NONE', ( #334 ), #51, .T. ) ;
#129 = CARTESIAN_POINT ( 'NONE',  ( 0.0000000000000000000, 0.0000000000000000000, 0.0000000000000000000 ) ) ;
#130 = AXIS2_PLACEMENT_3D ( 'NONE', #29, #136, #105 ) ;
#131 = EDGE_CURVE ( 'NONE', #93, #148, #231, .T. ) ;
#132 = FACE_OUTER_BOUND ( 'NONE', #170, .T. ) ;
#133 = PRODUCT_RELATED_PRODUCT_CATEGORY ( 'detail', '', ( #165 ) ) ;
#134 = AXIS2_PLACEMENT_3D ( 'NONE', #140, #265, #7 ) ;
#135 = EDGE_CURVE ( 'NONE', #94, #328, #238, .T. ) ;
#136 = DIRECTION ( 'NONE',  ( -3.491481338843133355E-15, 1.224646799147353207E-16, -1.000000000000000000 ) ) ;
#137 = APPROVAL ( #248, 'UNSPECIFIED' ) ;
#138 = VERTEX_POINT ( 'NONE', #213 ) ;
#139 = AXIS2_PLACEMENT_3D ( 'NONE', #116, #304, #62 ) ;
#140 = CARTESIAN_POINT ( 'NONE',  ( 3.142333204958820020E-14, -1.102182119232617714E-15, 9.000000000000000000 ) ) ;
#141 = ORIENTED_EDGE ( 'NONE', *, *, #142, .F. ) ;
#142 = EDGE_CURVE ( 'NONE', #138, #205, #27, .T. ) ;
#143 = LINE ( 'NONE', #13, #191 ) ;
#144 = CALENDAR_DATE ( 2021, 3, 9 ) ;
#145 = ORIENTED_EDGE ( 'NONE', *, *, #135, .F. ) ;
#146 = SHAPE_DEFINITION_REPRESENTATION ( #3, #98 ) ;
#147 = SECURITY_CLASSIFICATION ( '', '', #302 ) ;
#148 = VERTEX_POINT ( 'NONE', #186 ) ;
#149 = DATE_AND_TIME ( #96, #241 ) ;
#150 = FACE_OUTER_BOUND ( 'NONE', #267, .T. ) ;
#151 = COORDINATED_UNIVERSAL_TIME_OFFSET ( 1, 0, .AHEAD. ) ;
#152 = VECTOR ( 'NONE', #252, 1000.000000000000000 ) ;
#153 = CARTESIAN_POINT ( 'NONE',  ( 0.0000000000000000000, 0.0000000000000000000, 0.0000000000000000000 ) ) ;
#154 =( GEOMETRIC_REPRESENTATION_CONTEXT ( 3 ) GLOBAL_UNCERTAINTY_ASSIGNED_CONTEXT ( ( #313 ) ) GLOBAL_UNIT_ASSIGNED_CONTEXT ( ( #287, #242, #4 ) ) REPRESENTATION_CONTEXT ( 'NONE', 'WORKASPACE' ) );
#155 = CARTESIAN_POINT ( 'NONE',  ( 1.326762908760390423E-13, -4.653657836759941941E-15, 38.00000000000000000 ) ) ;
#156 = AXIS2_PLACEMENT_3D ( 'NONE', #42, #22, #19 ) ;
#157 = DIRECTION ( 'NONE',  ( -3.491481338843133355E-15, 1.224646799147353207E-16, -1.000000000000000000 ) ) ;
#158 = ADVANCED_FACE ( 'NONE', ( #100 ), #306, .F. ) ;
#159 = DIRECTION ( 'NONE',  ( -3.491481338843133355E-15, 1.224646799147353207E-16, -1.000000000000000000 ) ) ;
#160 = DIRECTION ( 'NONE',  ( 4.402125587170847703E-31, 1.000000000000000000, 1.239088197126297226E-16 ) ) ;
#161 = AXIS2_PLACEMENT_3D ( 'NONE', #110, #192, #293 ) ;
#162 = CARTESIAN_POINT ( 'NONE',  ( 3.142333204958820020E-14, 0.8749999999999953371, 9.000000000000000000 ) ) ;
#163 = CC_DESIGN_PERSON_AND_ORGANIZATION_ASSIGNMENT ( #121, #327, ( #262 ) ) ;
#164 = APPROVAL_PERSON_ORGANIZATION ( #272, #111, #43 ) ;
#165 = PRODUCT ( '54505', '54505', '', ( #14 ) ) ;
#166 = ORIENTED_EDGE ( 'NONE', *, *, #102, .T. ) ;
#167 = ORIENTED_EDGE ( 'NONE', *, *, #330, .T. ) ;
#168 = EDGE_CURVE ( 'NONE', #94, #198, #257, .T. ) ;
#169 = CARTESIAN_POINT ( 'NONE',  ( 1.071565949253928232E-16, -0.8749999999999982236, -1.071565949253935505E-16 ) ) ;
#170 = EDGE_LOOP ( 'NONE', ( #274, #141 ) ) ;
#171 = CALENDAR_DATE ( 2021, 3, 9 ) ;
#172 = CC_DESIGN_PERSON_AND_ORGANIZATION_ASSIGNMENT ( #277, #92, ( #251 ) ) ;
#173 = ORIENTED_EDGE ( 'NONE', *, *, #73, .T. ) ;
#174 = CALENDAR_DATE ( 2021, 3, 9 ) ;
#175 = ORIENTED_EDGE ( 'NONE', *, *, #168, .T. ) ;
#176 = COORDINATED_UNIVERSAL_TIME_OFFSET ( 1, 0, .AHEAD. ) ;
#177 = VECTOR ( 'NONE', #182, 1000.000000000000114 ) ;
#178 = FACE_OUTER_BOUND ( 'NONE', #10, .T. ) ;
#179 = CALENDAR_DATE ( 2021, 3, 9 ) ;
#180 = DIRECTION ( 'NONE',  ( -3.491481338843133355E-15, 1.224646799147353207E-16, -1.000000000000000000 ) ) ;
#181 = APPROVAL_DATE_TIME ( #119, #111 ) ;
#182 = DIRECTION ( 'NONE',  ( -2.468850131082257455E-15, 0.7071067811865497932, -0.7071067811865453523 ) ) ;
#183 = EDGE_CURVE ( 'NONE', #148, #224, #336, .T. ) ;
#184 = CIRCLE ( 'NONE', #263, 0.8749999999999964473 ) ;
#185 = CARTESIAN_POINT ( 'NONE',  ( 3.142333204958820020E-14, -1.102182119232617714E-15, 9.000000000000000000 ) ) ;
#186 = CARTESIAN_POINT ( 'NONE',  ( 1.319779946082704535E-13, 0.8749999999999953371, 37.79999999999999716 ) ) ;
#187 = ADVANCED_FACE ( 'NONE', ( #125 ), #80, .T. ) ;
#188 = FACE_OUTER_BOUND ( 'NONE', #8, .T. ) ;
#189 = CARTESIAN_POINT ( 'NONE',  ( 1.942813528683306213E-15, 0.8749999999999953371, 0.5257530416491184022 ) ) ;
#190 = EDGE_CURVE ( 'NONE', #120, #33, #53, .T. ) ;
#191 = VECTOR ( 'NONE', #15, 1000.000000000000000 ) ;
#192 = DIRECTION ( 'NONE',  ( 3.491481338843133355E-15, -1.224646799147353207E-16, 1.000000000000000000 ) ) ;
#193 = ORIENTED_EDGE ( 'NONE', *, *, #73, .F. ) ;
#194 = EDGE_CURVE ( 'NONE', #205, #138, #48, .T. ) ;
#195 = APPROVAL_PERSON_ORGANIZATION ( #223, #211, #228 ) ;
#196 = ORIENTED_EDGE ( 'NONE', *, *, #233, .T. ) ;
#197 = DIRECTION ( 'NONE',  ( 0.0000000000000000000, 1.000000000000000000, 0.0000000000000000000 ) ) ;
#198 = VERTEX_POINT ( 'NONE', #215 ) ;
#199 = ORGANIZATION ( 'UNSPECIFIED', 'UNSPECIFIED', '' ) ;
#200 = APPROVAL_ROLE ( '' ) ;
#201 = ORIENTED_EDGE ( 'NONE', *, *, #28, .T. ) ;
#202 = PERSON_AND_ORGANIZATION ( #72, #199 ) ;
#203 = ORIENTED_EDGE ( 'NONE', *, *, #217, .F. ) ;
#204 = ADVANCED_FACE ( 'NONE', ( #311 ), #67, .T. ) ;
#205 = VERTEX_POINT ( 'NONE', #162 ) ;
#206 = COORDINATED_UNIVERSAL_TIME_OFFSET ( 1, 0, .AHEAD. ) ;
#207 = AXIS2_PLACEMENT_3D ( 'NONE', #214, #270, #268 ) ;
#208 = DIRECTION ( 'NONE',  ( -3.491481338843133355E-15, 1.224646799147353207E-16, -1.000000000000000000 ) ) ;
#209 = LINE ( 'NONE', #210, #177 ) ;
#210 = CARTESIAN_POINT ( 'NONE',  ( 1.326762908760390423E-13, 0.6749999999999953815, 38.00000000000000000 ) ) ;
#211 = APPROVAL ( #331, 'UNSPECIFIED' ) ;
#212 = AXIS2_PLACEMENT_3D ( 'NONE', #55, #245, #197 ) ;
#213 = CARTESIAN_POINT ( 'NONE',  ( 1.673665108659843346E-14, -0.8749999999999974465, 9.000000000000000000 ) ) ;
#214 = CARTESIAN_POINT ( 'NONE',  ( 1.326762908760390423E-13, -4.653657836759941941E-15, 38.00000000000000000 ) ) ;
#215 = CARTESIAN_POINT ( 'NONE',  ( 1.835656933757912564E-15, -0.8749999999999955591, 0.5257530416491181802 ) ) ;
#216 = CYLINDRICAL_SURFACE ( 'NONE', #130, 0.8749999999999982236 ) ;
#217 = EDGE_CURVE ( 'NONE', #328, #198, #108, .T. ) ;
#218 = AXIS2_PLACEMENT_3D ( 'NONE', #153, #180, #260 ) ;
#219 = APPLICATION_PROTOCOL_DEFINITION ( 'international standard', 'config_control_design', 1994, #104 ) ;
#220 = ORIENTED_EDGE ( 'NONE', *, *, #314, .T. ) ;
#221 = CARTESIAN_POINT ( 'NONE',  ( 1.326762908760390423E-13, -4.653657836759941941E-15, 38.00000000000000000 ) ) ;
#222 = EDGE_LOOP ( 'NONE', ( #193, #167, #226, #227 ) ) ;
#223 = PERSON_AND_ORGANIZATION ( #72, #199 ) ;
#224 = VERTEX_POINT ( 'NONE', #31 ) ;
#225 = DATE_AND_TIME ( #179, #12 ) ;
#226 = ORIENTED_EDGE ( 'NONE', *, *, #82, .T. ) ;
#227 = ORIENTED_EDGE ( 'NONE', *, *, #131, .F. ) ;
#228 = APPROVAL_ROLE ( '' ) ;
#229 = CARTESIAN_POINT ( 'NONE',  ( 1.942813528683306213E-15, 0.8749999999999953371, 0.5257530416491184022 ) ) ;
#230 = COORDINATED_UNIVERSAL_TIME_OFFSET ( 1, 0, .AHEAD. ) ;
#231 = CIRCLE ( 'NONE', #89, 0.8750000000000000000 ) ;
#232 = CARTESIAN_POINT ( 'NONE',  ( 1.835656933757912959E-15, -6.438617795975778185E-17, 0.5257530416491182912 ) ) ;
#233 = EDGE_CURVE ( 'NONE', #224, #90, #124, .T. ) ;
#234 = DIRECTION ( 'NONE',  ( -3.491481338843133355E-15, 1.224646799147353207E-16, -1.000000000000000000 ) ) ;
#235 = CC_DESIGN_DATE_AND_TIME_ASSIGNMENT ( #299, #279, ( #262 ) ) ;
#236 = LINE ( 'NONE', #286, #237 ) ;
#237 = VECTOR ( 'NONE', #126, 1000.000000000000114 ) ;
#238 = LINE ( 'NONE', #229, #244 ) ;
#239 = CC_DESIGN_APPROVAL ( #137, ( #262 ) ) ;
#240 = APPROVAL_PERSON_ORGANIZATION ( #297, #137, #200 ) ;
#241 = LOCAL_TIME ( 9, 48, 47.00000000000000000, #176 ) ;
#242 =( NAMED_UNIT ( * ) PLANE_ANGLE_UNIT ( ) SI_UNIT ( $, .RADIAN. ) );
#243 = ORIENTED_EDGE ( 'NONE', *, *, #330, .F. ) ;
#244 = VECTOR ( 'NONE', #68, 999.9999999999998863 ) ;
#245 = DIRECTION ( 'NONE',  ( -3.491481338843133355E-15, 1.224646799147353207E-16, -1.000000000000000000 ) ) ;
#246 = ORIENTED_EDGE ( 'NONE', *, *, #295, .T. ) ;
#247 = ORIENTED_EDGE ( 'NONE', *, *, #59, .T. ) ;
#248 = APPROVAL_STATUS ( 'not_yet_approved' ) ;
#249 = CARTESIAN_POINT ( 'NONE',  ( 1.071565949253925521E-16, -0.8749999999999960032, -1.071565949253932916E-16 ) ) ;
#250 = ADVANCED_FACE ( 'NONE', ( #78 ), #216, .T. ) ;
#251 = PRODUCT_DEFINITION_FORMATION_WITH_SPECIFIED_SOURCE ( 'ANY', '', #165, .NOT_KNOWN. ) ;
#252 = DIRECTION ( 'NONE',  ( -3.491481338843133355E-15, 1.224646799147353207E-16, -1.000000000000000000 ) ) ;
#253 = DIRECTION ( 'NONE',  ( 0.0000000000000000000, 1.000000000000000000, 0.0000000000000000000 ) ) ;
#254 = DATE_TIME_ROLE ( 'classification_date' ) ;
#255 = PERSON_AND_ORGANIZATION_ROLE ( 'design_owner' ) ;
#256 = CONICAL_SURFACE ( 'NONE', #207, 0.6750000000000000444, 0.7853981633974512766 ) ;
#257 = LINE ( 'NONE', #95, #24 ) ;
#258 = CC_DESIGN_PERSON_AND_ORGANIZATION_ASSIGNMENT ( #322, #45, ( #147 ) ) ;
#259 = DIRECTION ( 'NONE',  ( 0.0000000000000000000, 1.000000000000000000, 0.0000000000000000000 ) ) ;
#260 = DIRECTION ( 'NONE',  ( 4.275831445896958607E-31, 1.000000000000000000, 1.224646799147353207E-16 ) ) ;
#261 = ADVANCED_FACE ( 'NONE', ( #188 ), #117, .T. ) ;
#262 = PRODUCT_DEFINITION ( 'UNKNOWN', '', #251, #83 ) ;
#263 = AXIS2_PLACEMENT_3D ( 'NONE', #127, #234, #99 ) ;
#264 = CARTESIAN_POINT ( 'NONE',  ( 1.835656933757912959E-15, -6.438617795975778185E-17, 0.5257530416491182912 ) ) ;
#265 = DIRECTION ( 'NONE',  ( -3.491481338843133355E-15, 1.224646799147353207E-16, -1.000000000000000000 ) ) ;
#266 = DIRECTION ( 'NONE',  ( 0.0000000000000000000, 1.000000000000000000, 0.0000000000000000000 ) ) ;
#267 = EDGE_LOOP ( 'NONE', ( #246, #220, #294, #86 ) ) ;
#268 = DIRECTION ( 'NONE',  ( 0.0000000000000000000, 1.000000000000000000, 0.0000000000000000000 ) ) ;
#269 = EDGE_LOOP ( 'NONE', ( #298, #326, #296 ) ) ;
#270 = DIRECTION ( 'NONE',  ( -3.491481338843133355E-15, 1.224646799147353207E-16, -1.000000000000000000 ) ) ;
#271 = ORIENTED_EDGE ( 'NONE', *, *, #194, .T. ) ;
#272 = PERSON_AND_ORGANIZATION ( #72, #199 ) ;
#273 = ADVANCED_FACE ( 'NONE', ( #85 ), #310, .F. ) ;
#274 = ORIENTED_EDGE ( 'NONE', *, *, #194, .F. ) ;
#275 = ORIENTED_EDGE ( 'NONE', *, *, #295, .F. ) ;
#276 = AXIS2_PLACEMENT_3D ( 'NONE', #17, #159, #49 ) ;
#277 = PERSON_AND_ORGANIZATION ( #72, #199 ) ;
#278 = DIRECTION ( 'NONE',  ( 0.0000000000000000000, 1.000000000000000000, 0.0000000000000000000 ) ) ;
#279 = DATE_TIME_ROLE ( 'creation_date' ) ;
#280 = CYLINDRICAL_SURFACE ( 'NONE', #32, 0.8749999999999960032 ) ;
#281 = PERSON_AND_ORGANIZATION_ROLE ( 'design_supplier' ) ;
#282 = CC_DESIGN_DATE_AND_TIME_ASSIGNMENT ( #325, #254, ( #147 ) ) ;
#283 = DIRECTION ( 'NONE',  ( 0.0000000000000000000, 1.000000000000000000, 0.0000000000000000000 ) ) ;
#284 = AXIS2_PLACEMENT_3D ( 'NONE', #47, #77, #253 ) ;
#285 = CARTESIAN_POINT ( 'NONE',  ( 0.0000000000000000000, 0.0000000000000000000, 0.0000000000000000000 ) ) ;
#286 = CARTESIAN_POINT ( 'NONE',  ( 1.327589545349815156E-13, -0.6750000000000047073, 38.00000000000000000 ) ) ;
#287 =( LENGTH_UNIT ( ) NAMED_UNIT ( * ) SI_UNIT ( .MILLI., .METRE. ) );
#288 = VECTOR ( 'NONE', #25, 1000.000000000000000 ) ;
#289 = CC_DESIGN_APPROVAL ( #111, ( #251 ) ) ;
#290 = DIRECTION ( 'NONE',  ( 0.0000000000000000000, 1.000000000000000000, 0.0000000000000000000 ) ) ;
#291 = CLOSED_SHELL ( 'NONE', ( #204, #69, #273, #250, #321, #158 ) ) ;
#292 = ORIENTED_EDGE ( 'NONE', *, *, #183, .T. ) ;
#293 = DIRECTION ( 'NONE',  ( -4.275831445896958607E-31, -1.000000000000000000, -1.224646799147353207E-16 ) ) ;
#294 = ORIENTED_EDGE ( 'NONE', *, *, #233, .F. ) ;
#295 = EDGE_CURVE ( 'NONE', #148, #93, #76, .T. ) ;
#296 = ORIENTED_EDGE ( 'NONE', *, *, #217, .T. ) ;
#297 = PERSON_AND_ORGANIZATION ( #72, #199 ) ;
#298 = ORIENTED_EDGE ( 'NONE', *, *, #168, .F. ) ;
#299 = DATE_AND_TIME ( #171, #307 ) ;
#300 = DIRECTION ( 'NONE',  ( -3.491481338843133355E-15, 1.224646799147353207E-16, -1.000000000000000000 ) ) ;
#301 = AXIS2_PLACEMENT_3D ( 'NONE', #232, #75, #71 ) ;
#302 = SECURITY_CLASSIFICATION_LEVEL ( 'unclassified' ) ;
#303 = CARTESIAN_POINT ( 'NONE',  ( 1.319779946082704535E-13, -4.629164900776995227E-15, 37.79999999999999716 ) ) ;
#304 = DIRECTION ( 'NONE',  ( 0.0000000000000000000, 0.0000000000000000000, 1.000000000000000000 ) ) ;
#305 = CARTESIAN_POINT ( 'NONE',  ( 0.0000000000000000000, 0.0000000000000000000, 0.0000000000000000000 ) ) ;
#306 = PLANE ( 'NONE',  #276 ) ;
#307 = LOCAL_TIME ( 9, 48, 47.00000000000000000, #230 ) ;
#308 = ADVANCED_FACE ( 'NONE', ( #132 ), #319, .T. ) ;
#309 = CARTESIAN_POINT ( 'NONE',  ( 8.180781992385450866E-14, -0.8750000000000046629, 37.79999999999999716 ) ) ;
#310 = PLANE ( 'NONE',  #109 ) ;
#311 = FACE_OUTER_BOUND ( 'NONE', #114, .T. ) ;
#312 = DIRECTION ( 'NONE',  ( 3.491481338843133355E-15, -1.224646799147353207E-16, 1.000000000000000000 ) ) ;
#313 = UNCERTAINTY_MEASURE_WITH_UNIT (LENGTH_MEASURE( 1.000000000000000082E-05 ), #287, 'distance_accuracy_value', 'NONE');
#314 = EDGE_CURVE ( 'NONE', #93, #90, #9, .T. ) ;
#315 = AXIS2_PLACEMENT_3D ( 'NONE', #221, #107, #290 ) ;
#316 = CC_DESIGN_PERSON_AND_ORGANIZATION_ASSIGNMENT ( #11, #255, ( #165 ) ) ;
#317 = DIRECTION ( 'NONE',  ( -3.491481338843133355E-15, 1.224646799147353207E-16, -1.000000000000000000 ) ) ;
#318 = ORIENTED_EDGE ( 'NONE', *, *, #46, .F. ) ;
#319 = PLANE ( 'NONE',  #161 ) ;
#320 = ORIENTED_EDGE ( 'NONE', *, *, #102, .F. ) ;
#321 = ADVANCED_FACE ( 'NONE', ( #58 ), #256, .T. ) ;
#322 = PERSON_AND_ORGANIZATION ( #72, #199 ) ;
#323 = CIRCLE ( 'NONE', #5, 0.6750000000000000444 ) ;
#324 = ORIENTED_EDGE ( 'NONE', *, *, #82, .F. ) ;
#325 = DATE_AND_TIME ( #174, #335 ) ;
#326 = ORIENTED_EDGE ( 'NONE', *, *, #135, .T. ) ;
#327 = PERSON_AND_ORGANIZATION_ROLE ( 'creator' ) ;
#328 = VERTEX_POINT ( 'NONE', #189 ) ;
#329 = CARTESIAN_POINT ( 'NONE',  ( 3.741352515159831117E-31, 0.8749999999999982236, 1.071565949253931807E-16 ) ) ;
#330 = EDGE_CURVE ( 'NONE', #33, #120, #323, .T. ) ;
#331 = APPROVAL_STATUS ( 'not_yet_approved' ) ;
#332 = DIRECTION ( 'NONE',  ( -3.491481338843133355E-15, 1.224646799147353207E-16, -1.000000000000000000 ) ) ;
#333 = CYLINDRICAL_SURFACE ( 'NONE', #218, 0.8749999999999982236 ) ;
#334 = FACE_OUTER_BOUND ( 'NONE', #36, .T. ) ;
#335 = LOCAL_TIME ( 9, 48, 47.00000000000000000, #151 ) ;
#336 = LINE ( 'NONE', #329, #84 ) ;
#337 = DIRECTION ( 'NONE',  ( 3.491481338843133355E-15, -1.224646799147353207E-16, 1.000000000000000000 ) ) ;
ENDSEC;
END-ISO-10303-21;
