ISO-10303-21;
HEADER;
FILE_DESCRIPTION (( 'STEP AP203' ),
    '1' );
FILE_NAME ('54504.step',
    '2021-09-03T07:48:46',
    ( '' ),
    ( '' ),
    'SwSTEP 2.0',
    'SolidWorks 2019',
    '' );
FILE_SCHEMA (( 'CONFIG_CONTROL_DESIGN' ));
ENDSEC;

DATA;
#1 = CIRCLE ( 'NONE', #184, 0.6500000000000000222 ) ;
#2 = ORIENTED_EDGE ( 'NONE', *, *, #253, .T. ) ;
#3 = FACE_OUTER_BOUND ( 'NONE', #257, .T. ) ;
#4 = PRODUCT_DEFINITION_SHAPE ( 'NONE', 'NONE',  #65 ) ;
#5 = ADVANCED_FACE ( 'NONE', ( #234 ), #273, .T. ) ;
#6 = CARTESIAN_POINT ( 'NONE',  ( 1.319779946082704535E-13, -4.629164900776995227E-15, 37.79999999999999716 ) ) ;
#7 = AXIS2_PLACEMENT_3D ( 'NONE', #76, #203, #122 ) ;
#8 = CARTESIAN_POINT ( 'NONE',  ( 1.327558929179836416E-13, -0.6500000000000046851, 38.00000000000000000 ) ) ;
#9 = CYLINDRICAL_SURFACE ( 'NONE', #258, 0.8499999999999980904 ) ;
#10 = FACE_OUTER_BOUND ( 'NONE', #48, .T. ) ;
#11 = CC_DESIGN_SECURITY_CLASSIFICATION ( #208, ( #227 ) ) ;
#12 = CARTESIAN_POINT ( 'NONE',  ( 1.324189912520908055E-13, -0.6500000000000046851, 38.00000000000000000 ) ) ;
#13 = CARTESIAN_POINT ( 'NONE',  ( 0.0000000000000000000, 0.0000000000000000000, 0.0000000000000000000 ) ) ;
#14 = EDGE_CURVE ( 'NONE', #141, #198, #145, .T. ) ;
#15 = CC_DESIGN_DATE_AND_TIME_ASSIGNMENT ( #105, #211, ( #208 ) ) ;
#16 = DIRECTION ( 'NONE',  ( 1.000000000000000000, 0.0000000000000000000, 0.0000000000000000000 ) ) ;
#17 = ORIENTED_EDGE ( 'NONE', *, *, #177, .T. ) ;
#18 =( NAMED_UNIT ( * ) PLANE_ANGLE_UNIT ( ) SI_UNIT ( $, .RADIAN. ) );
#19 = ORIENTED_EDGE ( 'NONE', *, *, #95, .F. ) ;
#20 = ORIENTED_EDGE ( 'NONE', *, *, #177, .F. ) ;
#21 = PERSON_AND_ORGANIZATION ( #195, #53 ) ;
#22 = AXIS2_PLACEMENT_3D ( 'NONE', #114, #275, #243 ) ;
#23 = PLANE ( 'NONE',  #22 ) ;
#24 = LOCAL_TIME ( 9, 48, 46.00000000000000000, #92 ) ;
#25 = DIRECTION ( 'NONE',  ( 0.0000000000000000000, 1.000000000000000000, 0.0000000000000000000 ) ) ;
#26 = LINE ( 'NONE', #124, #189 ) ;
#27 = CIRCLE ( 'NONE', #201, 0.8499999999999954259 ) ;
#28 = LINE ( 'NONE', #126, #217 ) ;
#29 = APPROVAL ( #191, 'UNSPECIFIED' ) ;
#30 = LINE ( 'NONE', #233, #252 ) ;
#31 = ORIENTED_EDGE ( 'NONE', *, *, #70, .F. ) ;
#32 = PERSON_AND_ORGANIZATION ( #195, #53 ) ;
#33 = CARTESIAN_POINT ( 'NONE',  ( 0.0000000000000000000, 0.0000000000000000000, 0.0000000000000000000 ) ) ;
#34 = APPROVAL_PERSON_ORGANIZATION ( #218, #205, #225 ) ;
#35 = CARTESIAN_POINT ( 'NONE',  ( 1.326762908760390423E-13, -4.653657836759941941E-15, 38.00000000000000000 ) ) ;
#36 = CYLINDRICAL_SURFACE ( 'NONE', #49, 0.8499999999999959810 ) ;
#37 = DIRECTION ( 'NONE',  ( -3.491481338843133355E-15, 1.224646799147353207E-16, -1.000000000000000000 ) ) ;
#38 = APPROVAL_PERSON_ORGANIZATION ( #251, #29, #300 ) ;
#39 = DIRECTION ( 'NONE',  ( -3.491481338843133355E-15, 1.224646799147353207E-16, -1.000000000000000000 ) ) ;
#40 = ADVANCED_FACE ( 'NONE', ( #52 ), #317, .F. ) ;
#41 = ADVANCED_FACE ( 'NONE', ( #3 ), #63, .T. ) ;
#42 = EDGE_LOOP ( 'NONE', ( #204, #170, #244, #116 ) ) ;
#43 = AXIS2_PLACEMENT_3D ( 'NONE', #183, #290, #264 ) ;
#44 = ADVANCED_FACE ( 'NONE', ( #50 ), #279, .T. ) ;
#45 = PERSON_AND_ORGANIZATION_ROLE ( 'design_owner' ) ;
#46 =( NAMED_UNIT ( * ) SI_UNIT ( $, .STERADIAN. ) SOLID_ANGLE_UNIT ( ) );
#47 = APPLICATION_CONTEXT ( 'configuration controlled 3d designs of mechanical parts and assemblies' ) ;
#48 = EDGE_LOOP ( 'NONE', ( #310, #89, #247, #20 ) ) ;
#49 = AXIS2_PLACEMENT_3D ( 'NONE', #131, #85, #320 ) ;
#50 = FACE_OUTER_BOUND ( 'NONE', #139, .T. ) ;
#51 = APPLICATION_CONTEXT ( 'configuration controlled 3d designs of mechanical parts and assemblies' ) ;
#52 = FACE_OUTER_BOUND ( 'NONE', #337, .T. ) ;
#53 = ORGANIZATION ( 'UNSPECIFIED', 'UNSPECIFIED', '' ) ;
#54 = ORIENTED_EDGE ( 'NONE', *, *, #305, .T. ) ;
#55 = CARTESIAN_POINT ( 'NONE',  ( 1.040949779275244347E-16, -0.8499999999999980904, -1.040949779275251496E-16 ) ) ;
#56 = COORDINATED_UNIVERSAL_TIME_OFFSET ( 1, 0, .AHEAD. ) ;
#57 = CYLINDRICAL_SURFACE ( 'NONE', #291, 0.8499999999999959810 ) ;
#58 = FACE_OUTER_BOUND ( 'NONE', #259, .T. ) ;
#59 = AXIS2_PLACEMENT_3D ( 'NONE', #214, #104, #186 ) ;
#60 = DIRECTION ( 'NONE',  ( -3.491481338843133355E-15, 1.224646799147353207E-16, -1.000000000000000000 ) ) ;
#61 = FACE_OUTER_BOUND ( 'NONE', #206, .T. ) ;
#62 = CARTESIAN_POINT ( 'NONE',  ( 1.319779946082704535E-13, -4.629164900776995227E-15, 37.79999999999999716 ) ) ;
#63 = CONICAL_SURFACE ( 'NONE', #262, 0.8499999999999954259, 1.029744258676649871 ) ;
#64 = PERSON_AND_ORGANIZATION ( #195, #53 ) ;
#65 = PRODUCT_DEFINITION ( 'UNKNOWN', '', #227, #179 ) ;
#66 = CARTESIAN_POINT ( 'NONE',  ( 1.326762908760390423E-13, -4.653657836759941941E-15, 38.00000000000000000 ) ) ;
#67 = ORIENTED_EDGE ( 'NONE', *, *, #333, .F. ) ;
#68 = CIRCLE ( 'NONE', #99, 0.8499999999999999778 ) ;
#69 = PERSON_AND_ORGANIZATION_ROLE ( 'design_supplier' ) ;
#70 = EDGE_CURVE ( 'NONE', #91, #299, #119, .T. ) ;
#71 = ORIENTED_EDGE ( 'NONE', *, *, #256, .T. ) ;
#72 = CLOSED_SHELL ( 'NONE', ( #180, #75, #41, #268, #321 ) ) ;
#73 = DIRECTION ( 'NONE',  ( 0.0000000000000000000, 1.000000000000000000, 0.0000000000000000000 ) ) ;
#74 = CARTESIAN_POINT ( 'NONE',  ( 3.142333204958820020E-14, -1.102182119232617714E-15, 9.000000000000000000 ) ) ;
#75 = ADVANCED_FACE ( 'NONE', ( #149 ), #239, .T. ) ;
#76 = CARTESIAN_POINT ( 'NONE',  ( 3.142333204958820020E-14, 6.373979076312851043E-33, 9.000000000000000000 ) ) ;
#77 = DIRECTION ( 'NONE',  ( -3.491481338843133355E-15, 1.224646799147353207E-16, -1.000000000000000000 ) ) ;
#78 = DIRECTION ( 'NONE',  ( -4.531599869146461927E-31, -1.000000000000000000, -1.275531967630012148E-16 ) ) ;
#79 = DIRECTION ( 'NONE',  ( -2.468850131082257455E-15, 0.7071067811865497932, -0.7071067811865453523 ) ) ;
#80 = APPROVAL_STATUS ( 'not_yet_approved' ) ;
#81 = DIRECTION ( 'NONE',  ( 0.0000000000000000000, 1.000000000000000000, 0.0000000000000000000 ) ) ;
#82 = CIRCLE ( 'NONE', #87, 0.8499999999999999778 ) ;
#83 = DIRECTION ( 'NONE',  ( -3.491481338843133355E-15, 1.224646799147353207E-16, -1.000000000000000000 ) ) ;
#84 = EDGE_CURVE ( 'NONE', #301, #115, #28, .T. ) ;
#85 = DIRECTION ( 'NONE',  ( -3.491481338843133355E-15, 1.224646799147353207E-16, -1.000000000000000000 ) ) ;
#86 = DIRECTION ( 'NONE',  ( 0.0000000000000000000, 1.000000000000000000, 0.0000000000000000000 ) ) ;
#87 = AXIS2_PLACEMENT_3D ( 'NONE', #62, #39, #81 ) ;
#88 = DATE_AND_TIME ( #144, #24 ) ;
#89 = ORIENTED_EDGE ( 'NONE', *, *, #95, .T. ) ;
#90 = DIRECTION ( 'NONE',  ( 0.0000000000000000000, 1.000000000000000000, 0.0000000000000000000 ) ) ;
#91 = VERTEX_POINT ( 'NONE', #229 ) ;
#92 = COORDINATED_UNIVERSAL_TIME_OFFSET ( 1, 0, .AHEAD. ) ;
#93 = COORDINATED_UNIVERSAL_TIME_OFFSET ( 1, 0, .AHEAD. ) ;
#94 = EDGE_CURVE ( 'NONE', #91, #115, #30, .T. ) ;
#95 = EDGE_CURVE ( 'NONE', #103, #198, #173, .T. ) ;
#96 = CALENDAR_DATE ( 2021, 3, 9 ) ;
#97 = EDGE_LOOP ( 'NONE', ( #101, #222, #224 ) ) ;
#98 = ORIENTED_EDGE ( 'NONE', *, *, #315, .T. ) ;
#99 = AXIS2_PLACEMENT_3D ( 'NONE', #6, #200, #255 ) ;
#100 = ORIENTED_EDGE ( 'NONE', *, *, #188, .T. ) ;
#101 = ORIENTED_EDGE ( 'NONE', *, *, #133, .F. ) ;
#102 = DIRECTION ( 'NONE',  ( -3.491481338843133355E-15, 1.224646799147353207E-16, -1.000000000000000000 ) ) ;
#103 = VERTEX_POINT ( 'NONE', #151 ) ;
#104 = DIRECTION ( 'NONE',  ( -3.491481338843133355E-15, 1.224646799147353207E-16, -1.000000000000000000 ) ) ;
#105 = DATE_AND_TIME ( #199, #178 ) ;
#106 = DIRECTION ( 'NONE',  ( 4.531599869146461927E-31, 1.000000000000000000, 1.275531967630012148E-16 ) ) ;
#107 = DIRECTION ( 'NONE',  ( 4.275831445896958607E-31, 1.000000000000000000, 1.224646799147353207E-16 ) ) ;
#108 = CC_DESIGN_APPROVAL ( #121, ( #208 ) ) ;
#109 = DIRECTION ( 'NONE',  ( -3.491481338843133355E-15, 1.224646799147353207E-16, -1.000000000000000000 ) ) ;
#110 = DIRECTION ( 'NONE',  ( 4.275831445896958607E-31, 1.000000000000000000, 1.224646799147353207E-16 ) ) ;
#111 = CARTESIAN_POINT ( 'NONE',  ( 0.0000000000000000000, 0.0000000000000000000, 0.0000000000000000000 ) ) ;
#112 = ORIENTED_EDGE ( 'NONE', *, *, #94, .F. ) ;
#113 = AXIS2_PLACEMENT_3D ( 'NONE', #74, #146, #254 ) ;
#114 = CARTESIAN_POINT ( 'NONE',  ( 3.142333204958820020E-14, 6.373979076312851043E-33, 9.000000000000000000 ) ) ;
#115 = VERTEX_POINT ( 'NONE', #128 ) ;
#116 = ORIENTED_EDGE ( 'NONE', *, *, #305, .F. ) ;
#117 = PERSON_AND_ORGANIZATION_ROLE ( 'classification_officer' ) ;
#118 = CC_DESIGN_PERSON_AND_ORGANIZATION_ASSIGNMENT ( #272, #69, ( #227 ) ) ;
#119 = CIRCLE ( 'NONE', #113, 0.8499999999999964251 ) ;
#120 = EDGE_LOOP ( 'NONE', ( #228, #100, #332, #112 ) ) ;
#121 = APPROVAL ( #80, 'UNSPECIFIED' ) ;
#122 = DIRECTION ( 'NONE',  ( -4.275831445896958607E-31, -1.000000000000000000, -1.224646799147353207E-16 ) ) ;
#123 = CC_DESIGN_PERSON_AND_ORGANIZATION_ASSIGNMENT ( #64, #45, ( #150 ) ) ;
#124 = CARTESIAN_POINT ( 'NONE',  ( 1.783209592793399965E-15, -0.8499999999999955369, 0.5107315261734287626 ) ) ;
#125 = AXIS2_PLACEMENT_3D ( 'NONE', #66, #196, #90 ) ;
#126 = CARTESIAN_POINT ( 'NONE',  ( 1.887304570720925472E-15, 0.8499999999999953149, 0.5107315261734289846 ) ) ;
#127 = DIRECTION ( 'NONE',  ( -3.491481338843133355E-15, 1.224646799147353207E-16, -1.000000000000000000 ) ) ;
#128 = CARTESIAN_POINT ( 'NONE',  ( 1.887304570720925472E-15, 0.8499999999999953149, 0.5107315261734289846 ) ) ;
#129 = EDGE_CURVE ( 'NONE', #103, #336, #68, .T. ) ;
#130 = AXIS2_PLACEMENT_3D ( 'NONE', #313, #77, #282 ) ;
#131 = CARTESIAN_POINT ( 'NONE',  ( 0.0000000000000000000, 0.0000000000000000000, 0.0000000000000000000 ) ) ;
#132 = FACE_OUTER_BOUND ( 'NONE', #329, .T. ) ;
#133 = EDGE_CURVE ( 'NONE', #301, #197, #26, .T. ) ;
#134 = DIRECTION ( 'NONE',  ( 1.798245827342159528E-15, -0.8571673007021100021, 0.5150380749100580413 ) ) ;
#135 = LINE ( 'NONE', #210, #309 ) ;
#136 = VECTOR ( 'NONE', #147, 1000.000000000000000 ) ;
#137 = CARTESIAN_POINT ( 'NONE',  ( 3.142333204958820020E-14, -1.102182119232617714E-15, 9.000000000000000000 ) ) ;
#138 = APPLICATION_PROTOCOL_DEFINITION ( 'international standard', 'config_control_design', 1994, #47 ) ;
#139 = EDGE_LOOP ( 'NONE', ( #169, #307, #54, #277 ) ) ;
#140 = DATE_AND_TIME ( #96, #202 ) ;
#141 = VERTEX_POINT ( 'NONE', #326 ) ;
#142 = DATE_AND_TIME ( #248, #226 ) ;
#143 = EDGE_CURVE ( 'NONE', #312, #103, #236, .T. ) ;
#144 = CALENDAR_DATE ( 2021, 3, 9 ) ;
#145 = CIRCLE ( 'NONE', #165, 0.8499999999999964251 ) ;
#146 = DIRECTION ( 'NONE',  ( -3.491481338843133355E-15, 1.224646799147353207E-16, -1.000000000000000000 ) ) ;
#147 = DIRECTION ( 'NONE',  ( -3.491481338843133355E-15, 1.224646799147353207E-16, -1.000000000000000000 ) ) ;
#148 = DIRECTION ( 'NONE',  ( -4.531599869146461927E-31, -1.000000000000000000, -1.275531967630012148E-16 ) ) ;
#149 = FACE_OUTER_BOUND ( 'NONE', #97, .T. ) ;
#150 = PRODUCT ( '54504', '54504', '', ( #298 ) ) ;
#151 = CARTESIAN_POINT ( 'NONE',  ( 8.180475830685662198E-14, -0.8500000000000047518, 37.79999999999999716 ) ) ;
#152 = ADVANCED_FACE ( 'NONE', ( #267 ), #237, .T. ) ;
#153 = DATE_AND_TIME ( #278, #296 ) ;
#154 = CARTESIAN_POINT ( 'NONE',  ( 1.783209592793399965E-15, -0.8499999999999955369, 0.5107315261734287626 ) ) ;
#155 = AXIS2_PLACEMENT_3D ( 'NONE', #33, #83, #325 ) ;
#156 = CARTESIAN_POINT ( 'NONE',  ( 0.0000000000000000000, 0.0000000000000000000, 0.0000000000000000000 ) ) ;
#157 = ADVANCED_FACE ( 'NONE', ( #10 ), #9, .T. ) ;
#158 = DIRECTION ( 'NONE',  ( 0.0000000000000000000, 1.000000000000000000, 0.0000000000000000000 ) ) ;
#159 = CARTESIAN_POINT ( 'NONE',  ( 1.326762908760390423E-13, 0.6499999999999953593, 38.00000000000000000 ) ) ;
#160 = CARTESIAN_POINT ( 'NONE',  ( 1.326762908760390423E-13, 0.6499999999999953593, 38.00000000000000000 ) ) ;
#161 = CLOSED_SHELL ( 'NONE', ( #5, #157, #40, #152, #44, #193 ) ) ;
#162 = APPLICATION_PROTOCOL_DEFINITION ( 'international standard', 'config_control_design', 1994, #51 ) ;
#163 = PERSON_AND_ORGANIZATION ( #195, #53 ) ;
#164 = ORIENTED_EDGE ( 'NONE', *, *, #256, .F. ) ;
#165 = AXIS2_PLACEMENT_3D ( 'NONE', #181, #127, #73 ) ;
#166 = EDGE_CURVE ( 'NONE', #115, #197, #27, .T. ) ;
#167 = SECURITY_CLASSIFICATION_LEVEL ( 'unclassified' ) ;
#168 = DIRECTION ( 'NONE',  ( 0.0000000000000000000, 0.0000000000000000000, 1.000000000000000000 ) ) ;
#169 = ORIENTED_EDGE ( 'NONE', *, *, #143, .F. ) ;
#170 = ORIENTED_EDGE ( 'NONE', *, *, #143, .T. ) ;
#171 = MANIFOLD_SOLID_BREP ( 'Corps-Déplacer/Copier1[1]', #161 ) ;
#172 = CIRCLE ( 'NONE', #213, 0.8499999999999964251 ) ;
#173 = LINE ( 'NONE', #55, #136 ) ;
#174 = CARTESIAN_POINT ( 'NONE',  ( 1.783209592793400360E-15, -6.254657287519323048E-17, 0.5107315261734288736 ) ) ;
#175 = DIRECTION ( 'NONE',  ( 3.491481338843133355E-15, -1.224646799147353207E-16, 1.000000000000000000 ) ) ;
#176 = AXIS2_PLACEMENT_3D ( 'NONE', #111, #168, #16 ) ;
#177 = EDGE_CURVE ( 'NONE', #336, #141, #135, .T. ) ;
#178 = LOCAL_TIME ( 9, 48, 46.00000000000000000, #93 ) ;
#179 = DESIGN_CONTEXT ( 'detailed design', #51, 'design' ) ;
#180 = ADVANCED_FACE ( 'NONE', ( #212 ), #36, .T. ) ;
#181 = CARTESIAN_POINT ( 'NONE',  ( 3.142333204958820020E-14, -1.102182119232617714E-15, 9.000000000000000000 ) ) ;
#182 = CARTESIAN_POINT ( 'NONE',  ( 1.326762908760390423E-13, -4.653657836759941941E-15, 38.00000000000000000 ) ) ;
#183 = CARTESIAN_POINT ( 'NONE',  ( 1.783209592793400360E-15, -6.254657287519323048E-17, 0.5107315261734288736 ) ) ;
#184 = AXIS2_PLACEMENT_3D ( 'NONE', #35, #60, #158 ) ;
#185 = LINE ( 'NONE', #187, #314 ) ;
#186 = DIRECTION ( 'NONE',  ( 0.0000000000000000000, 1.000000000000000000, 0.0000000000000000000 ) ) ;
#187 = CARTESIAN_POINT ( 'NONE',  ( 1.040949779275241635E-16, -0.8499999999999959810, -1.040949779275248907E-16 ) ) ;
#188 = EDGE_CURVE ( 'NONE', #299, #197, #185, .T. ) ;
#189 = VECTOR ( 'NONE', #134, 1000.000000000000000 ) ;
#190 = DIRECTION ( 'NONE',  ( -3.491481338843133355E-15, 1.224646799147353207E-16, -1.000000000000000000 ) ) ;
#191 = APPROVAL_STATUS ( 'not_yet_approved' ) ;
#192 = ORIENTED_EDGE ( 'NONE', *, *, #315, .F. ) ;
#193 = ADVANCED_FACE ( 'NONE', ( #61 ), #295, .F. ) ;
#194 = APPROVAL_DATE_TIME ( #88, #205 ) ;
#195 = PERSON ( 'UNSPECIFIED', 'UNSPECIFIED', 'UNSPECIFIED', ('UNSPECIFIED'), ('UNSPECIFIED'), ('UNSPECIFIED') ) ;
#196 = DIRECTION ( 'NONE',  ( -3.491481338843133355E-15, 1.224646799147353207E-16, -1.000000000000000000 ) ) ;
#197 = VERTEX_POINT ( 'NONE', #154 ) ;
#198 = VERTEX_POINT ( 'NONE', #324 ) ;
#199 = CALENDAR_DATE ( 2021, 3, 9 ) ;
#200 = DIRECTION ( 'NONE',  ( -3.491481338843133355E-15, 1.224646799147353207E-16, -1.000000000000000000 ) ) ;
#201 = AXIS2_PLACEMENT_3D ( 'NONE', #270, #109, #106 ) ;
#202 = LOCAL_TIME ( 9, 48, 46.00000000000000000, #220 ) ;
#203 = DIRECTION ( 'NONE',  ( 3.491481338843133355E-15, -1.224646799147353207E-16, 1.000000000000000000 ) ) ;
#204 = ORIENTED_EDGE ( 'NONE', *, *, #276, .T. ) ;
#205 = APPROVAL ( #328, 'UNSPECIFIED' ) ;
#206 = EDGE_LOOP ( 'NONE', ( #330, #67 ) ) ;
#207 = CC_DESIGN_APPROVAL ( #29, ( #65 ) ) ;
#208 = SECURITY_CLASSIFICATION ( '', '', #167 ) ;
#209 = EDGE_LOOP ( 'NONE', ( #19, #230, #17, #164 ) ) ;
#210 = CARTESIAN_POINT ( 'NONE',  ( 3.634456729012406671E-31, 0.8499999999999980904, 1.040949779275247921E-16 ) ) ;
#211 = DATE_TIME_ROLE ( 'classification_date' ) ;
#212 = FACE_OUTER_BOUND ( 'NONE', #120, .T. ) ;
#213 = AXIS2_PLACEMENT_3D ( 'NONE', #137, #37, #86 ) ;
#214 = CARTESIAN_POINT ( 'NONE',  ( 3.142333204958820020E-14, -1.102182119232617714E-15, 9.000000000000000000 ) ) ;
#215 = DIRECTION ( 'NONE',  ( -3.491481338843133355E-15, 1.224646799147353207E-16, -1.000000000000000000 ) ) ;
#216 = CARTESIAN_POINT ( 'NONE',  ( 1.326762908760390423E-13, 4.874219293650967434E-33, 38.00000000000000000 ) ) ;
#217 = VECTOR ( 'NONE', #285, 1000.000000000000114 ) ;
#218 = PERSON_AND_ORGANIZATION ( #195, #53 ) ;
#219 = ORIENTED_EDGE ( 'NONE', *, *, #253, .F. ) ;
#220 = COORDINATED_UNIVERSAL_TIME_OFFSET ( 1, 0, .AHEAD. ) ;
#221 = EDGE_CURVE ( 'NONE', #336, #103, #82, .T. ) ;
#222 = ORIENTED_EDGE ( 'NONE', *, *, #84, .T. ) ;
#223 = DATE_TIME_ROLE ( 'creation_date' ) ;
#224 = ORIENTED_EDGE ( 'NONE', *, *, #166, .T. ) ;
#225 = APPROVAL_ROLE ( '' ) ;
#226 = LOCAL_TIME ( 9, 48, 46.00000000000000000, #331 ) ;
#227 = PRODUCT_DEFINITION_FORMATION_WITH_SPECIFIED_SOURCE ( 'ANY', '', #150, .NOT_KNOWN. ) ;
#228 = ORIENTED_EDGE ( 'NONE', *, *, #70, .T. ) ;
#229 = CARTESIAN_POINT ( 'NONE',  ( 3.142333204958820020E-14, 0.8499999999999953149, 9.000000000000000000 ) ) ;
#230 = ORIENTED_EDGE ( 'NONE', *, *, #129, .T. ) ;
#231 = CIRCLE ( 'NONE', #43, 0.8499999999999954259 ) ;
#232 = VERTEX_POINT ( 'NONE', #160 ) ;
#233 = CARTESIAN_POINT ( 'NONE',  ( 3.634456729012397475E-31, 0.8499999999999959810, 1.040949779275245209E-16 ) ) ;
#234 = FACE_OUTER_BOUND ( 'NONE', #42, .T. ) ;
#235 = AXIS2_PLACEMENT_3D ( 'NONE', #216, #242, #107 ) ;
#236 = LINE ( 'NONE', #8, #269 ) ;
#237 = CYLINDRICAL_SURFACE ( 'NONE', #155, 0.8499999999999980904 ) ;
#238 = DIRECTION ( 'NONE',  ( -2.382254525458708792E-15, -0.7071067811865495711, -0.7071067811865455743 ) ) ;
#239 = CONICAL_SURFACE ( 'NONE', #334, 0.8499999999999954259, 1.029744258676649871 ) ;
#240 = DIRECTION ( 'NONE',  ( -3.491481338843133355E-15, 1.224646799147353207E-16, -1.000000000000000000 ) ) ;
#241 = CC_DESIGN_PERSON_AND_ORGANIZATION_ASSIGNMENT ( #163, #303, ( #227 ) ) ;
#242 = DIRECTION ( 'NONE',  ( -3.491481338843133355E-15, 1.224646799147353207E-16, -1.000000000000000000 ) ) ;
#243 = DIRECTION ( 'NONE',  ( -4.275831445896958607E-31, -1.000000000000000000, -1.224646799147353207E-16 ) ) ;
#244 = ORIENTED_EDGE ( 'NONE', *, *, #221, .F. ) ;
#245 = AXIS2_PLACEMENT_3D ( 'NONE', #182, #289, #25 ) ;
#246 = CC_DESIGN_APPROVAL ( #205, ( #227 ) ) ;
#247 = ORIENTED_EDGE ( 'NONE', *, *, #14, .F. ) ;
#248 = CALENDAR_DATE ( 2021, 3, 9 ) ;
#249 = CC_DESIGN_PERSON_AND_ORGANIZATION_ASSIGNMENT ( #274, #117, ( #208 ) ) ;
#250 = ORIENTED_EDGE ( 'NONE', *, *, #188, .F. ) ;
#251 = PERSON_AND_ORGANIZATION ( #195, #53 ) ;
#252 = VECTOR ( 'NONE', #102, 1000.000000000000000 ) ;
#253 = EDGE_CURVE ( 'NONE', #299, #91, #327, .T. ) ;
#254 = DIRECTION ( 'NONE',  ( 0.0000000000000000000, 1.000000000000000000, 0.0000000000000000000 ) ) ;
#255 = DIRECTION ( 'NONE',  ( 0.0000000000000000000, 1.000000000000000000, 0.0000000000000000000 ) ) ;
#256 = EDGE_CURVE ( 'NONE', #198, #141, #172, .T. ) ;
#257 = EDGE_LOOP ( 'NONE', ( #308, #280, #98 ) ) ;
#258 = AXIS2_PLACEMENT_3D ( 'NONE', #13, #240, #110 ) ;
#259 = EDGE_LOOP ( 'NONE', ( #250, #2, #287, #192 ) ) ;
#260 = ORIENTED_EDGE ( 'NONE', *, *, #14, .T. ) ;
#261 = DIRECTION ( 'NONE',  ( 4.275831445896958607E-31, 1.000000000000000000, 1.224646799147353207E-16 ) ) ;
#262 = AXIS2_PLACEMENT_3D ( 'NONE', #283, #311, #78 ) ;
#263 = APPROVAL_DATE_TIME ( #153, #121 ) ;
#264 = DIRECTION ( 'NONE',  ( 4.531599869146461927E-31, 1.000000000000000000, 1.275531967630012148E-16 ) ) ;
#265 = LINE ( 'NONE', #159, #302 ) ;
#266 = CC_DESIGN_PERSON_AND_ORGANIZATION_ASSIGNMENT ( #21, #306, ( #65 ) ) ;
#267 = FACE_OUTER_BOUND ( 'NONE', #209, .T. ) ;
#268 = ADVANCED_FACE ( 'NONE', ( #58 ), #57, .T. ) ;
#269 = VECTOR ( 'NONE', #238, 1000.000000000000114 ) ;
#270 = CARTESIAN_POINT ( 'NONE',  ( 1.783209592793400360E-15, -6.254657287519323048E-17, 0.5107315261734288736 ) ) ;
#271 = CARTESIAN_POINT ( 'NONE',  ( 1.319779946082704535E-13, 0.8499999999999953149, 37.79999999999999716 ) ) ;
#272 = PERSON_AND_ORGANIZATION ( #195, #53 ) ;
#273 = CONICAL_SURFACE ( 'NONE', #130, 0.6500000000000000222, 0.7853981633974512766 ) ;
#274 = PERSON_AND_ORGANIZATION ( #195, #53 ) ;
#275 = DIRECTION ( 'NONE',  ( 3.491481338843133355E-15, -1.224646799147353207E-16, 1.000000000000000000 ) ) ;
#276 = EDGE_CURVE ( 'NONE', #232, #312, #1, .T. ) ;
#277 = ORIENTED_EDGE ( 'NONE', *, *, #129, .F. ) ;
#278 = CALENDAR_DATE ( 2021, 3, 9 ) ;
#279 = CONICAL_SURFACE ( 'NONE', #245, 0.6500000000000000222, 0.7853981633974512766 ) ;
#280 = ORIENTED_EDGE ( 'NONE', *, *, #133, .T. ) ;
#281 = MANIFOLD_SOLID_BREP ( 'Corps-Déplacer/Copier1[2]', #72 ) ;
#282 = DIRECTION ( 'NONE',  ( 0.0000000000000000000, 1.000000000000000000, 0.0000000000000000000 ) ) ;
#283 = CARTESIAN_POINT ( 'NONE',  ( 1.783209592793400360E-15, -6.254657287519323048E-17, 0.5107315261734288736 ) ) ;
#284 = UNCERTAINTY_MEASURE_WITH_UNIT (LENGTH_MEASURE( 1.000000000000000082E-05 ), #297, 'distance_accuracy_value', 'NONE');
#285 = DIRECTION ( 'NONE',  ( 1.903218546456021928E-15, 0.8571673007021098911, 0.5150380749100583744 ) ) ;
#286 = CIRCLE ( 'NONE', #125, 0.6500000000000000222 ) ;
#287 = ORIENTED_EDGE ( 'NONE', *, *, #94, .T. ) ;
#288 = APPROVAL_ROLE ( '' ) ;
#289 = DIRECTION ( 'NONE',  ( -3.491481338843133355E-15, 1.224646799147353207E-16, -1.000000000000000000 ) ) ;
#290 = DIRECTION ( 'NONE',  ( -3.491481338843133355E-15, 1.224646799147353207E-16, -1.000000000000000000 ) ) ;
#291 = AXIS2_PLACEMENT_3D ( 'NONE', #294, #293, #261 ) ;
#292 = SHAPE_DEFINITION_REPRESENTATION ( #4, #319 ) ;
#293 = DIRECTION ( 'NONE',  ( -3.491481338843133355E-15, 1.224646799147353207E-16, -1.000000000000000000 ) ) ;
#294 = CARTESIAN_POINT ( 'NONE',  ( 0.0000000000000000000, 0.0000000000000000000, 0.0000000000000000000 ) ) ;
#295 = PLANE ( 'NONE',  #235 ) ;
#296 = LOCAL_TIME ( 9, 48, 46.00000000000000000, #56 ) ;
#297 =( LENGTH_UNIT ( ) NAMED_UNIT ( * ) SI_UNIT ( .MILLI., .METRE. ) );
#298 = MECHANICAL_CONTEXT ( 'NONE', #47, 'mechanical' ) ;
#299 = VERTEX_POINT ( 'NONE', #318 ) ;
#300 = APPROVAL_ROLE ( '' ) ;
#301 = VERTEX_POINT ( 'NONE', #156 ) ;
#302 = VECTOR ( 'NONE', #79, 1000.000000000000114 ) ;
#303 = PERSON_AND_ORGANIZATION_ROLE ( 'creator' ) ;
#304 = CC_DESIGN_DATE_AND_TIME_ASSIGNMENT ( #140, #223, ( #65 ) ) ;
#305 = EDGE_CURVE ( 'NONE', #232, #336, #265, .T. ) ;
#306 = PERSON_AND_ORGANIZATION_ROLE ( 'creator' ) ;
#307 = ORIENTED_EDGE ( 'NONE', *, *, #333, .T. ) ;
#308 = ORIENTED_EDGE ( 'NONE', *, *, #84, .F. ) ;
#309 = VECTOR ( 'NONE', #215, 1000.000000000000000 ) ;
#310 = ORIENTED_EDGE ( 'NONE', *, *, #221, .T. ) ;
#311 = DIRECTION ( 'NONE',  ( 3.491481338843133355E-15, -1.224646799147353207E-16, 1.000000000000000000 ) ) ;
#312 = VERTEX_POINT ( 'NONE', #12 ) ;
#313 = CARTESIAN_POINT ( 'NONE',  ( 1.326762908760390423E-13, -4.653657836759941941E-15, 38.00000000000000000 ) ) ;
#314 = VECTOR ( 'NONE', #190, 1000.000000000000000 ) ;
#315 = EDGE_CURVE ( 'NONE', #197, #115, #231, .T. ) ;
#316 = PRODUCT_RELATED_PRODUCT_CATEGORY ( 'detail', '', ( #150 ) ) ;
#317 = PLANE ( 'NONE',  #7 ) ;
#318 = CARTESIAN_POINT ( 'NONE',  ( 1.670736579911830902E-14, -0.8499999999999975353, 9.000000000000000000 ) ) ;
#319 = ADVANCED_BREP_SHAPE_REPRESENTATION ( '54504', ( #171, #281, #176 ), #322 ) ;
#320 = DIRECTION ( 'NONE',  ( 4.275831445896958607E-31, 1.000000000000000000, 1.224646799147353207E-16 ) ) ;
#321 = ADVANCED_FACE ( 'NONE', ( #132 ), #23, .T. ) ;
#322 =( GEOMETRIC_REPRESENTATION_CONTEXT ( 3 ) GLOBAL_UNCERTAINTY_ASSIGNED_CONTEXT ( ( #284 ) ) GLOBAL_UNIT_ASSIGNED_CONTEXT ( ( #297, #18, #46 ) ) REPRESENTATION_CONTEXT ( 'NONE', 'WORKASPACE' ) );
#323 = APPROVAL_PERSON_ORGANIZATION ( #32, #121, #288 ) ;
#324 = CARTESIAN_POINT ( 'NONE',  ( 8.180475830685679869E-14, -0.8499999999999974243, 9.000000000000000000 ) ) ;
#325 = DIRECTION ( 'NONE',  ( 4.275831445896958607E-31, 1.000000000000000000, 1.224646799147353207E-16 ) ) ;
#326 = CARTESIAN_POINT ( 'NONE',  ( 3.142333204958820020E-14, 0.8499999999999953149, 9.000000000000000000 ) ) ;
#327 = CIRCLE ( 'NONE', #59, 0.8499999999999964251 ) ;
#328 = APPROVAL_STATUS ( 'not_yet_approved' ) ;
#329 = EDGE_LOOP ( 'NONE', ( #31, #219 ) ) ;
#330 = ORIENTED_EDGE ( 'NONE', *, *, #276, .F. ) ;
#331 = COORDINATED_UNIVERSAL_TIME_OFFSET ( 1, 0, .AHEAD. ) ;
#332 = ORIENTED_EDGE ( 'NONE', *, *, #166, .F. ) ;
#333 = EDGE_CURVE ( 'NONE', #312, #232, #286, .T. ) ;
#334 = AXIS2_PLACEMENT_3D ( 'NONE', #174, #175, #148 ) ;
#335 = APPROVAL_DATE_TIME ( #142, #29 ) ;
#336 = VERTEX_POINT ( 'NONE', #271 ) ;
#337 = EDGE_LOOP ( 'NONE', ( #260, #71 ) ) ;
ENDSEC;
END-ISO-10303-21;
