ISO-10303-21;
HEADER;
FILE_DESCRIPTION (( 'STEP AP203' ),
    '1' );
FILE_NAME ('54503.step',
    '2021-09-03T07:48:44',
    ( '' ),
    ( '' ),
    'SwSTEP 2.0',
    'SolidWorks 2019',
    '' );
FILE_SCHEMA (( 'CONFIG_CONTROL_DESIGN' ));
ENDSEC;

DATA;
#1 = ORIENTED_EDGE ( 'NONE', *, *, #318, .T. ) ;
#2 = DATE_AND_TIME ( #243, #150 ) ;
#3 = EDGE_CURVE ( 'NONE', #265, #188, #214, .T. ) ;
#4 = DIRECTION ( 'NONE',  ( 4.668921077302415797E-31, 1.000000000000000000, 1.314184451497588408E-16 ) ) ;
#5 = CONICAL_SURFACE ( 'NONE', #293, 0.6250000000000000000, 0.7853981633974512766 ) ;
#6 = ORIENTED_EDGE ( 'NONE', *, *, #233, .T. ) ;
#7 = DATE_TIME_ROLE ( 'classification_date' ) ;
#8 = ORIENTED_EDGE ( 'NONE', *, *, #178, .F. ) ;
#9 = CARTESIAN_POINT ( 'NONE',  ( 8.180169668985892463E-14, -0.8249999999999975131, 9.000000000000000000 ) ) ;
#10 = APPROVAL_PERSON_ORGANIZATION ( #211, #111, #319 ) ;
#11 = CYLINDRICAL_SURFACE ( 'NONE', #127, 0.8249999999999982903 ) ;
#12 = DIRECTION ( 'NONE',  ( 1.903218546456022717E-15, 0.8571673007021097801, 0.5150380749100585964 ) ) ;
#13 = FACE_OUTER_BOUND ( 'NONE', #32, .T. ) ;
#14 = ADVANCED_FACE ( 'NONE', ( #58 ), #5, .T. ) ;
#15 = VECTOR ( 'NONE', #270, 1000.000000000000000 ) ;
#16 = VECTOR ( 'NONE', #248, 1000.000000000000000 ) ;
#17 = LINE ( 'NONE', #324, #256 ) ;
#18 = DIRECTION ( 'NONE',  ( 1.798245827342160317E-15, -0.8571673007021098911, 0.5150380749100582634 ) ) ;
#19 = DIRECTION ( 'NONE',  ( 1.000000000000000000, 0.0000000000000000000, 0.0000000000000000000 ) ) ;
#20 = FACE_OUTER_BOUND ( 'NONE', #82, .T. ) ;
#21 = VECTOR ( 'NONE', #43, 1000.000000000000000 ) ;
#22 = DIRECTION ( 'NONE',  ( 0.0000000000000000000, 1.000000000000000000, 0.0000000000000000000 ) ) ;
#23 = CARTESIAN_POINT ( 'NONE',  ( 1.730762251828888550E-15, -0.8249999999999955147, 0.4957100106977397891 ) ) ;
#24 = PRODUCT_DEFINITION_FORMATION_WITH_SPECIFIED_SOURCE ( 'ANY', '', #137, .NOT_KNOWN. ) ;
#25 = ORIENTED_EDGE ( 'NONE', *, *, #202, .T. ) ;
#26 = EDGE_CURVE ( 'NONE', #263, #99, #60, .T. ) ;
#27 = VERTEX_POINT ( 'NONE', #33 ) ;
#28 = COORDINATED_UNIVERSAL_TIME_OFFSET ( 1, 0, .AHEAD. ) ;
#29 = ORIENTED_EDGE ( 'NONE', *, *, #199, .T. ) ;
#30 = CC_DESIGN_APPROVAL ( #77, ( #24 ) ) ;
#31 = SHAPE_DEFINITION_REPRESENTATION ( #161, #239 ) ;
#32 = EDGE_LOOP ( 'NONE', ( #85, #160, #78, #216 ) ) ;
#33 = CARTESIAN_POINT ( 'NONE',  ( 1.667808051163818458E-14, -0.8249999999999974021, 9.000000000000000000 ) ) ;
#34 = DIRECTION ( 'NONE',  ( -3.491481338843133355E-15, 1.224646799147353207E-16, -1.000000000000000000 ) ) ;
#35 = CONICAL_SURFACE ( 'NONE', #164, 0.8249999999999954037, 1.029744258676649649 ) ;
#36 = APPLICATION_CONTEXT ( 'configuration controlled 3d designs of mechanical parts and assemblies' ) ;
#37 = LINE ( 'NONE', #65, #306 ) ;
#38 = DIRECTION ( 'NONE',  ( -3.491481338843133355E-15, 1.224646799147353207E-16, -1.000000000000000000 ) ) ;
#39 = CARTESIAN_POINT ( 'NONE',  ( 1.326762908760390423E-13, 0.6249999999999953371, 38.00000000000000000 ) ) ;
#40 = CARTESIAN_POINT ( 'NONE',  ( 1.831795612758545126E-15, 0.8249999999999952927, 0.4957100106977400111 ) ) ;
#41 = EDGE_CURVE ( 'NONE', #210, #104, #149, .T. ) ;
#42 = MECHANICAL_CONTEXT ( 'NONE', #234, 'mechanical' ) ;
#43 = DIRECTION ( 'NONE',  ( -3.491481338843133355E-15, 1.224646799147353207E-16, -1.000000000000000000 ) ) ;
#44 = CARTESIAN_POINT ( 'NONE',  ( 3.142333204958820020E-14, 6.186509103480118842E-33, 9.000000000000000000 ) ) ;
#45 = AXIS2_PLACEMENT_3D ( 'NONE', #44, #47, #283 ) ;
#46 = ADVANCED_FACE ( 'NONE', ( #276 ), #86, .T. ) ;
#47 = DIRECTION ( 'NONE',  ( 3.491481338843133355E-15, -1.224646799147353207E-16, 1.000000000000000000 ) ) ;
#48 = APPLICATION_PROTOCOL_DEFINITION ( 'international standard', 'config_control_design', 1994, #234 ) ;
#49 = DATE_AND_TIME ( #260, #215 ) ;
#50 = VECTOR ( 'NONE', #18, 1000.000000000000000 ) ;
#51 = EDGE_LOOP ( 'NONE', ( #292, #240, #54, #213 ) ) ;
#52 = CC_DESIGN_PERSON_AND_ORGANIZATION_ASSIGNMENT ( #112, #55, ( #24 ) ) ;
#53 = APPROVAL_STATUS ( 'not_yet_approved' ) ;
#54 = ORIENTED_EDGE ( 'NONE', *, *, #212, .T. ) ;
#55 = PERSON_AND_ORGANIZATION_ROLE ( 'creator' ) ;
#56 = ORIENTED_EDGE ( 'NONE', *, *, #318, .F. ) ;
#57 = PERSON_AND_ORGANIZATION_ROLE ( 'creator' ) ;
#58 = FACE_OUTER_BOUND ( 'NONE', #84, .T. ) ;
#59 = AXIS2_PLACEMENT_3D ( 'NONE', #121, #228, #179 ) ;
#60 = LINE ( 'NONE', #166, #15 ) ;
#61 = FACE_OUTER_BOUND ( 'NONE', #317, .T. ) ;
#62 = FACE_OUTER_BOUND ( 'NONE', #314, .T. ) ;
#63 = EDGE_CURVE ( 'NONE', #263, #287, #242, .T. ) ;
#64 = APPROVAL_PERSON_ORGANIZATION ( #190, #77, #237 ) ;
#65 = CARTESIAN_POINT ( 'NONE',  ( 1.831795612758545126E-15, 0.8249999999999952927, 0.4957100106977400111 ) ) ;
#66 = DIRECTION ( 'NONE',  ( 3.491481338843133355E-15, -1.224646799147353207E-16, 1.000000000000000000 ) ) ;
#67 = CARTESIAN_POINT ( 'NONE',  ( 1.324159296350929315E-13, -0.6250000000000046629, 38.00000000000000000 ) ) ;
#68 = CC_DESIGN_APPROVAL ( #330, ( #139 ) ) ;
#69 = LINE ( 'NONE', #23, #50 ) ;
#70 = DESIGN_CONTEXT ( 'detailed design', #36, 'design' ) ;
#71 = FACE_OUTER_BOUND ( 'NONE', #51, .T. ) ;
#72 = ORIENTED_EDGE ( 'NONE', *, *, #238, .F. ) ;
#73 = ADVANCED_FACE ( 'NONE', ( #61 ), #11, .T. ) ;
#74 = CARTESIAN_POINT ( 'NONE',  ( 0.0000000000000000000, 0.0000000000000000000, 0.0000000000000000000 ) ) ;
#75 = AXIS2_PLACEMENT_3D ( 'NONE', #142, #301, #114 ) ;
#76 = DATE_AND_TIME ( #194, #323 ) ;
#77 = APPROVAL ( #288, 'UNSPECIFIED' ) ;
#78 = ORIENTED_EDGE ( 'NONE', *, *, #280, .F. ) ;
#79 = AXIS2_PLACEMENT_3D ( 'NONE', #151, #148, #182 ) ;
#80 = ORIENTED_EDGE ( 'NONE', *, *, #257, .F. ) ;
#81 = DATE_TIME_ROLE ( 'creation_date' ) ;
#82 = EDGE_LOOP ( 'NONE', ( #135, #320, #186, #244 ) ) ;
#83 = CALENDAR_DATE ( 2021, 3, 9 ) ;
#84 = EDGE_LOOP ( 'NONE', ( #8, #110, #29, #193 ) ) ;
#85 = ORIENTED_EDGE ( 'NONE', *, *, #309, .T. ) ;
#86 = CONICAL_SURFACE ( 'NONE', #91, 0.8249999999999954037, 1.029744258676649649 ) ;
#87 = CARTESIAN_POINT ( 'NONE',  ( 1.730762251828888944E-15, -6.070696779062874074E-17, 0.4957100106977399001 ) ) ;
#88 = CARTESIAN_POINT ( 'NONE',  ( 1.326762908760390423E-13, -4.653657836759941941E-15, 38.00000000000000000 ) ) ;
#89 = ADVANCED_FACE ( 'NONE', ( #93 ), #35, .T. ) ;
#90 = CARTESIAN_POINT ( 'NONE',  ( 0.0000000000000000000, 0.0000000000000000000, 0.0000000000000000000 ) ) ;
#91 = AXIS2_PLACEMENT_3D ( 'NONE', #118, #66, #226 ) ;
#92 = APPROVAL_PERSON_ORGANIZATION ( #192, #330, #105 ) ;
#93 = FACE_OUTER_BOUND ( 'NONE', #157, .T. ) ;
#94 = CARTESIAN_POINT ( 'NONE',  ( 1.326762908760390423E-13, 0.6249999999999953371, 38.00000000000000000 ) ) ;
#95 = DIRECTION ( 'NONE',  ( -3.491481338843133355E-15, 1.224646799147353207E-16, -1.000000000000000000 ) ) ;
#96 = CIRCLE ( 'NONE', #266, 0.8249999999999964029 ) ;
#97 = FACE_OUTER_BOUND ( 'NONE', #313, .T. ) ;
#98 = DIRECTION ( 'NONE',  ( -3.491481338843133355E-15, 1.224646799147353207E-16, -1.000000000000000000 ) ) ;
#99 = VERTEX_POINT ( 'NONE', #9 ) ;
#100 = EDGE_CURVE ( 'NONE', #27, #218, #181, .T. ) ;
#101 = PLANE ( 'NONE',  #59 ) ;
#102 = CIRCLE ( 'NONE', #144, 0.6250000000000000000 ) ;
#103 = APPLICATION_PROTOCOL_DEFINITION ( 'international standard', 'config_control_design', 1994, #36 ) ;
#104 = VERTEX_POINT ( 'NONE', #39 ) ;
#105 = APPROVAL_ROLE ( '' ) ;
#106 = ORIENTED_EDGE ( 'NONE', *, *, #212, .F. ) ;
#107 = COORDINATED_UNIVERSAL_TIME_OFFSET ( 1, 0, .AHEAD. ) ;
#108 = LOCAL_TIME ( 9, 48, 44.00000000000000000, #163 ) ;
#109 = EDGE_LOOP ( 'NONE', ( #1, #245 ) ) ;
#110 = ORIENTED_EDGE ( 'NONE', *, *, #41, .T. ) ;
#111 = APPROVAL ( #53, 'UNSPECIFIED' ) ;
#112 = PERSON_AND_ORGANIZATION ( #308, #229 ) ;
#113 = ORIENTED_EDGE ( 'NONE', *, *, #100, .F. ) ;
#114 = DIRECTION ( 'NONE',  ( -4.275831445896958607E-31, -1.000000000000000000, -1.224646799147353207E-16 ) ) ;
#115 = CC_DESIGN_PERSON_AND_ORGANIZATION_ASSIGNMENT ( #321, #57, ( #173 ) ) ;
#116 = DIRECTION ( 'NONE',  ( 3.491481338843133355E-15, -1.224646799147353207E-16, 1.000000000000000000 ) ) ;
#117 = CARTESIAN_POINT ( 'NONE',  ( 3.142333204958820020E-14, 0.8249999999999952927, 9.000000000000000000 ) ) ;
#118 = CARTESIAN_POINT ( 'NONE',  ( 1.730762251828888944E-15, -6.070696779062874074E-17, 0.4957100106977399001 ) ) ;
#119 = AXIS2_PLACEMENT_3D ( 'NONE', #223, #168, #252 ) ;
#120 = CARTESIAN_POINT ( 'NONE',  ( 3.142333204958820020E-14, -1.102182119232617714E-15, 9.000000000000000000 ) ) ;
#121 = CARTESIAN_POINT ( 'NONE',  ( 1.326762908760390423E-13, 4.686749320818235233E-33, 38.00000000000000000 ) ) ;
#122 = UNCERTAINTY_MEASURE_WITH_UNIT (LENGTH_MEASURE( 1.000000000000000082E-05 ), #126, 'distance_accuracy_value', 'NONE');
#123 = CIRCLE ( 'NONE', #336, 0.8249999999999964029 ) ;
#124 = EDGE_CURVE ( 'NONE', #27, #265, #196, .T. ) ;
#125 = CYLINDRICAL_SURFACE ( 'NONE', #132, 0.8249999999999982903 ) ;
#126 =( LENGTH_UNIT ( ) NAMED_UNIT ( * ) SI_UNIT ( .MILLI., .METRE. ) );
#127 = AXIS2_PLACEMENT_3D ( 'NONE', #141, #304, #298 ) ;
#128 = PERSON_AND_ORGANIZATION_ROLE ( 'classification_officer' ) ;
#129 = CARTESIAN_POINT ( 'NONE',  ( 1.730762251828888944E-15, -6.070696779062874074E-17, 0.4957100106977399001 ) ) ;
#130 = COORDINATED_UNIVERSAL_TIME_OFFSET ( 1, 0, .AHEAD. ) ;
#131 = ADVANCED_FACE ( 'NONE', ( #326 ), #250, .T. ) ;
#132 = AXIS2_PLACEMENT_3D ( 'NONE', #203, #278, #254 ) ;
#133 = ORIENTED_EDGE ( 'NONE', *, *, #249, .T. ) ;
#134 = ORIENTED_EDGE ( 'NONE', *, *, #202, .F. ) ;
#135 = ORIENTED_EDGE ( 'NONE', *, *, #26, .F. ) ;
#136 = CC_DESIGN_PERSON_AND_ORGANIZATION_ASSIGNMENT ( #312, #264, ( #137 ) ) ;
#137 = PRODUCT ( '54503', '54503', '', ( #42 ) ) ;
#138 = LINE ( 'NONE', #277, #16 ) ;
#139 = SECURITY_CLASSIFICATION ( '', '', #286 ) ;
#140 = CARTESIAN_POINT ( 'NONE',  ( 1.326762908760390423E-13, -4.653657836759941941E-15, 38.00000000000000000 ) ) ;
#141 = CARTESIAN_POINT ( 'NONE',  ( 0.0000000000000000000, 0.0000000000000000000, 0.0000000000000000000 ) ) ;
#142 = CARTESIAN_POINT ( 'NONE',  ( 3.142333204958820020E-14, 6.186509103480118842E-33, 9.000000000000000000 ) ) ;
#143 = PRODUCT_RELATED_PRODUCT_CATEGORY ( 'detail', '', ( #137 ) ) ;
#144 = AXIS2_PLACEMENT_3D ( 'NONE', #329, #95, #279 ) ;
#145 = DIRECTION ( 'NONE',  ( 0.0000000000000000000, 1.000000000000000000, 0.0000000000000000000 ) ) ;
#146 = CARTESIAN_POINT ( 'NONE',  ( 0.0000000000000000000, 0.0000000000000000000, 0.0000000000000000000 ) ) ;
#147 = ADVANCED_FACE ( 'NONE', ( #62 ), #222, .T. ) ;
#148 = DIRECTION ( 'NONE',  ( -3.491481338843133355E-15, 1.224646799147353207E-16, -1.000000000000000000 ) ) ;
#149 = CIRCLE ( 'NONE', #206, 0.6250000000000000000 ) ;
#150 = LOCAL_TIME ( 9, 48, 44.00000000000000000, #28 ) ;
#151 = CARTESIAN_POINT ( 'NONE',  ( 1.319779946082704535E-13, -4.629164900776995227E-15, 37.79999999999999716 ) ) ;
#152 = CARTESIAN_POINT ( 'NONE',  ( 1.319779946082704535E-13, 0.8249999999999952927, 37.79999999999999716 ) ) ;
#153 = DATE_AND_TIME ( #83, #221 ) ;
#154 = CIRCLE ( 'NONE', #208, 0.8249999999999954037 ) ;
#155 = PERSON_AND_ORGANIZATION ( #308, #229 ) ;
#156 = ORIENTED_EDGE ( 'NONE', *, *, #41, .F. ) ;
#157 = EDGE_LOOP ( 'NONE', ( #310, #133, #195 ) ) ;
#158 = CC_DESIGN_DATE_AND_TIME_ASSIGNMENT ( #153, #7, ( #139 ) ) ;
#159 = PERSON_AND_ORGANIZATION ( #308, #229 ) ;
#160 = ORIENTED_EDGE ( 'NONE', *, *, #178, .T. ) ;
#161 = PRODUCT_DEFINITION_SHAPE ( 'NONE', 'NONE',  #173 ) ;
#162 = MANIFOLD_SOLID_BREP ( 'Corps-Déplacer/Copier1[1]', #170 ) ;
#163 = COORDINATED_UNIVERSAL_TIME_OFFSET ( 1, 0, .AHEAD. ) ;
#164 = AXIS2_PLACEMENT_3D ( 'NONE', #87, #116, #200 ) ;
#165 = DIRECTION ( 'NONE',  ( -3.491481338843133355E-15, 1.224646799147353207E-16, -1.000000000000000000 ) ) ;
#166 = CARTESIAN_POINT ( 'NONE',  ( 1.010333609296560831E-16, -0.8249999999999982903, -1.010333609296567733E-16 ) ) ;
#167 = MANIFOLD_SOLID_BREP ( 'Corps-Déplacer/Copier1[2]', #315 ) ;
#168 = DIRECTION ( 'NONE',  ( -3.491481338843133355E-15, 1.224646799147353207E-16, -1.000000000000000000 ) ) ;
#169 = DIRECTION ( 'NONE',  ( 0.0000000000000000000, 1.000000000000000000, 0.0000000000000000000 ) ) ;
#170 = CLOSED_SHELL ( 'NONE', ( #189, #73, #272, #303, #14, #297 ) ) ;
#171 = AXIS2_PLACEMENT_3D ( 'NONE', #90, #302, #251 ) ;
#172 = DIRECTION ( 'NONE',  ( -3.491481338843133355E-15, 1.224646799147353207E-16, -1.000000000000000000 ) ) ;
#173 = PRODUCT_DEFINITION ( 'UNKNOWN', '', #24, #70 ) ;
#174 = DIRECTION ( 'NONE',  ( -3.491481338843133355E-15, 1.224646799147353207E-16, -1.000000000000000000 ) ) ;
#175 = CARTESIAN_POINT ( 'NONE',  ( 1.010333609296557873E-16, -0.8249999999999958478, -1.010333609296564775E-16 ) ) ;
#176 = AXIS2_PLACEMENT_3D ( 'NONE', #146, #284, #19 ) ;
#177 = DIRECTION ( 'NONE',  ( -3.491481338843133355E-15, 1.224646799147353207E-16, -1.000000000000000000 ) ) ;
#178 = EDGE_CURVE ( 'NONE', #210, #263, #17, .T. ) ;
#179 = DIRECTION ( 'NONE',  ( 4.275831445896958607E-31, 1.000000000000000000, 1.224646799147353207E-16 ) ) ;
#180 = CARTESIAN_POINT ( 'NONE',  ( 3.527560942864983537E-31, 0.8249999999999982903, 1.010333609296564282E-16 ) ) ;
#181 = CIRCLE ( 'NONE', #119, 0.8249999999999964029 ) ;
#182 = DIRECTION ( 'NONE',  ( 0.0000000000000000000, 1.000000000000000000, 0.0000000000000000000 ) ) ;
#183 = EDGE_CURVE ( 'NONE', #99, #285, #311, .T. ) ;
#184 =( NAMED_UNIT ( * ) PLANE_ANGLE_UNIT ( ) SI_UNIT ( $, .RADIAN. ) );
#185 = APPROVAL_DATE_TIME ( #219, #330 ) ;
#186 = ORIENTED_EDGE ( 'NONE', *, *, #257, .T. ) ;
#187 = VECTOR ( 'NONE', #197, 1000.000000000000114 ) ;
#188 = VERTEX_POINT ( 'NONE', #40 ) ;
#189 = ADVANCED_FACE ( 'NONE', ( #13 ), #294, .T. ) ;
#190 = PERSON_AND_ORGANIZATION ( #308, #229 ) ;
#191 = ORIENTED_EDGE ( 'NONE', *, *, #309, .F. ) ;
#192 = PERSON_AND_ORGANIZATION ( #308, #229 ) ;
#193 = ORIENTED_EDGE ( 'NONE', *, *, #63, .F. ) ;
#194 = CALENDAR_DATE ( 2021, 3, 9 ) ;
#195 = ORIENTED_EDGE ( 'NONE', *, *, #3, .T. ) ;
#196 = LINE ( 'NONE', #175, #316 ) ;
#197 = DIRECTION ( 'NONE',  ( -2.468850131082257455E-15, 0.7071067811865497932, -0.7071067811865453523 ) ) ;
#198 = DIRECTION ( 'NONE',  ( -3.491481338843133355E-15, 1.224646799147353207E-16, -1.000000000000000000 ) ) ;
#199 = EDGE_CURVE ( 'NONE', #104, #287, #328, .T. ) ;
#200 = DIRECTION ( 'NONE',  ( -4.668921077302415797E-31, -1.000000000000000000, -1.314184451497588408E-16 ) ) ;
#201 = DIRECTION ( 'NONE',  ( 0.0000000000000000000, 1.000000000000000000, 0.0000000000000000000 ) ) ;
#202 = EDGE_CURVE ( 'NONE', #218, #27, #96, .T. ) ;
#203 = CARTESIAN_POINT ( 'NONE',  ( 0.0000000000000000000, 0.0000000000000000000, 0.0000000000000000000 ) ) ;
#204 = CC_DESIGN_APPROVAL ( #111, ( #173 ) ) ;
#205 = ORIENTED_EDGE ( 'NONE', *, *, #238, .T. ) ;
#206 = AXIS2_PLACEMENT_3D ( 'NONE', #140, #198, #275 ) ;
#207 = CC_DESIGN_PERSON_AND_ORGANIZATION_ASSIGNMENT ( #159, #128, ( #139 ) ) ;
#208 = AXIS2_PLACEMENT_3D ( 'NONE', #224, #172, #334 ) ;
#209 = PERSON_AND_ORGANIZATION_ROLE ( 'design_supplier' ) ;
#210 = VERTEX_POINT ( 'NONE', #67 ) ;
#211 = PERSON_AND_ORGANIZATION ( #308, #229 ) ;
#212 = EDGE_CURVE ( 'NONE', #218, #188, #138, .T. ) ;
#213 = ORIENTED_EDGE ( 'NONE', *, *, #3, .F. ) ;
#214 = CIRCLE ( 'NONE', #299, 0.8249999999999954037 ) ;
#215 = LOCAL_TIME ( 9, 48, 44.00000000000000000, #107 ) ;
#216 = ORIENTED_EDGE ( 'NONE', *, *, #199, .F. ) ;
#217 = COORDINATED_UNIVERSAL_TIME_OFFSET ( 1, 0, .AHEAD. ) ;
#218 = VERTEX_POINT ( 'NONE', #117 ) ;
#219 = DATE_AND_TIME ( #267, #108 ) ;
#220 = ORIENTED_EDGE ( 'NONE', *, *, #249, .F. ) ;
#221 = LOCAL_TIME ( 9, 48, 44.00000000000000000, #217 ) ;
#222 = CYLINDRICAL_SURFACE ( 'NONE', #171, 0.8249999999999958478 ) ;
#223 = CARTESIAN_POINT ( 'NONE',  ( 3.142333204958820020E-14, -1.102182119232617714E-15, 9.000000000000000000 ) ) ;
#224 = CARTESIAN_POINT ( 'NONE',  ( 1.730762251828888944E-15, -6.070696779062874074E-17, 0.4957100106977399001 ) ) ;
#225 = CC_DESIGN_DATE_AND_TIME_ASSIGNMENT ( #76, #81, ( #173 ) ) ;
#226 = DIRECTION ( 'NONE',  ( -4.668921077302415797E-31, -1.000000000000000000, -1.314184451497588408E-16 ) ) ;
#227 = DIRECTION ( 'NONE',  ( -3.491481338843133355E-15, 1.224646799147353207E-16, -1.000000000000000000 ) ) ;
#228 = DIRECTION ( 'NONE',  ( -3.491481338843133355E-15, 1.224646799147353207E-16, -1.000000000000000000 ) ) ;
#229 = ORGANIZATION ( 'UNSPECIFIED', 'UNSPECIFIED', '' ) ;
#230 = CARTESIAN_POINT ( 'NONE',  ( 3.142333204958820020E-14, -1.102182119232617714E-15, 9.000000000000000000 ) ) ;
#231 = ORIENTED_EDGE ( 'NONE', *, *, #124, .T. ) ;
#232 = LINE ( 'NONE', #180, #21 ) ;
#233 = EDGE_CURVE ( 'NONE', #261, #188, #37, .T. ) ;
#234 = APPLICATION_CONTEXT ( 'configuration controlled 3d designs of mechanical parts and assemblies' ) ;
#235 =( NAMED_UNIT ( * ) SI_UNIT ( $, .STERADIAN. ) SOLID_ANGLE_UNIT ( ) );
#236 = AXIS2_PLACEMENT_3D ( 'NONE', #331, #177, #259 ) ;
#237 = APPROVAL_ROLE ( '' ) ;
#238 = EDGE_CURVE ( 'NONE', #188, #265, #154, .T. ) ;
#239 = ADVANCED_BREP_SHAPE_REPRESENTATION ( '54503', ( #162, #167, #176 ), #282 ) ;
#240 = ORIENTED_EDGE ( 'NONE', *, *, #100, .T. ) ;
#241 = DIRECTION ( 'NONE',  ( -3.491481338843133355E-15, 1.224646799147353207E-16, -1.000000000000000000 ) ) ;
#242 = CIRCLE ( 'NONE', #307, 0.8249999999999999556 ) ;
#243 = CALENDAR_DATE ( 2021, 3, 9 ) ;
#244 = ORIENTED_EDGE ( 'NONE', *, *, #183, .F. ) ;
#245 = ORIENTED_EDGE ( 'NONE', *, *, #183, .T. ) ;
#246 = EDGE_LOOP ( 'NONE', ( #134, #113 ) ) ;
#247 = CIRCLE ( 'NONE', #79, 0.8249999999999999556 ) ;
#248 = DIRECTION ( 'NONE',  ( -3.491481338843133355E-15, 1.224646799147353207E-16, -1.000000000000000000 ) ) ;
#249 = EDGE_CURVE ( 'NONE', #261, #265, #69, .T. ) ;
#250 = PLANE ( 'NONE',  #75 ) ;
#251 = DIRECTION ( 'NONE',  ( 4.275831445896958607E-31, 1.000000000000000000, 1.224646799147353207E-16 ) ) ;
#252 = DIRECTION ( 'NONE',  ( 0.0000000000000000000, 1.000000000000000000, 0.0000000000000000000 ) ) ;
#253 = PLANE ( 'NONE',  #45 ) ;
#254 = DIRECTION ( 'NONE',  ( 4.275831445896958607E-31, 1.000000000000000000, 1.224646799147353207E-16 ) ) ;
#255 = CYLINDRICAL_SURFACE ( 'NONE', #236, 0.8249999999999958478 ) ;
#256 = VECTOR ( 'NONE', #325, 1000.000000000000114 ) ;
#257 = EDGE_CURVE ( 'NONE', #287, #285, #232, .T. ) ;
#258 = CARTESIAN_POINT ( 'NONE',  ( 3.142333204958820020E-14, 0.8249999999999952927, 9.000000000000000000 ) ) ;
#259 = DIRECTION ( 'NONE',  ( 4.275831445896958607E-31, 1.000000000000000000, 1.224646799147353207E-16 ) ) ;
#260 = CALENDAR_DATE ( 2021, 3, 9 ) ;
#261 = VERTEX_POINT ( 'NONE', #74 ) ;
#262 = APPROVAL_DATE_TIME ( #49, #111 ) ;
#263 = VERTEX_POINT ( 'NONE', #281 ) ;
#264 = PERSON_AND_ORGANIZATION_ROLE ( 'design_owner' ) ;
#265 = VERTEX_POINT ( 'NONE', #305 ) ;
#266 = AXIS2_PLACEMENT_3D ( 'NONE', #274, #34, #201 ) ;
#267 = CALENDAR_DATE ( 2021, 3, 9 ) ;
#268 = CC_DESIGN_PERSON_AND_ORGANIZATION_ASSIGNMENT ( #155, #209, ( #24 ) ) ;
#269 = EDGE_LOOP ( 'NONE', ( #220, #6, #205 ) ) ;
#270 = DIRECTION ( 'NONE',  ( -3.491481338843133355E-15, 1.224646799147353207E-16, -1.000000000000000000 ) ) ;
#271 = DIRECTION ( 'NONE',  ( -3.491481338843133355E-15, 1.224646799147353207E-16, -1.000000000000000000 ) ) ;
#272 = ADVANCED_FACE ( 'NONE', ( #335 ), #253, .F. ) ;
#273 = AXIS2_PLACEMENT_3D ( 'NONE', #88, #227, #145 ) ;
#274 = CARTESIAN_POINT ( 'NONE',  ( 3.142333204958820020E-14, -1.102182119232617714E-15, 9.000000000000000000 ) ) ;
#275 = DIRECTION ( 'NONE',  ( 0.0000000000000000000, 1.000000000000000000, 0.0000000000000000000 ) ) ;
#276 = FACE_OUTER_BOUND ( 'NONE', #269, .T. ) ;
#277 = CARTESIAN_POINT ( 'NONE',  ( 3.527560942864973028E-31, 0.8249999999999958478, 1.010333609296561324E-16 ) ) ;
#278 = DIRECTION ( 'NONE',  ( -3.491481338843133355E-15, 1.224646799147353207E-16, -1.000000000000000000 ) ) ;
#279 = DIRECTION ( 'NONE',  ( 0.0000000000000000000, 1.000000000000000000, 0.0000000000000000000 ) ) ;
#280 = EDGE_CURVE ( 'NONE', #287, #263, #247, .T. ) ;
#281 = CARTESIAN_POINT ( 'NONE',  ( 8.180169668985876055E-14, -0.8250000000000047296, 37.79999999999999716 ) ) ;
#282 =( GEOMETRIC_REPRESENTATION_CONTEXT ( 3 ) GLOBAL_UNCERTAINTY_ASSIGNED_CONTEXT ( ( #122 ) ) GLOBAL_UNIT_ASSIGNED_CONTEXT ( ( #126, #184, #235 ) ) REPRESENTATION_CONTEXT ( 'NONE', 'WORKASPACE' ) );
#283 = DIRECTION ( 'NONE',  ( -4.275831445896958607E-31, -1.000000000000000000, -1.224646799147353207E-16 ) ) ;
#284 = DIRECTION ( 'NONE',  ( 0.0000000000000000000, 0.0000000000000000000, 1.000000000000000000 ) ) ;
#285 = VERTEX_POINT ( 'NONE', #258 ) ;
#286 = SECURITY_CLASSIFICATION_LEVEL ( 'unclassified' ) ;
#287 = VERTEX_POINT ( 'NONE', #152 ) ;
#288 = APPROVAL_STATUS ( 'not_yet_approved' ) ;
#289 = ORIENTED_EDGE ( 'NONE', *, *, #26, .T. ) ;
#290 = ADVANCED_FACE ( 'NONE', ( #71 ), #255, .T. ) ;
#291 = APPROVAL_STATUS ( 'not_yet_approved' ) ;
#292 = ORIENTED_EDGE ( 'NONE', *, *, #124, .F. ) ;
#293 = AXIS2_PLACEMENT_3D ( 'NONE', #295, #165, #322 ) ;
#294 = CONICAL_SURFACE ( 'NONE', #273, 0.6250000000000000000, 0.7853981633974512766 ) ;
#295 = CARTESIAN_POINT ( 'NONE',  ( 1.326762908760390423E-13, -4.653657836759941941E-15, 38.00000000000000000 ) ) ;
#296 = DIRECTION ( 'NONE',  ( 0.0000000000000000000, 1.000000000000000000, 0.0000000000000000000 ) ) ;
#297 = ADVANCED_FACE ( 'NONE', ( #97 ), #101, .F. ) ;
#298 = DIRECTION ( 'NONE',  ( 4.275831445896958607E-31, 1.000000000000000000, 1.224646799147353207E-16 ) ) ;
#299 = AXIS2_PLACEMENT_3D ( 'NONE', #129, #241, #4 ) ;
#300 = AXIS2_PLACEMENT_3D ( 'NONE', #120, #271, #169 ) ;
#301 = DIRECTION ( 'NONE',  ( 3.491481338843133355E-15, -1.224646799147353207E-16, 1.000000000000000000 ) ) ;
#302 = DIRECTION ( 'NONE',  ( -3.491481338843133355E-15, 1.224646799147353207E-16, -1.000000000000000000 ) ) ;
#303 = ADVANCED_FACE ( 'NONE', ( #20 ), #125, .T. ) ;
#304 = DIRECTION ( 'NONE',  ( -3.491481338843133355E-15, 1.224646799147353207E-16, -1.000000000000000000 ) ) ;
#305 = CARTESIAN_POINT ( 'NONE',  ( 1.730762251828888550E-15, -0.8249999999999955147, 0.4957100106977397891 ) ) ;
#306 = VECTOR ( 'NONE', #12, 999.9999999999998863 ) ;
#307 = AXIS2_PLACEMENT_3D ( 'NONE', #327, #38, #296 ) ;
#308 = PERSON ( 'UNSPECIFIED', 'UNSPECIFIED', 'UNSPECIFIED', ('UNSPECIFIED'), ('UNSPECIFIED'), ('UNSPECIFIED') ) ;
#309 = EDGE_CURVE ( 'NONE', #104, #210, #102, .T. ) ;
#310 = ORIENTED_EDGE ( 'NONE', *, *, #233, .F. ) ;
#311 = CIRCLE ( 'NONE', #300, 0.8249999999999964029 ) ;
#312 = PERSON_AND_ORGANIZATION ( #308, #229 ) ;
#313 = EDGE_LOOP ( 'NONE', ( #191, #156 ) ) ;
#314 = EDGE_LOOP ( 'NONE', ( #25, #231, #72, #106 ) ) ;
#315 = CLOSED_SHELL ( 'NONE', ( #147, #46, #89, #290, #131 ) ) ;
#316 = VECTOR ( 'NONE', #174, 1000.000000000000000 ) ;
#317 = EDGE_LOOP ( 'NONE', ( #333, #289, #56, #80 ) ) ;
#318 = EDGE_CURVE ( 'NONE', #285, #99, #123, .T. ) ;
#319 = APPROVAL_ROLE ( '' ) ;
#320 = ORIENTED_EDGE ( 'NONE', *, *, #63, .T. ) ;
#321 = PERSON_AND_ORGANIZATION ( #308, #229 ) ;
#322 = DIRECTION ( 'NONE',  ( 0.0000000000000000000, 1.000000000000000000, 0.0000000000000000000 ) ) ;
#323 = LOCAL_TIME ( 9, 48, 44.00000000000000000, #130 ) ;
#324 = CARTESIAN_POINT ( 'NONE',  ( 1.327528313009857423E-13, -0.6250000000000046629, 38.00000000000000000 ) ) ;
#325 = DIRECTION ( 'NONE',  ( -2.382254525458708792E-15, -0.7071067811865495711, -0.7071067811865455743 ) ) ;
#326 = FACE_OUTER_BOUND ( 'NONE', #246, .T. ) ;
#327 = CARTESIAN_POINT ( 'NONE',  ( 1.319779946082704535E-13, -4.629164900776995227E-15, 37.79999999999999716 ) ) ;
#328 = LINE ( 'NONE', #94, #187 ) ;
#329 = CARTESIAN_POINT ( 'NONE',  ( 1.326762908760390423E-13, -4.653657836759941941E-15, 38.00000000000000000 ) ) ;
#330 = APPROVAL ( #291, 'UNSPECIFIED' ) ;
#331 = CARTESIAN_POINT ( 'NONE',  ( 0.0000000000000000000, 0.0000000000000000000, 0.0000000000000000000 ) ) ;
#332 = CC_DESIGN_SECURITY_CLASSIFICATION ( #139, ( #24 ) ) ;
#333 = ORIENTED_EDGE ( 'NONE', *, *, #280, .T. ) ;
#334 = DIRECTION ( 'NONE',  ( 4.668921077302415797E-31, 1.000000000000000000, 1.314184451497588408E-16 ) ) ;
#335 = FACE_OUTER_BOUND ( 'NONE', #109, .T. ) ;
#336 = AXIS2_PLACEMENT_3D ( 'NONE', #230, #98, #22 ) ;
#337 = APPROVAL_DATE_TIME ( #2, #77 ) ;
ENDSEC;
END-ISO-10303-21;
