ISO-10303-21;
HEADER;
FILE_DESCRIPTION (( 'STEP AP203' ),
    '1' );
FILE_NAME ('54502.step',
    '2021-09-03T07:48:42',
    ( '' ),
    ( '' ),
    'SwSTEP 2.0',
    'SolidWorks 2019',
    '' );
FILE_SCHEMA (( 'CONFIG_CONTROL_DESIGN' ));
ENDSEC;

DATA;
#1 = DIRECTION ( 'NONE',  ( 0.0000000000000000000, 1.000000000000000000, 0.0000000000000000000 ) ) ;
#2 = ORIENTED_EDGE ( 'NONE', *, *, #95, .F. ) ;
#3 = PRODUCT ( '54502', '54502', '', ( #260 ) ) ;
#4 = DIRECTION ( 'NONE',  ( -3.491481338843133355E-15, 1.224646799147353207E-16, -1.000000000000000000 ) ) ;
#5 = EDGE_CURVE ( 'NONE', #82, #139, #7, .T. ) ;
#6 = ORIENTED_EDGE ( 'NONE', *, *, #320, .T. ) ;
#7 = CIRCLE ( 'NONE', #44, 0.8000000000000000444 ) ;
#8 = CC_DESIGN_APPROVAL ( #122, ( #259 ) ) ;
#9 = CYLINDRICAL_SURFACE ( 'NONE', #109, 0.7999999999999960476 ) ;
#10 = ORIENTED_EDGE ( 'NONE', *, *, #180, .F. ) ;
#11 = AXIS2_PLACEMENT_3D ( 'NONE', #315, #236, #212 ) ;
#12 = ORIENTED_EDGE ( 'NONE', *, *, #53, .F. ) ;
#13 = DATE_TIME_ROLE ( 'creation_date' ) ;
#14 = DIRECTION ( 'NONE',  ( 0.0000000000000000000, 1.000000000000000000, 0.0000000000000000000 ) ) ;
#15 = PERSON_AND_ORGANIZATION_ROLE ( 'creator' ) ;
#16 = DIRECTION ( 'NONE',  ( 0.0000000000000000000, 1.000000000000000000, 0.0000000000000000000 ) ) ;
#17 = CALENDAR_DATE ( 2021, 3, 9 ) ;
#18 = APPROVAL_PERSON_ORGANIZATION ( #106, #110, #240 ) ;
#19 = DIRECTION ( 'NONE',  ( -3.491481338843133355E-15, 1.224646799147353207E-16, -1.000000000000000000 ) ) ;
#20 = CARTESIAN_POINT ( 'NONE',  ( 1.678314910864376148E-15, -0.7999999999999956035, 0.4806884952220505935 ) ) ;
#21 = ADVANCED_FACE ( 'NONE', ( #134 ), #234, .T. ) ;
#22 = FACE_OUTER_BOUND ( 'NONE', #107, .T. ) ;
#23 = DESIGN_CONTEXT ( 'detailed design', #28, 'design' ) ;
#24 = CARTESIAN_POINT ( 'NONE',  ( 1.319779946082704535E-13, -4.629164900776995227E-15, 37.79999999999999716 ) ) ;
#25 = CIRCLE ( 'NONE', #198, 0.7999999999999964917 ) ;
#26 = LINE ( 'NONE', #20, #30 ) ;
#27 = CYLINDRICAL_SURFACE ( 'NONE', #314, 0.7999999999999960476 ) ;
#28 = APPLICATION_CONTEXT ( 'configuration controlled 3d designs of mechanical parts and assemblies' ) ;
#29 = EDGE_CURVE ( 'NONE', #139, #269, #189, .T. ) ;
#30 = VECTOR ( 'NONE', #96, 1000.000000000000000 ) ;
#31 = EDGE_LOOP ( 'NONE', ( #43, #312, #10, #12 ) ) ;
#32 = CC_DESIGN_PERSON_AND_ORGANIZATION_ASSIGNMENT ( #296, #248, ( #265 ) ) ;
#33 = CARTESIAN_POINT ( 'NONE',  ( 0.0000000000000000000, 0.0000000000000000000, 0.0000000000000000000 ) ) ;
#34 = VERTEX_POINT ( 'NONE', #249 ) ;
#35 = CONICAL_SURFACE ( 'NONE', #155, 0.7999999999999954925, 1.029744258676649871 ) ;
#36 = CARTESIAN_POINT ( 'NONE',  ( 1.664879522415806014E-14, -0.7999999999999974909, 9.000000000000000000 ) ) ;
#37 = DIRECTION ( 'NONE',  ( -3.491481338843133355E-15, 1.224646799147353207E-16, -1.000000000000000000 ) ) ;
#38 = CALENDAR_DATE ( 2021, 3, 9 ) ;
#39 = VERTEX_POINT ( 'NONE', #114 ) ;
#40 = EDGE_CURVE ( 'NONE', #269, #64, #202, .T. ) ;
#41 = COORDINATED_UNIVERSAL_TIME_OFFSET ( 1, 0, .AHEAD. ) ;
#42 = ORIENTED_EDGE ( 'NONE', *, *, #163, .T. ) ;
#43 = ORIENTED_EDGE ( 'NONE', *, *, #300, .T. ) ;
#44 = AXIS2_PLACEMENT_3D ( 'NONE', #245, #193, #16 ) ;
#45 = CARTESIAN_POINT ( 'NONE',  ( 1.326762908760390423E-13, -4.653657836759941941E-15, 38.00000000000000000 ) ) ;
#46 = EDGE_CURVE ( 'NONE', #34, #186, #299, .T. ) ;
#47 = DIRECTION ( 'NONE',  ( 4.814824860968116783E-31, 1.000000000000000000, 1.355252715606888185E-16 ) ) ;
#48 = DIRECTION ( 'NONE',  ( 4.275831445896958607E-31, 1.000000000000000000, 1.224646799147353207E-16 ) ) ;
#49 = LINE ( 'NONE', #200, #130 ) ;
#50 = FACE_OUTER_BOUND ( 'NONE', #128, .T. ) ;
#51 = DIRECTION ( 'NONE',  ( -3.491481338843133355E-15, 1.224646799147353207E-16, -1.000000000000000000 ) ) ;
#52 = CIRCLE ( 'NONE', #86, 0.6000000000000000888 ) ;
#53 = EDGE_CURVE ( 'NONE', #324, #139, #222, .T. ) ;
#54 = APPLICATION_PROTOCOL_DEFINITION ( 'international standard', 'config_control_design', 1994, #28 ) ;
#55 = DIRECTION ( 'NONE',  ( -3.491481338843133355E-15, 1.224646799147353207E-16, -1.000000000000000000 ) ) ;
#56 = CONICAL_SURFACE ( 'NONE', #177, 0.6000000000000000888, 0.7853981633974512766 ) ;
#57 = APPROVAL_DATE_TIME ( #194, #110 ) ;
#58 = ORIENTED_EDGE ( 'NONE', *, *, #300, .F. ) ;
#59 = ORIENTED_EDGE ( 'NONE', *, *, #203, .T. ) ;
#60 = ADVANCED_FACE ( 'NONE', ( #283 ), #224, .F. ) ;
#61 = DATE_TIME_ROLE ( 'classification_date' ) ;
#62 = VERTEX_POINT ( 'NONE', #148 ) ;
#63 = ORIENTED_EDGE ( 'NONE', *, *, #46, .T. ) ;
#64 = VERTEX_POINT ( 'NONE', #333 ) ;
#65 = AXIS2_PLACEMENT_3D ( 'NONE', #226, #302, #145 ) ;
#66 = CARTESIAN_POINT ( 'NONE',  ( 0.0000000000000000000, 0.0000000000000000000, 0.0000000000000000000 ) ) ;
#67 = CARTESIAN_POINT ( 'NONE',  ( 0.0000000000000000000, 0.0000000000000000000, 0.0000000000000000000 ) ) ;
#68 = ADVANCED_FACE ( 'NONE', ( #50 ), #204, .T. ) ;
#69 = DIRECTION ( 'NONE',  ( 0.0000000000000000000, 1.000000000000000000, 0.0000000000000000000 ) ) ;
#70 = CC_DESIGN_APPROVAL ( #208, ( #282 ) ) ;
#71 = FACE_OUTER_BOUND ( 'NONE', #136, .T. ) ;
#72 = PERSON_AND_ORGANIZATION ( #170, #102 ) ;
#73 = ADVANCED_FACE ( 'NONE', ( #22 ), #335, .F. ) ;
#74 = CARTESIAN_POINT ( 'NONE',  ( 9.797174393178743567E-17, -0.7999999999999960476, -9.797174393178810127E-17 ) ) ;
#75 = CARTESIAN_POINT ( 'NONE',  ( 3.142333204958820020E-14, -1.102182119232617714E-15, 9.000000000000000000 ) ) ;
#76 = DIRECTION ( 'NONE',  ( -2.382254525458708792E-15, -0.7071067811865495711, -0.7071067811865455743 ) ) ;
#77 = ADVANCED_FACE ( 'NONE', ( #71 ), #56, .T. ) ;
#78 = ORIENTED_EDGE ( 'NONE', *, *, #29, .F. ) ;
#79 = VECTOR ( 'NONE', #117, 1000.000000000000114 ) ;
#80 = AXIS2_PLACEMENT_3D ( 'NONE', #281, #197, #48 ) ;
#81 = ORIENTED_EDGE ( 'NONE', *, *, #180, .T. ) ;
#82 = VERTEX_POINT ( 'NONE', #329 ) ;
#83 = DATE_AND_TIME ( #192, #220 ) ;
#84 = ORIENTED_EDGE ( 'NONE', *, *, #270, .F. ) ;
#85 = AXIS2_PLACEMENT_3D ( 'NONE', #45, #37, #14 ) ;
#86 = AXIS2_PLACEMENT_3D ( 'NONE', #317, #151, #207 ) ;
#87 = APPROVAL_DATE_TIME ( #221, #122 ) ;
#88 = DIRECTION ( 'NONE',  ( -3.491481338843133355E-15, 1.224646799147353207E-16, -1.000000000000000000 ) ) ;
#89 = APPROVAL_DATE_TIME ( #83, #208 ) ;
#90 = CARTESIAN_POINT ( 'NONE',  ( 1.326762908760390423E-13, 0.5999999999999954259, 38.00000000000000000 ) ) ;
#91 = FACE_OUTER_BOUND ( 'NONE', #165, .T. ) ;
#92 = AXIS2_PLACEMENT_3D ( 'NONE', #67, #334, #174 ) ;
#93 = DIRECTION ( 'NONE',  ( 3.491481338843133355E-15, -1.224646799147353207E-16, 1.000000000000000000 ) ) ;
#94 = DIRECTION ( 'NONE',  ( -3.491481338843133355E-15, 1.224646799147353207E-16, -1.000000000000000000 ) ) ;
#95 = EDGE_CURVE ( 'NONE', #321, #39, #108, .T. ) ;
#96 = DIRECTION ( 'NONE',  ( 1.798245827342159528E-15, -0.8571673007021100021, 0.5150380749100580413 ) ) ;
#97 = CYLINDRICAL_SURFACE ( 'NONE', #92, 0.7999999999999981570 ) ;
#98 = AXIS2_PLACEMENT_3D ( 'NONE', #172, #173, #311 ) ;
#99 = ADVANCED_FACE ( 'NONE', ( #278 ), #97, .T. ) ;
#100 = CARTESIAN_POINT ( 'NONE',  ( 3.420665156717549895E-31, 0.7999999999999960476, 9.797174393178776847E-17 ) ) ;
#101 = LINE ( 'NONE', #100, #115 ) ;
#102 = ORGANIZATION ( 'UNSPECIFIED', 'UNSPECIFIED', '' ) ;
#103 = FACE_OUTER_BOUND ( 'NONE', #111, .T. ) ;
#104 = CARTESIAN_POINT ( 'NONE',  ( 3.142333204958820020E-14, 0.7999999999999953815, 9.000000000000000000 ) ) ;
#105 = ORIENTED_EDGE ( 'NONE', *, *, #29, .T. ) ;
#106 = PERSON_AND_ORGANIZATION ( #170, #102 ) ;
#107 = EDGE_LOOP ( 'NONE', ( #58, #233 ) ) ;
#108 = CIRCLE ( 'NONE', #250, 0.7999999999999964917 ) ;
#109 = AXIS2_PLACEMENT_3D ( 'NONE', #33, #206, #287 ) ;
#110 = APPROVAL ( #327, 'UNSPECIFIED' ) ;
#111 = EDGE_LOOP ( 'NONE', ( #294, #187, #273, #328 ) ) ;
#112 = COORDINATED_UNIVERSAL_TIME_OFFSET ( 1, 0, .AHEAD. ) ;
#113 = CARTESIAN_POINT ( 'NONE',  ( 3.420665156717559091E-31, 0.7999999999999981570, 9.797174393178802731E-17 ) ) ;
#114 = CARTESIAN_POINT ( 'NONE',  ( 3.142333204958820020E-14, 0.7999999999999953815, 9.000000000000000000 ) ) ;
#115 = VECTOR ( 'NONE', #55, 1000.000000000000000 ) ;
#116 = PERSON_AND_ORGANIZATION ( #170, #102 ) ;
#117 = DIRECTION ( 'NONE',  ( 1.903218546456021928E-15, 0.8571673007021098911, 0.5150380749100583744 ) ) ;
#118 = DIRECTION ( 'NONE',  ( 0.0000000000000000000, 1.000000000000000000, 0.0000000000000000000 ) ) ;
#119 = UNCERTAINTY_MEASURE_WITH_UNIT (LENGTH_MEASURE( 1.000000000000000082E-05 ), #285, 'distance_accuracy_value', 'NONE');
#120 = CARTESIAN_POINT ( 'NONE',  ( 3.142333204958820020E-14, 5.999039130647388009E-33, 9.000000000000000000 ) ) ;
#121 = CIRCLE ( 'NONE', #289, 0.7999999999999954925 ) ;
#122 = APPROVAL ( #152, 'UNSPECIFIED' ) ;
#123 = CARTESIAN_POINT ( 'NONE',  ( 1.326762908760390423E-13, 4.499279347985503717E-33, 38.00000000000000000 ) ) ;
#124 = DIRECTION ( 'NONE',  ( -3.491481338843133355E-15, 1.224646799147353207E-16, -1.000000000000000000 ) ) ;
#125 = DIRECTION ( 'NONE',  ( -3.491481338843133355E-15, 1.224646799147353207E-16, -1.000000000000000000 ) ) ;
#126 = CARTESIAN_POINT ( 'NONE',  ( 0.0000000000000000000, 0.0000000000000000000, 0.0000000000000000000 ) ) ;
#127 = AXIS2_PLACEMENT_3D ( 'NONE', #123, #149, #205 ) ;
#128 = EDGE_LOOP ( 'NONE', ( #301, #63, #42 ) ) ;
#129 = ADVANCED_FACE ( 'NONE', ( #229 ), #257, .T. ) ;
#130 = VECTOR ( 'NONE', #124, 1000.000000000000000 ) ;
#131 = DIRECTION ( 'NONE',  ( -3.491481338843133355E-15, 1.224646799147353207E-16, -1.000000000000000000 ) ) ;
#132 = CC_DESIGN_PERSON_AND_ORGANIZATION_ASSIGNMENT ( #188, #15, ( #282 ) ) ;
#133 = APPROVAL_ROLE ( '' ) ;
#134 = FACE_OUTER_BOUND ( 'NONE', #31, .T. ) ;
#135 = CALENDAR_DATE ( 2021, 3, 9 ) ;
#136 = EDGE_LOOP ( 'NONE', ( #242, #247, #166, #215 ) ) ;
#137 = PERSON_AND_ORGANIZATION ( #170, #102 ) ;
#138 = ORIENTED_EDGE ( 'NONE', *, *, #5, .T. ) ;
#139 = VERTEX_POINT ( 'NONE', #331 ) ;
#140 = ADVANCED_FACE ( 'NONE', ( #91 ), #171, .T. ) ;
#141 = LOCAL_TIME ( 9, 48, 42.00000000000000000, #246 ) ;
#142 = ORIENTED_EDGE ( 'NONE', *, *, #157, .T. ) ;
#143 = FACE_OUTER_BOUND ( 'NONE', #275, .T. ) ;
#144 = EDGE_CURVE ( 'NONE', #292, #186, #319, .T. ) ;
#145 = DIRECTION ( 'NONE',  ( 4.814824860968116783E-31, 1.000000000000000000, 1.355252715606888185E-16 ) ) ;
#146 = CLOSED_SHELL ( 'NONE', ( #21, #99, #60, #140, #77, #73 ) ) ;
#147 = LOCAL_TIME ( 9, 48, 42.00000000000000000, #112 ) ;
#148 = CARTESIAN_POINT ( 'NONE',  ( 1.324128680180950322E-13, -0.6000000000000047518, 38.00000000000000000 ) ) ;
#149 = DIRECTION ( 'NONE',  ( -3.491481338843133355E-15, 1.224646799147353207E-16, -1.000000000000000000 ) ) ;
#150 = CIRCLE ( 'NONE', #214, 0.6000000000000000888 ) ;
#151 = DIRECTION ( 'NONE',  ( -3.491481338843133355E-15, 1.224646799147353207E-16, -1.000000000000000000 ) ) ;
#152 = APPROVAL_STATUS ( 'not_yet_approved' ) ;
#153 = PERSON_AND_ORGANIZATION ( #170, #102 ) ;
#154 = CARTESIAN_POINT ( 'NONE',  ( 1.327497696839878934E-13, -0.6000000000000047518, 38.00000000000000000 ) ) ;
#155 = AXIS2_PLACEMENT_3D ( 'NONE', #210, #266, #232 ) ;
#156 = MANIFOLD_SOLID_BREP ( 'Corps-Déplacer/Copier1[1]', #146 ) ;
#157 = EDGE_CURVE ( 'NONE', #34, #292, #26, .T. ) ;
#158 = ORIENTED_EDGE ( 'NONE', *, *, #293, .F. ) ;
#159 = ORIENTED_EDGE ( 'NONE', *, *, #40, .T. ) ;
#160 = CIRCLE ( 'NONE', #11, 0.7999999999999964917 ) ;
#161 = CALENDAR_DATE ( 2021, 3, 9 ) ;
#162 = EDGE_LOOP ( 'NONE', ( #216, #142, #211 ) ) ;
#163 = EDGE_CURVE ( 'NONE', #186, #292, #121, .T. ) ;
#164 = DATE_AND_TIME ( #38, #309 ) ;
#165 = EDGE_LOOP ( 'NONE', ( #261, #138, #105, #84 ) ) ;
#166 = ORIENTED_EDGE ( 'NONE', *, *, #53, .T. ) ;
#167 = AXIS2_PLACEMENT_3D ( 'NONE', #24, #284, #251 ) ;
#168 = DIRECTION ( 'NONE',  ( -2.468850131082257455E-15, 0.7071067811865497932, -0.7071067811865453523 ) ) ;
#169 = CC_DESIGN_PERSON_AND_ORGANIZATION_ASSIGNMENT ( #116, #185, ( #282 ) ) ;
#170 = PERSON ( 'UNSPECIFIED', 'UNSPECIFIED', 'UNSPECIFIED', ('UNSPECIFIED'), ('UNSPECIFIED'), ('UNSPECIFIED') ) ;
#171 = CYLINDRICAL_SURFACE ( 'NONE', #80, 0.7999999999999981570 ) ;
#172 = CARTESIAN_POINT ( 'NONE',  ( 3.142333204958820020E-14, 5.999039130647388009E-33, 9.000000000000000000 ) ) ;
#173 = DIRECTION ( 'NONE',  ( 3.491481338843133355E-15, -1.224646799147353207E-16, 1.000000000000000000 ) ) ;
#174 = DIRECTION ( 'NONE',  ( 4.275831445896958607E-31, 1.000000000000000000, 1.224646799147353207E-16 ) ) ;
#175 = CARTESIAN_POINT ( 'NONE',  ( 1.678314910864376148E-15, -0.7999999999999956035, 0.4806884952220505935 ) ) ;
#176 = PRODUCT_DEFINITION_SHAPE ( 'NONE', 'NONE',  #259 ) ;
#177 = AXIS2_PLACEMENT_3D ( 'NONE', #307, #51, #118 ) ;
#178 = FACE_OUTER_BOUND ( 'NONE', #162, .T. ) ;
#179 = ORIENTED_EDGE ( 'NONE', *, *, #163, .F. ) ;
#180 = EDGE_CURVE ( 'NONE', #139, #82, #303, .T. ) ;
#181 = LINE ( 'NONE', #74, #209 ) ;
#182 = DIRECTION ( 'NONE',  ( -3.491481338843133355E-15, 1.224646799147353207E-16, -1.000000000000000000 ) ) ;
#183 =( NAMED_UNIT ( * ) PLANE_ANGLE_UNIT ( ) SI_UNIT ( $, .RADIAN. ) );
#184 = CC_DESIGN_APPROVAL ( #110, ( #265 ) ) ;
#185 = PERSON_AND_ORGANIZATION_ROLE ( 'design_supplier' ) ;
#186 = VERTEX_POINT ( 'NONE', #306 ) ;
#187 = ORIENTED_EDGE ( 'NONE', *, *, #95, .T. ) ;
#188 = PERSON_AND_ORGANIZATION ( #170, #102 ) ;
#189 = LINE ( 'NONE', #113, #308 ) ;
#190 = LOCAL_TIME ( 9, 48, 42.00000000000000000, #268 ) ;
#191 = CC_DESIGN_DATE_AND_TIME_ASSIGNMENT ( #217, #13, ( #259 ) ) ;
#192 = CALENDAR_DATE ( 2021, 3, 9 ) ;
#193 = DIRECTION ( 'NONE',  ( -3.491481338843133355E-15, 1.224646799147353207E-16, -1.000000000000000000 ) ) ;
#194 = DATE_AND_TIME ( #161, #141 ) ;
#195 = ORIENTED_EDGE ( 'NONE', *, *, #286, .T. ) ;
#196 = CC_DESIGN_DATE_AND_TIME_ASSIGNMENT ( #164, #61, ( #265 ) ) ;
#197 = DIRECTION ( 'NONE',  ( -3.491481338843133355E-15, 1.224646799147353207E-16, -1.000000000000000000 ) ) ;
#198 = AXIS2_PLACEMENT_3D ( 'NONE', #75, #4, #1 ) ;
#199 = DIRECTION ( 'NONE',  ( -3.491481338843133355E-15, 1.224646799147353207E-16, -1.000000000000000000 ) ) ;
#200 = CARTESIAN_POINT ( 'NONE',  ( 9.797174393178769451E-17, -0.7999999999999981570, -9.797174393178837244E-17 ) ) ;
#201 = CARTESIAN_POINT ( 'NONE',  ( 1.326762908760390423E-13, -4.653657836759941941E-15, 38.00000000000000000 ) ) ;
#202 = CIRCLE ( 'NONE', #288, 0.7999999999999964917 ) ;
#203 = EDGE_CURVE ( 'NONE', #82, #64, #49, .T. ) ;
#204 = CONICAL_SURFACE ( 'NONE', #225, 0.7999999999999954925, 1.029744258676649871 ) ;
#205 = DIRECTION ( 'NONE',  ( 4.275831445896958607E-31, 1.000000000000000000, 1.224646799147353207E-16 ) ) ;
#206 = DIRECTION ( 'NONE',  ( -3.491481338843133355E-15, 1.224646799147353207E-16, -1.000000000000000000 ) ) ;
#207 = DIRECTION ( 'NONE',  ( 0.0000000000000000000, 1.000000000000000000, 0.0000000000000000000 ) ) ;
#208 = APPROVAL ( #291, 'UNSPECIFIED' ) ;
#209 = VECTOR ( 'NONE', #182, 1000.000000000000000 ) ;
#210 = CARTESIAN_POINT ( 'NONE',  ( 1.678314910864376542E-15, -5.886736270606421402E-17, 0.4806884952220507046 ) ) ;
#211 = ORIENTED_EDGE ( 'NONE', *, *, #144, .T. ) ;
#212 = DIRECTION ( 'NONE',  ( 0.0000000000000000000, 1.000000000000000000, 0.0000000000000000000 ) ) ;
#213 = LINE ( 'NONE', #154, #241 ) ;
#214 = AXIS2_PLACEMENT_3D ( 'NONE', #201, #131, #237 ) ;
#215 = ORIENTED_EDGE ( 'NONE', *, *, #5, .F. ) ;
#216 = ORIENTED_EDGE ( 'NONE', *, *, #46, .F. ) ;
#217 = DATE_AND_TIME ( #17, #190 ) ;
#218 = DIRECTION ( 'NONE',  ( 0.0000000000000000000, 1.000000000000000000, 0.0000000000000000000 ) ) ;
#219 = ORIENTED_EDGE ( 'NONE', *, *, #286, .F. ) ;
#220 = LOCAL_TIME ( 9, 48, 42.00000000000000000, #325 ) ;
#221 = DATE_AND_TIME ( #135, #147 ) ;
#222 = LINE ( 'NONE', #90, #277 ) ;
#223 = CARTESIAN_POINT ( 'NONE',  ( 3.142333204958820020E-14, -1.102182119232617714E-15, 9.000000000000000000 ) ) ;
#224 = PLANE ( 'NONE',  #98 ) ;
#225 = AXIS2_PLACEMENT_3D ( 'NONE', #252, #93, #305 ) ;
#226 = CARTESIAN_POINT ( 'NONE',  ( 1.678314910864376542E-15, -5.886736270606421402E-17, 0.4806884952220507046 ) ) ;
#227 = DIRECTION ( 'NONE',  ( 4.275831445896958607E-31, 1.000000000000000000, 1.224646799147353207E-16 ) ) ;
#228 = ADVANCED_FACE ( 'NONE', ( #143 ), #27, .T. ) ;
#229 = FACE_OUTER_BOUND ( 'NONE', #271, .T. ) ;
#230 = DIRECTION ( 'NONE',  ( 0.0000000000000000000, 0.0000000000000000000, 1.000000000000000000 ) ) ;
#231 = EDGE_LOOP ( 'NONE', ( #159, #263 ) ) ;
#232 = DIRECTION ( 'NONE',  ( -4.814824860968116783E-31, -1.000000000000000000, -1.355252715606888185E-16 ) ) ;
#233 = ORIENTED_EDGE ( 'NONE', *, *, #238, .F. ) ;
#234 = CONICAL_SURFACE ( 'NONE', #85, 0.6000000000000000888, 0.7853981633974512766 ) ;
#235 = APPROVAL_PERSON_ORGANIZATION ( #137, #208, #133 ) ;
#236 = DIRECTION ( 'NONE',  ( -3.491481338843133355E-15, 1.224646799147353207E-16, -1.000000000000000000 ) ) ;
#237 = DIRECTION ( 'NONE',  ( 0.0000000000000000000, 1.000000000000000000, 0.0000000000000000000 ) ) ;
#238 = EDGE_CURVE ( 'NONE', #62, #324, #150, .T. ) ;
#239 = PERSON_AND_ORGANIZATION_ROLE ( 'creator' ) ;
#240 = APPROVAL_ROLE ( '' ) ;
#241 = VECTOR ( 'NONE', #76, 1000.000000000000114 ) ;
#242 = ORIENTED_EDGE ( 'NONE', *, *, #316, .F. ) ;
#243 = CC_DESIGN_PERSON_AND_ORGANIZATION_ASSIGNMENT ( #323, #239, ( #259 ) ) ;
#244 = SECURITY_CLASSIFICATION_LEVEL ( 'unclassified' ) ;
#245 = CARTESIAN_POINT ( 'NONE',  ( 1.319779946082704535E-13, -4.629164900776995227E-15, 37.79999999999999716 ) ) ;
#246 = COORDINATED_UNIVERSAL_TIME_OFFSET ( 1, 0, .AHEAD. ) ;
#247 = ORIENTED_EDGE ( 'NONE', *, *, #238, .T. ) ;
#248 = PERSON_AND_ORGANIZATION_ROLE ( 'classification_officer' ) ;
#249 = CARTESIAN_POINT ( 'NONE',  ( 0.0000000000000000000, 0.0000000000000000000, 0.0000000000000000000 ) ) ;
#250 = AXIS2_PLACEMENT_3D ( 'NONE', #223, #199, #69 ) ;
#251 = DIRECTION ( 'NONE',  ( 0.0000000000000000000, 1.000000000000000000, 0.0000000000000000000 ) ) ;
#252 = CARTESIAN_POINT ( 'NONE',  ( 1.678314910864376542E-15, -5.886736270606421402E-17, 0.4806884952220507046 ) ) ;
#253 = CARTESIAN_POINT ( 'NONE',  ( 1.678314910864376542E-15, -5.886736270606421402E-17, 0.4806884952220507046 ) ) ;
#254 = AXIS2_PLACEMENT_3D ( 'NONE', #126, #230, #337 ) ;
#255 = ADVANCED_FACE ( 'NONE', ( #178 ), #35, .T. ) ;
#256 = DIRECTION ( 'NONE',  ( 3.491481338843133355E-15, -1.224646799147353207E-16, 1.000000000000000000 ) ) ;
#257 = PLANE ( 'NONE',  #304 ) ;
#258 = APPLICATION_PROTOCOL_DEFINITION ( 'international standard', 'config_control_design', 1994, #310 ) ;
#259 = PRODUCT_DEFINITION ( 'UNKNOWN', '', #282, #23 ) ;
#260 = MECHANICAL_CONTEXT ( 'NONE', #310, 'mechanical' ) ;
#261 = ORIENTED_EDGE ( 'NONE', *, *, #203, .F. ) ;
#262 = APPROVAL_ROLE ( '' ) ;
#263 = ORIENTED_EDGE ( 'NONE', *, *, #270, .T. ) ;
#264 = ADVANCED_BREP_SHAPE_REPRESENTATION ( '54502', ( #156, #274, #254 ), #332 ) ;
#265 = SECURITY_CLASSIFICATION ( '', '', #244 ) ;
#266 = DIRECTION ( 'NONE',  ( 3.491481338843133355E-15, -1.224646799147353207E-16, 1.000000000000000000 ) ) ;
#267 = ADVANCED_FACE ( 'NONE', ( #103 ), #9, .T. ) ;
#268 = COORDINATED_UNIVERSAL_TIME_OFFSET ( 1, 0, .AHEAD. ) ;
#269 = VERTEX_POINT ( 'NONE', #104 ) ;
#270 = EDGE_CURVE ( 'NONE', #64, #269, #160, .T. ) ;
#271 = EDGE_LOOP ( 'NONE', ( #219, #2 ) ) ;
#272 = SHAPE_DEFINITION_REPRESENTATION ( #176, #264 ) ;
#273 = ORIENTED_EDGE ( 'NONE', *, *, #293, .T. ) ;
#274 = MANIFOLD_SOLID_BREP ( 'Corps-Déplacer/Copier1[2]', #295 ) ;
#275 = EDGE_LOOP ( 'NONE', ( #195, #6, #179, #158 ) ) ;
#276 = EDGE_LOOP ( 'NONE', ( #81, #59, #322, #78 ) ) ;
#277 = VECTOR ( 'NONE', #168, 1000.000000000000114 ) ;
#278 = FACE_OUTER_BOUND ( 'NONE', #276, .T. ) ;
#279 = DIRECTION ( 'NONE',  ( -4.275831445896958607E-31, -1.000000000000000000, -1.224646799147353207E-16 ) ) ;
#280 = CC_DESIGN_PERSON_AND_ORGANIZATION_ASSIGNMENT ( #72, #313, ( #3 ) ) ;
#281 = CARTESIAN_POINT ( 'NONE',  ( 0.0000000000000000000, 0.0000000000000000000, 0.0000000000000000000 ) ) ;
#282 = PRODUCT_DEFINITION_FORMATION_WITH_SPECIFIED_SOURCE ( 'ANY', '', #3, .NOT_KNOWN. ) ;
#283 = FACE_OUTER_BOUND ( 'NONE', #231, .T. ) ;
#284 = DIRECTION ( 'NONE',  ( -3.491481338843133355E-15, 1.224646799147353207E-16, -1.000000000000000000 ) ) ;
#285 =( LENGTH_UNIT ( ) NAMED_UNIT ( * ) SI_UNIT ( .MILLI., .METRE. ) );
#286 = EDGE_CURVE ( 'NONE', #39, #321, #25, .T. ) ;
#287 = DIRECTION ( 'NONE',  ( 4.275831445896958607E-31, 1.000000000000000000, 1.224646799147353207E-16 ) ) ;
#288 = AXIS2_PLACEMENT_3D ( 'NONE', #326, #19, #218 ) ;
#289 = AXIS2_PLACEMENT_3D ( 'NONE', #253, #125, #47 ) ;
#290 =( NAMED_UNIT ( * ) SI_UNIT ( $, .STERADIAN. ) SOLID_ANGLE_UNIT ( ) );
#291 = APPROVAL_STATUS ( 'not_yet_approved' ) ;
#292 = VERTEX_POINT ( 'NONE', #175 ) ;
#293 = EDGE_CURVE ( 'NONE', #39, #186, #101, .T. ) ;
#294 = ORIENTED_EDGE ( 'NONE', *, *, #320, .F. ) ;
#295 = CLOSED_SHELL ( 'NONE', ( #228, #68, #255, #267, #129 ) ) ;
#296 = PERSON_AND_ORGANIZATION ( #170, #102 ) ;
#297 = APPROVAL_PERSON_ORGANIZATION ( #153, #122, #262 ) ;
#298 = CARTESIAN_POINT ( 'NONE',  ( 1.776286654796164779E-15, 0.7999999999999953815, 0.4806884952220508156 ) ) ;
#299 = LINE ( 'NONE', #298, #79 ) ;
#300 = EDGE_CURVE ( 'NONE', #324, #62, #52, .T. ) ;
#301 = ORIENTED_EDGE ( 'NONE', *, *, #157, .F. ) ;
#302 = DIRECTION ( 'NONE',  ( -3.491481338843133355E-15, 1.224646799147353207E-16, -1.000000000000000000 ) ) ;
#303 = CIRCLE ( 'NONE', #167, 0.8000000000000000444 ) ;
#304 = AXIS2_PLACEMENT_3D ( 'NONE', #120, #256, #279 ) ;
#305 = DIRECTION ( 'NONE',  ( -4.814824860968116783E-31, -1.000000000000000000, -1.355252715606888185E-16 ) ) ;
#306 = CARTESIAN_POINT ( 'NONE',  ( 1.776286654796164779E-15, 0.7999999999999953815, 0.4806884952220508156 ) ) ;
#307 = CARTESIAN_POINT ( 'NONE',  ( 1.326762908760390423E-13, -4.653657836759941941E-15, 38.00000000000000000 ) ) ;
#308 = VECTOR ( 'NONE', #88, 1000.000000000000000 ) ;
#309 = LOCAL_TIME ( 9, 48, 42.00000000000000000, #41 ) ;
#310 = APPLICATION_CONTEXT ( 'configuration controlled 3d designs of mechanical parts and assemblies' ) ;
#311 = DIRECTION ( 'NONE',  ( -4.275831445896958607E-31, -1.000000000000000000, -1.224646799147353207E-16 ) ) ;
#312 = ORIENTED_EDGE ( 'NONE', *, *, #316, .T. ) ;
#313 = PERSON_AND_ORGANIZATION_ROLE ( 'design_owner' ) ;
#314 = AXIS2_PLACEMENT_3D ( 'NONE', #66, #94, #227 ) ;
#315 = CARTESIAN_POINT ( 'NONE',  ( 3.142333204958820020E-14, -1.102182119232617714E-15, 9.000000000000000000 ) ) ;
#316 = EDGE_CURVE ( 'NONE', #62, #82, #213, .T. ) ;
#317 = CARTESIAN_POINT ( 'NONE',  ( 1.326762908760390423E-13, -4.653657836759941941E-15, 38.00000000000000000 ) ) ;
#318 = CARTESIAN_POINT ( 'NONE',  ( 1.326762908760390423E-13, 0.5999999999999954259, 38.00000000000000000 ) ) ;
#319 = CIRCLE ( 'NONE', #65, 0.7999999999999954925 ) ;
#320 = EDGE_CURVE ( 'NONE', #321, #292, #181, .T. ) ;
#321 = VERTEX_POINT ( 'NONE', #36 ) ;
#322 = ORIENTED_EDGE ( 'NONE', *, *, #40, .F. ) ;
#323 = PERSON_AND_ORGANIZATION ( #170, #102 ) ;
#324 = VERTEX_POINT ( 'NONE', #318 ) ;
#325 = COORDINATED_UNIVERSAL_TIME_OFFSET ( 1, 0, .AHEAD. ) ;
#326 = CARTESIAN_POINT ( 'NONE',  ( 3.142333204958820020E-14, -1.102182119232617714E-15, 9.000000000000000000 ) ) ;
#327 = APPROVAL_STATUS ( 'not_yet_approved' ) ;
#328 = ORIENTED_EDGE ( 'NONE', *, *, #144, .F. ) ;
#329 = CARTESIAN_POINT ( 'NONE',  ( 8.179863507286087387E-14, -0.8000000000000047073, 37.79999999999999716 ) ) ;
#330 = PRODUCT_RELATED_PRODUCT_CATEGORY ( 'detail', '', ( #3 ) ) ;
#331 = CARTESIAN_POINT ( 'NONE',  ( 1.319779946082704535E-13, 0.7999999999999953815, 37.79999999999999716 ) ) ;
#332 =( GEOMETRIC_REPRESENTATION_CONTEXT ( 3 ) GLOBAL_UNCERTAINTY_ASSIGNED_CONTEXT ( ( #119 ) ) GLOBAL_UNIT_ASSIGNED_CONTEXT ( ( #285, #183, #290 ) ) REPRESENTATION_CONTEXT ( 'NONE', 'WORKASPACE' ) );
#333 = CARTESIAN_POINT ( 'NONE',  ( 8.179863507286106319E-14, -0.7999999999999974909, 9.000000000000000000 ) ) ;
#334 = DIRECTION ( 'NONE',  ( -3.491481338843133355E-15, 1.224646799147353207E-16, -1.000000000000000000 ) ) ;
#335 = PLANE ( 'NONE',  #127 ) ;
#336 = CC_DESIGN_SECURITY_CLASSIFICATION ( #265, ( #282 ) ) ;
#337 = DIRECTION ( 'NONE',  ( 1.000000000000000000, 0.0000000000000000000, 0.0000000000000000000 ) ) ;
ENDSEC;
END-ISO-10303-21;
