ISO-10303-21;
HEADER;
FILE_DESCRIPTION (( 'STEP AP203' ),
    '1' );
FILE_NAME ('54501.step',
    '2021-09-03T07:48:41',
    ( '' ),
    ( '' ),
    'SwSTEP 2.0',
    'SolidWorks 2019',
    '' );
FILE_SCHEMA (( 'CONFIG_CONTROL_DESIGN' ));
ENDSEC;

DATA;
#1 = AXIS2_PLACEMENT_3D ( 'NONE', #131, #5, #135 ) ;
#2 = CARTESIAN_POINT ( 'NONE',  ( 0.0000000000000000000, 0.0000000000000000000, 0.0000000000000000000 ) ) ;
#3 = APPROVAL_PERSON_ORGANIZATION ( #176, #175, #144 ) ;
#4 = DIRECTION ( 'NONE',  ( -4.275831445896958607E-31, -1.000000000000000000, -1.224646799147353207E-16 ) ) ;
#5 = DIRECTION ( 'NONE',  ( -3.491481338843133355E-15, 1.224646799147353207E-16, -1.000000000000000000 ) ) ;
#6 = LINE ( 'NONE', #183, #291 ) ;
#7 = CARTESIAN_POINT ( 'NONE',  ( 3.142333204958820020E-14, 5.811569157814661966E-33, 9.000000000000000000 ) ) ;
#8 = DIRECTION ( 'NONE',  ( -3.491481338843133355E-15, 1.224646799147353207E-16, -1.000000000000000000 ) ) ;
#9 = DIRECTION ( 'NONE',  ( 3.491481338843133355E-15, -1.224646799147353207E-16, 1.000000000000000000 ) ) ;
#10 = CONICAL_SURFACE ( 'NONE', #60, 0.5750000000000009548, 0.7853981633974512766 ) ;
#11 = AXIS2_PLACEMENT_3D ( 'NONE', #82, #292, #57 ) ;
#12 = DIRECTION ( 'NONE',  ( 0.0000000000000000000, 1.000000000000000000, 0.0000000000000000000 ) ) ;
#13 = EDGE_CURVE ( 'NONE', #48, #256, #146, .T. ) ;
#14 = AXIS2_PLACEMENT_3D ( 'NONE', #219, #9, #35 ) ;
#15 = DIRECTION ( 'NONE',  ( -3.491481338843133355E-15, 1.224646799147353207E-16, -1.000000000000000000 ) ) ;
#16 = DIRECTION ( 'NONE',  ( 1.000000000000000000, 0.0000000000000000000, 0.0000000000000000000 ) ) ;
#17 = EDGE_CURVE ( 'NONE', #25, #181, #187, .T. ) ;
#18 = COORDINATED_UNIVERSAL_TIME_OFFSET ( 1, 0, .AHEAD. ) ;
#19 = ORIENTED_EDGE ( 'NONE', *, *, #253, .F. ) ;
#20 = DESIGN_CONTEXT ( 'detailed design', #280, 'design' ) ;
#21 = DATE_AND_TIME ( #331, #84 ) ;
#22 =( NAMED_UNIT ( * ) PLANE_ANGLE_UNIT ( ) SI_UNIT ( $, .RADIAN. ) );
#23 = ORIENTED_EDGE ( 'NONE', *, *, #289, .F. ) ;
#24 = APPROVAL_ROLE ( '' ) ;
#25 = VERTEX_POINT ( 'NONE', #78 ) ;
#26 = ADVANCED_FACE ( 'NONE', ( #312 ), #62, .F. ) ;
#27 = ORIENTED_EDGE ( 'NONE', *, *, #227, .T. ) ;
#28 = FACE_OUTER_BOUND ( 'NONE', #285, .T. ) ;
#29 = DIRECTION ( 'NONE',  ( 0.0000000000000000000, 1.000000000000000000, 0.0000000000000000000 ) ) ;
#30 = VERTEX_POINT ( 'NONE', #264 ) ;
#31 = ORIENTED_EDGE ( 'NONE', *, *, #123, .F. ) ;
#32 = FACE_OUTER_BOUND ( 'NONE', #266, .T. ) ;
#33 = DIRECTION ( 'NONE',  ( 4.275831445896958607E-31, 1.000000000000000000, 1.224646799147353207E-16 ) ) ;
#34 = LOCAL_TIME ( 9, 48, 41.00000000000000000, #79 ) ;
#35 = DIRECTION ( 'NONE',  ( -4.970141791967083659E-31, -1.000000000000000000, -1.398970545142592951E-16 ) ) ;
#36 = ADVANCED_FACE ( 'NONE', ( #85 ), #10, .T. ) ;
#37 = VECTOR ( 'NONE', #321, 1000.000000000000000 ) ;
#38 = DIRECTION ( 'NONE',  ( -4.275831445896958607E-31, -1.000000000000000000, -1.224646799147353207E-16 ) ) ;
#39 = CARTESIAN_POINT ( 'NONE',  ( 1.625867569899866113E-15, -0.7749999999999964695, 0.4656669797463619531 ) ) ;
#40 = VECTOR ( 'NONE', #50, 1000.000000000000114 ) ;
#41 = MANIFOLD_SOLID_BREP ( 'Corps-Déplacer/Copier1[1]', #295 ) ;
#42 = DIRECTION ( 'NONE',  ( -3.491481338843133355E-15, 1.224646799147353207E-16, -1.000000000000000000 ) ) ;
#43 = CC_DESIGN_PERSON_AND_ORGANIZATION_ASSIGNMENT ( #206, #334, ( #238 ) ) ;
#44 = UNCERTAINTY_MEASURE_WITH_UNIT (LENGTH_MEASURE( 1.000000000000000082E-05 ), #196, 'distance_accuracy_value', 'NONE');
#45 = CALENDAR_DATE ( 2021, 3, 9 ) ;
#46 = AXIS2_PLACEMENT_3D ( 'NONE', #106, #287, #261 ) ;
#47 = PERSON_AND_ORGANIZATION ( #265, #170 ) ;
#48 = VERTEX_POINT ( 'NONE', #134 ) ;
#49 = LOCAL_TIME ( 9, 48, 41.00000000000000000, #329 ) ;
#50 = DIRECTION ( 'NONE',  ( -2.468850131082257455E-15, 0.7071067811865497932, -0.7071067811865453523 ) ) ;
#51 = ORIENTED_EDGE ( 'NONE', *, *, #142, .F. ) ;
#52 = ADVANCED_FACE ( 'NONE', ( #32 ), #179, .T. ) ;
#53 = APPROVAL_STATUS ( 'not_yet_approved' ) ;
#54 = ORIENTED_EDGE ( 'NONE', *, *, #132, .F. ) ;
#55 = ORIENTED_EDGE ( 'NONE', *, *, #195, .F. ) ;
#56 = CONICAL_SURFACE ( 'NONE', #14, 0.7749999999999963585, 1.029744258676649871 ) ;
#57 = DIRECTION ( 'NONE',  ( 4.275831445896958607E-31, 1.000000000000000000, 1.224646799147353207E-16 ) ) ;
#58 = CARTESIAN_POINT ( 'NONE',  ( 3.142333204958820020E-14, -1.102182119232617714E-15, 9.000000000000000000 ) ) ;
#59 = SHAPE_DEFINITION_REPRESENTATION ( #130, #69 ) ;
#60 = AXIS2_PLACEMENT_3D ( 'NONE', #207, #311, #61 ) ;
#61 = DIRECTION ( 'NONE',  ( 0.0000000000000000000, 1.000000000000000000, 0.0000000000000000000 ) ) ;
#62 = PLANE ( 'NONE',  #332 ) ;
#63 = DIRECTION ( 'NONE',  ( -3.491481338843133355E-15, 1.224646799147353207E-16, -1.000000000000000000 ) ) ;
#64 = DIRECTION ( 'NONE',  ( 0.0000000000000000000, 1.000000000000000000, 0.0000000000000000000 ) ) ;
#65 = LINE ( 'NONE', #150, #40 ) ;
#66 = EDGE_CURVE ( 'NONE', #277, #197, #272, .T. ) ;
#67 = CARTESIAN_POINT ( 'NONE',  ( 1.324098064010971834E-13, -0.5750000000000056177, 38.00000000000000000 ) ) ;
#68 = DIRECTION ( 'NONE',  ( 0.0000000000000000000, 1.000000000000000000, 0.0000000000000000000 ) ) ;
#69 = ADVANCED_BREP_SHAPE_REPRESENTATION ( '54501', ( #41, #263, #194 ), #235 ) ;
#70 = CARTESIAN_POINT ( 'NONE',  ( 8.179557345586302505E-14, -0.7750000000000055733, 37.79999999999999716 ) ) ;
#71 = APPROVAL_DATE_TIME ( #125, #319 ) ;
#72 = ORIENTED_EDGE ( 'NONE', *, *, #17, .F. ) ;
#73 = COORDINATED_UNIVERSAL_TIME_OFFSET ( 1, 0, .AHEAD. ) ;
#74 = ADVANCED_FACE ( 'NONE', ( #28 ), #110, .T. ) ;
#75 = EDGE_LOOP ( 'NONE', ( #304, #251, #72, #51 ) ) ;
#76 = ORIENTED_EDGE ( 'NONE', *, *, #142, .T. ) ;
#77 = CC_DESIGN_DATE_AND_TIME_ASSIGNMENT ( #21, #276, ( #309 ) ) ;
#78 = CARTESIAN_POINT ( 'NONE',  ( 3.142333204958820020E-14, 0.7749999999999962474, 9.000000000000000000 ) ) ;
#79 = COORDINATED_UNIVERSAL_TIME_OFFSET ( 1, 0, .AHEAD. ) ;
#80 = DIRECTION ( 'NONE',  ( 0.0000000000000000000, 1.000000000000000000, 0.0000000000000000000 ) ) ;
#81 = LINE ( 'NONE', #236, #128 ) ;
#82 = CARTESIAN_POINT ( 'NONE',  ( 0.0000000000000000000, 0.0000000000000000000, 0.0000000000000000000 ) ) ;
#83 = CC_DESIGN_PERSON_AND_ORGANIZATION_ASSIGNMENT ( #118, #282, ( #326 ) ) ;
#84 = LOCAL_TIME ( 9, 48, 41.00000000000000000, #73 ) ;
#85 = FACE_OUTER_BOUND ( 'NONE', #102, .T. ) ;
#86 = FACE_OUTER_BOUND ( 'NONE', #201, .T. ) ;
#87 = FACE_OUTER_BOUND ( 'NONE', #231, .T. ) ;
#88 = EDGE_CURVE ( 'NONE', #30, #257, #178, .T. ) ;
#89 = CARTESIAN_POINT ( 'NONE',  ( 3.313769370570139461E-31, 0.7749999999999992450, 9.491012693391977433E-17 ) ) ;
#90 = CC_DESIGN_APPROVAL ( #319, ( #317 ) ) ;
#91 = CYLINDRICAL_SURFACE ( 'NONE', #111, 0.7749999999999992450 ) ;
#92 = DIRECTION ( 'NONE',  ( 3.491481338843133355E-15, -1.224646799147353207E-16, 1.000000000000000000 ) ) ;
#93 = CALENDAR_DATE ( 2021, 3, 9 ) ;
#94 = VERTEX_POINT ( 'NONE', #156 ) ;
#95 = APPROVAL_STATUS ( 'not_yet_approved' ) ;
#96 = ORIENTED_EDGE ( 'NONE', *, *, #191, .F. ) ;
#97 = EDGE_CURVE ( 'NONE', #203, #100, #105, .T. ) ;
#98 = DATE_AND_TIME ( #247, #249 ) ;
#99 = PERSON_AND_ORGANIZATION_ROLE ( 'classification_officer' ) ;
#100 = VERTEX_POINT ( 'NONE', #212 ) ;
#101 = EDGE_CURVE ( 'NONE', #94, #100, #245, .T. ) ;
#102 = EDGE_LOOP ( 'NONE', ( #19, #149, #226, #154 ) ) ;
#103 = DIRECTION ( 'NONE',  ( 4.275831445896958607E-31, 1.000000000000000000, 1.224646799147353207E-16 ) ) ;
#104 = AXIS2_PLACEMENT_3D ( 'NONE', #215, #15, #141 ) ;
#105 = LINE ( 'NONE', #234, #138 ) ;
#106 = CARTESIAN_POINT ( 'NONE',  ( 3.142333204958820020E-14, -1.102182119232617714E-15, 9.000000000000000000 ) ) ;
#107 = EDGE_CURVE ( 'NONE', #277, #181, #81, .T. ) ;
#108 = CIRCLE ( 'NONE', #267, 0.7750000000000009104 ) ;
#109 = AXIS2_PLACEMENT_3D ( 'NONE', #58, #182, #80 ) ;
#110 = CYLINDRICAL_SURFACE ( 'NONE', #268, 0.7749999999999968026 ) ;
#111 = AXIS2_PLACEMENT_3D ( 'NONE', #192, #193, #302 ) ;
#112 = DIRECTION ( 'NONE',  ( -3.491481338843133355E-15, 1.224646799147353207E-16, -1.000000000000000000 ) ) ;
#113 = CC_DESIGN_PERSON_AND_ORGANIZATION_ASSIGNMENT ( #172, #198, ( #317 ) ) ;
#114 = DIRECTION ( 'NONE',  ( 4.275831445896958607E-31, 1.000000000000000000, 1.224646799147353207E-16 ) ) ;
#115 = PLANE ( 'NONE',  #211 ) ;
#116 = LINE ( 'NONE', #39, #37 ) ;
#117 = LINE ( 'NONE', #188, #333 ) ;
#118 = PERSON_AND_ORGANIZATION ( #265, #170 ) ;
#119 = MECHANICAL_CONTEXT ( 'NONE', #122, 'mechanical' ) ;
#120 = ORIENTED_EDGE ( 'NONE', *, *, #191, .T. ) ;
#121 = CC_DESIGN_APPROVAL ( #175, ( #238 ) ) ;
#122 = APPLICATION_CONTEXT ( 'configuration controlled 3d designs of mechanical parts and assemblies' ) ;
#123 = EDGE_CURVE ( 'NONE', #30, #100, #6, .T. ) ;
#124 = ORIENTED_EDGE ( 'NONE', *, *, #148, .T. ) ;
#125 = DATE_AND_TIME ( #93, #49 ) ;
#126 = ORIENTED_EDGE ( 'NONE', *, *, #107, .F. ) ;
#127 = AXIS2_PLACEMENT_3D ( 'NONE', #297, #169, #275 ) ;
#128 = VECTOR ( 'NONE', #315, 1000.000000000000000 ) ;
#129 = ORIENTED_EDGE ( 'NONE', *, *, #97, .F. ) ;
#130 = PRODUCT_DEFINITION_SHAPE ( 'NONE', 'NONE',  #238 ) ;
#131 = CARTESIAN_POINT ( 'NONE',  ( 1.326762908760390423E-13, -4.653657836759941941E-15, 38.00000000000000000 ) ) ;
#132 = EDGE_CURVE ( 'NONE', #181, #25, #328, .T. ) ;
#133 = ORIENTED_EDGE ( 'NONE', *, *, #101, .T. ) ;
#134 = CARTESIAN_POINT ( 'NONE',  ( 1.326762908760390423E-13, 0.5749999999999962919, 38.00000000000000000 ) ) ;
#135 = DIRECTION ( 'NONE',  ( 0.0000000000000000000, 1.000000000000000000, 0.0000000000000000000 ) ) ;
#136 = CC_DESIGN_DATE_AND_TIME_ASSIGNMENT ( #283, #250, ( #238 ) ) ;
#137 = CYLINDRICAL_SURFACE ( 'NONE', #318, 0.7749999999999992450 ) ;
#138 = VECTOR ( 'NONE', #159, 1000.000000000000114 ) ;
#139 = CARTESIAN_POINT ( 'NONE',  ( 1.319779946082704535E-13, -4.629164900776995227E-15, 37.79999999999999716 ) ) ;
#140 = LINE ( 'NONE', #216, #145 ) ;
#141 = DIRECTION ( 'NONE',  ( 4.970141791967083659E-31, 1.000000000000000000, 1.398970545142592951E-16 ) ) ;
#142 = EDGE_CURVE ( 'NONE', #197, #25, #269, .T. ) ;
#143 = FACE_OUTER_BOUND ( 'NONE', #75, .T. ) ;
#144 = APPROVAL_ROLE ( '' ) ;
#145 = VECTOR ( 'NONE', #220, 1000.000000000000000 ) ;
#146 = CIRCLE ( 'NONE', #1, 0.5750000000000009548 ) ;
#147 = ORIENTED_EDGE ( 'NONE', *, *, #88, .T. ) ;
#148 = EDGE_CURVE ( 'NONE', #257, #94, #140, .T. ) ;
#149 = ORIENTED_EDGE ( 'NONE', *, *, #289, .T. ) ;
#150 = CARTESIAN_POINT ( 'NONE',  ( 1.326762908760390423E-13, 0.5749999999999962919, 38.00000000000000000 ) ) ;
#151 = EDGE_LOOP ( 'NONE', ( #129, #120, #133 ) ) ;
#152 = PERSON_AND_ORGANIZATION ( #265, #170 ) ;
#153 = EDGE_LOOP ( 'NONE', ( #126, #177, #76, #54 ) ) ;
#154 = ORIENTED_EDGE ( 'NONE', *, *, #66, .F. ) ;
#155 = APPROVAL_DATE_TIME ( #336, #294 ) ;
#156 = CARTESIAN_POINT ( 'NONE',  ( 1.625867569899866113E-15, -0.7749999999999964695, 0.4656669797463619531 ) ) ;
#157 = ADVANCED_FACE ( 'NONE', ( #186 ), #324, .T. ) ;
#158 = VECTOR ( 'NONE', #165, 1000.000000000000000 ) ;
#159 = DIRECTION ( 'NONE',  ( 1.903218546456021928E-15, 0.8571673007021098911, 0.5150380749100583744 ) ) ;
#160 = CIRCLE ( 'NONE', #298, 0.5750000000000009548 ) ;
#161 = ORIENTED_EDGE ( 'NONE', *, *, #314, .F. ) ;
#162 = ORIENTED_EDGE ( 'NONE', *, *, #101, .F. ) ;
#163 = EDGE_CURVE ( 'NONE', #197, #277, #108, .T. ) ;
#164 = FACE_OUTER_BOUND ( 'NONE', #153, .T. ) ;
#165 = DIRECTION ( 'NONE',  ( -3.491481338843133355E-15, 1.224646799147353207E-16, -1.000000000000000000 ) ) ;
#166 = FACE_OUTER_BOUND ( 'NONE', #284, .T. ) ;
#167 = CARTESIAN_POINT ( 'NONE',  ( 0.0000000000000000000, 0.0000000000000000000, 0.0000000000000000000 ) ) ;
#168 = CC_DESIGN_APPROVAL ( #294, ( #309 ) ) ;
#169 = DIRECTION ( 'NONE',  ( 3.491481338843133355E-15, -1.224646799147353207E-16, 1.000000000000000000 ) ) ;
#170 = ORGANIZATION ( 'UNSPECIFIED', 'UNSPECIFIED', '' ) ;
#171 = SECURITY_CLASSIFICATION_LEVEL ( 'unclassified' ) ;
#172 = PERSON_AND_ORGANIZATION ( #265, #170 ) ;
#173 = ORIENTED_EDGE ( 'NONE', *, *, #13, .T. ) ;
#174 = ORIENTED_EDGE ( 'NONE', *, *, #97, .T. ) ;
#175 = APPROVAL ( #53, 'UNSPECIFIED' ) ;
#176 = PERSON_AND_ORGANIZATION ( #265, #170 ) ;
#177 = ORIENTED_EDGE ( 'NONE', *, *, #66, .T. ) ;
#178 = CIRCLE ( 'NONE', #109, 0.7749999999999973577 ) ;
#179 = CYLINDRICAL_SURFACE ( 'NONE', #11, 0.7749999999999968026 ) ;
#180 = AXIS2_PLACEMENT_3D ( 'NONE', #288, #237, #313 ) ;
#181 = VERTEX_POINT ( 'NONE', #242 ) ;
#182 = DIRECTION ( 'NONE',  ( -3.491481338843133355E-15, 1.224646799147353207E-16, -1.000000000000000000 ) ) ;
#183 = CARTESIAN_POINT ( 'NONE',  ( 3.313769370570129389E-31, 0.7749999999999968026, 9.491012693391949084E-17 ) ) ;
#184 = AXIS2_PLACEMENT_3D ( 'NONE', #7, #92, #38 ) ;
#185 = CARTESIAN_POINT ( 'NONE',  ( 3.142333204958820020E-14, -1.102182119232617714E-15, 9.000000000000000000 ) ) ;
#186 = FACE_OUTER_BOUND ( 'NONE', #306, .T. ) ;
#187 = CIRCLE ( 'NONE', #46, 0.7749999999999973577 ) ;
#188 = CARTESIAN_POINT ( 'NONE',  ( 1.327467080669900194E-13, -0.5750000000000056177, 38.00000000000000000 ) ) ;
#189 = LOCAL_TIME ( 9, 48, 41.00000000000000000, #18 ) ;
#190 = DIRECTION ( 'NONE',  ( 0.0000000000000000000, 1.000000000000000000, 0.0000000000000000000 ) ) ;
#191 = EDGE_CURVE ( 'NONE', #203, #94, #116, .T. ) ;
#192 = CARTESIAN_POINT ( 'NONE',  ( 0.0000000000000000000, 0.0000000000000000000, 0.0000000000000000000 ) ) ;
#193 = DIRECTION ( 'NONE',  ( -3.491481338843133355E-15, 1.224646799147353207E-16, -1.000000000000000000 ) ) ;
#194 = AXIS2_PLACEMENT_3D ( 'NONE', #310, #246, #16 ) ;
#195 = EDGE_CURVE ( 'NONE', #100, #94, #323, .T. ) ;
#196 =( LENGTH_UNIT ( ) NAMED_UNIT ( * ) SI_UNIT ( .MILLI., .METRE. ) );
#197 = VERTEX_POINT ( 'NONE', #322 ) ;
#198 = PERSON_AND_ORGANIZATION_ROLE ( 'creator' ) ;
#199 = ORIENTED_EDGE ( 'NONE', *, *, #253, .T. ) ;
#200 = APPROVAL_ROLE ( '' ) ;
#201 = EDGE_LOOP ( 'NONE', ( #96, #174, #335 ) ) ;
#202 =( NAMED_UNIT ( * ) SI_UNIT ( $, .STERADIAN. ) SOLID_ANGLE_UNIT ( ) );
#203 = VERTEX_POINT ( 'NONE', #167 ) ;
#204 = CC_DESIGN_SECURITY_CLASSIFICATION ( #309, ( #317 ) ) ;
#205 = ADVANCED_FACE ( 'NONE', ( #320 ), #56, .T. ) ;
#206 = PERSON_AND_ORGANIZATION ( #265, #170 ) ;
#207 = CARTESIAN_POINT ( 'NONE',  ( 1.326762908760390423E-13, -4.653657836759941941E-15, 38.00000000000000000 ) ) ;
#208 = CLOSED_SHELL ( 'NONE', ( #74, #279, #205, #52, #262 ) ) ;
#209 = ADVANCED_FACE ( 'NONE', ( #87 ), #115, .F. ) ;
#210 = CARTESIAN_POINT ( 'NONE',  ( 3.142333204958820020E-14, 5.811569157814661966E-33, 9.000000000000000000 ) ) ;
#211 = AXIS2_PLACEMENT_3D ( 'NONE', #273, #325, #33 ) ;
#212 = CARTESIAN_POINT ( 'NONE',  ( 1.720777696833786207E-15, 0.7749999999999962474, 0.4656669797463621752 ) ) ;
#213 = ORIENTED_EDGE ( 'NONE', *, *, #123, .T. ) ;
#214 = ORIENTED_EDGE ( 'NONE', *, *, #132, .T. ) ;
#215 = CARTESIAN_POINT ( 'NONE',  ( 1.625867569899866507E-15, -5.702775762149976126E-17, 0.4656669797463620641 ) ) ;
#216 = CARTESIAN_POINT ( 'NONE',  ( 9.491012693391915803E-17, -0.7749999999999968026, -9.491012693391981131E-17 ) ) ;
#217 = CARTESIAN_POINT ( 'NONE',  ( 1.661950993667793254E-14, -0.7749999999999985789, 9.000000000000000000 ) ) ;
#218 = ADVANCED_FACE ( 'NONE', ( #143 ), #91, .T. ) ;
#219 = CARTESIAN_POINT ( 'NONE',  ( 1.625867569899866507E-15, -5.702775762149976126E-17, 0.4656669797463620641 ) ) ;
#220 = DIRECTION ( 'NONE',  ( -3.491481338843133355E-15, 1.224646799147353207E-16, -1.000000000000000000 ) ) ;
#221 = CIRCLE ( 'NONE', #303, 0.7749999999999973577 ) ;
#222 = APPLICATION_PROTOCOL_DEFINITION ( 'international standard', 'config_control_design', 1994, #280 ) ;
#223 = EDGE_LOOP ( 'NONE', ( #330, #214 ) ) ;
#224 = PERSON_AND_ORGANIZATION ( #265, #170 ) ;
#225 = APPLICATION_PROTOCOL_DEFINITION ( 'international standard', 'config_control_design', 1994, #122 ) ;
#226 = ORIENTED_EDGE ( 'NONE', *, *, #314, .T. ) ;
#227 = EDGE_CURVE ( 'NONE', #257, #30, #221, .T. ) ;
#228 = PERSON_AND_ORGANIZATION_ROLE ( 'design_supplier' ) ;
#229 = APPROVAL_PERSON_ORGANIZATION ( #152, #319, #24 ) ;
#230 = CALENDAR_DATE ( 2021, 3, 9 ) ;
#231 = EDGE_LOOP ( 'NONE', ( #254, #23 ) ) ;
#232 = PRODUCT_RELATED_PRODUCT_CATEGORY ( 'detail', '', ( #326 ) ) ;
#233 = DIRECTION ( 'NONE',  ( 3.491481338843133355E-15, -1.224646799147353207E-16, 1.000000000000000000 ) ) ;
#234 = CARTESIAN_POINT ( 'NONE',  ( 1.720777696833786207E-15, 0.7749999999999962474, 0.4656669797463621752 ) ) ;
#235 =( GEOMETRIC_REPRESENTATION_CONTEXT ( 3 ) GLOBAL_UNCERTAINTY_ASSIGNED_CONTEXT ( ( #44 ) ) GLOBAL_UNIT_ASSIGNED_CONTEXT ( ( #196, #22, #202 ) ) REPRESENTATION_CONTEXT ( 'NONE', 'WORKASPACE' ) );
#236 = CARTESIAN_POINT ( 'NONE',  ( 9.491012693391945386E-17, -0.7749999999999992450, -9.491012693392009481E-17 ) ) ;
#237 = DIRECTION ( 'NONE',  ( -3.491481338843133355E-15, 1.224646799147353207E-16, -1.000000000000000000 ) ) ;
#238 = PRODUCT_DEFINITION ( 'UNKNOWN', '', #317, #20 ) ;
#239 = CARTESIAN_POINT ( 'NONE',  ( 1.319779946082704535E-13, -4.629164900776995227E-15, 37.79999999999999716 ) ) ;
#240 = CARTESIAN_POINT ( 'NONE',  ( 0.0000000000000000000, 0.0000000000000000000, 0.0000000000000000000 ) ) ;
#241 = CC_DESIGN_PERSON_AND_ORGANIZATION_ASSIGNMENT ( #47, #228, ( #317 ) ) ;
#242 = CARTESIAN_POINT ( 'NONE',  ( 8.179557345586318914E-14, -0.7749999999999984679, 9.000000000000000000 ) ) ;
#243 = CARTESIAN_POINT ( 'NONE',  ( 1.326762908760390423E-13, -4.653657836759941941E-15, 38.00000000000000000 ) ) ;
#244 = CARTESIAN_POINT ( 'NONE',  ( 3.142333204958820020E-14, -1.102182119232617714E-15, 9.000000000000000000 ) ) ;
#245 = CIRCLE ( 'NONE', #180, 0.7749999999999963585 ) ;
#246 = DIRECTION ( 'NONE',  ( 0.0000000000000000000, 0.0000000000000000000, 1.000000000000000000 ) ) ;
#247 = CALENDAR_DATE ( 2021, 3, 9 ) ;
#248 = AXIS2_PLACEMENT_3D ( 'NONE', #239, #259, #29 ) ;
#249 = LOCAL_TIME ( 9, 48, 41.00000000000000000, #307 ) ;
#250 = DATE_TIME_ROLE ( 'creation_date' ) ;
#251 = ORIENTED_EDGE ( 'NONE', *, *, #107, .T. ) ;
#252 = AXIS2_PLACEMENT_3D ( 'NONE', #243, #112, #190 ) ;
#253 = EDGE_CURVE ( 'NONE', #256, #277, #117, .T. ) ;
#254 = ORIENTED_EDGE ( 'NONE', *, *, #13, .F. ) ;
#255 = APPROVAL_STATUS ( 'not_yet_approved' ) ;
#256 = VERTEX_POINT ( 'NONE', #67 ) ;
#257 = VERTEX_POINT ( 'NONE', #217 ) ;
#258 = CC_DESIGN_PERSON_AND_ORGANIZATION_ASSIGNMENT ( #305, #99, ( #309 ) ) ;
#259 = DIRECTION ( 'NONE',  ( -3.491481338843133355E-15, 1.224646799147353207E-16, -1.000000000000000000 ) ) ;
#260 = DIRECTION ( 'NONE',  ( -3.491481338843133355E-15, 1.224646799147353207E-16, -1.000000000000000000 ) ) ;
#261 = DIRECTION ( 'NONE',  ( 0.0000000000000000000, 1.000000000000000000, 0.0000000000000000000 ) ) ;
#262 = ADVANCED_FACE ( 'NONE', ( #166 ), #327, .T. ) ;
#263 = MANIFOLD_SOLID_BREP ( 'Corps-Déplacer/Copier1[2]', #208 ) ;
#264 = CARTESIAN_POINT ( 'NONE',  ( 3.142333204958820020E-14, 0.7749999999999962474, 9.000000000000000000 ) ) ;
#265 = PERSON ( 'UNSPECIFIED', 'UNSPECIFIED', 'UNSPECIFIED', ('UNSPECIFIED'), ('UNSPECIFIED'), ('UNSPECIFIED') ) ;
#266 = EDGE_LOOP ( 'NONE', ( #308, #27, #213, #162 ) ) ;
#267 = AXIS2_PLACEMENT_3D ( 'NONE', #139, #270, #12 ) ;
#268 = AXIS2_PLACEMENT_3D ( 'NONE', #2, #260, #103 ) ;
#269 = LINE ( 'NONE', #89, #158 ) ;
#270 = DIRECTION ( 'NONE',  ( -3.491481338843133355E-15, 1.224646799147353207E-16, -1.000000000000000000 ) ) ;
#271 = DIRECTION ( 'NONE',  ( 0.0000000000000000000, 1.000000000000000000, 0.0000000000000000000 ) ) ;
#272 = CIRCLE ( 'NONE', #248, 0.7750000000000009104 ) ;
#273 = CARTESIAN_POINT ( 'NONE',  ( 1.326762908760390423E-13, 4.311809375152777674E-33, 38.00000000000000000 ) ) ;
#274 = CONICAL_SURFACE ( 'NONE', #127, 0.7749999999999963585, 1.029744258676649871 ) ;
#275 = DIRECTION ( 'NONE',  ( -4.970141791967083659E-31, -1.000000000000000000, -1.398970545142592951E-16 ) ) ;
#276 = DATE_TIME_ROLE ( 'classification_date' ) ;
#277 = VERTEX_POINT ( 'NONE', #70 ) ;
#278 = APPROVAL_DATE_TIME ( #98, #175 ) ;
#279 = ADVANCED_FACE ( 'NONE', ( #86 ), #274, .T. ) ;
#280 = APPLICATION_CONTEXT ( 'configuration controlled 3d designs of mechanical parts and assemblies' ) ;
#281 = APPROVAL_PERSON_ORGANIZATION ( #224, #294, #200 ) ;
#282 = PERSON_AND_ORGANIZATION_ROLE ( 'design_owner' ) ;
#283 = DATE_AND_TIME ( #45, #189 ) ;
#284 = EDGE_LOOP ( 'NONE', ( #286, #316 ) ) ;
#285 = EDGE_LOOP ( 'NONE', ( #147, #124, #55, #31 ) ) ;
#286 = ORIENTED_EDGE ( 'NONE', *, *, #88, .F. ) ;
#287 = DIRECTION ( 'NONE',  ( -3.491481338843133355E-15, 1.224646799147353207E-16, -1.000000000000000000 ) ) ;
#288 = CARTESIAN_POINT ( 'NONE',  ( 1.625867569899866507E-15, -5.702775762149976126E-17, 0.4656669797463620641 ) ) ;
#289 = EDGE_CURVE ( 'NONE', #256, #48, #160, .T. ) ;
#290 = DIRECTION ( 'NONE',  ( -3.491481338843133355E-15, 1.224646799147353207E-16, -1.000000000000000000 ) ) ;
#291 = VECTOR ( 'NONE', #290, 1000.000000000000000 ) ;
#292 = DIRECTION ( 'NONE',  ( -3.491481338843133355E-15, 1.224646799147353207E-16, -1.000000000000000000 ) ) ;
#293 = CARTESIAN_POINT ( 'NONE',  ( 1.326762908760390423E-13, -4.653657836759941941E-15, 38.00000000000000000 ) ) ;
#294 = APPROVAL ( #95, 'UNSPECIFIED' ) ;
#295 = CLOSED_SHELL ( 'NONE', ( #157, #218, #26, #301, #36, #209 ) ) ;
#296 = AXIS2_PLACEMENT_3D ( 'NONE', #185, #63, #271 ) ;
#297 = CARTESIAN_POINT ( 'NONE',  ( 1.625867569899866507E-15, -5.702775762149976126E-17, 0.4656669797463620641 ) ) ;
#298 = AXIS2_PLACEMENT_3D ( 'NONE', #293, #42, #64 ) ;
#299 = DIRECTION ( 'NONE',  ( -2.382254525458708792E-15, -0.7071067811865495711, -0.7071067811865455743 ) ) ;
#300 = DIRECTION ( 'NONE',  ( -3.491481338843133355E-15, 1.224646799147353207E-16, -1.000000000000000000 ) ) ;
#301 = ADVANCED_FACE ( 'NONE', ( #164 ), #137, .T. ) ;
#302 = DIRECTION ( 'NONE',  ( 4.275831445896958607E-31, 1.000000000000000000, 1.224646799147353207E-16 ) ) ;
#303 = AXIS2_PLACEMENT_3D ( 'NONE', #244, #300, #68 ) ;
#304 = ORIENTED_EDGE ( 'NONE', *, *, #163, .T. ) ;
#305 = PERSON_AND_ORGANIZATION ( #265, #170 ) ;
#306 = EDGE_LOOP ( 'NONE', ( #173, #199, #337, #161 ) ) ;
#307 = COORDINATED_UNIVERSAL_TIME_OFFSET ( 1, 0, .AHEAD. ) ;
#308 = ORIENTED_EDGE ( 'NONE', *, *, #148, .F. ) ;
#309 = SECURITY_CLASSIFICATION ( '', '', #171 ) ;
#310 = CARTESIAN_POINT ( 'NONE',  ( 0.0000000000000000000, 0.0000000000000000000, 0.0000000000000000000 ) ) ;
#311 = DIRECTION ( 'NONE',  ( -3.491481338843133355E-15, 1.224646799147353207E-16, -1.000000000000000000 ) ) ;
#312 = FACE_OUTER_BOUND ( 'NONE', #223, .T. ) ;
#313 = DIRECTION ( 'NONE',  ( 4.970141791967083659E-31, 1.000000000000000000, 1.398970545142592951E-16 ) ) ;
#314 = EDGE_CURVE ( 'NONE', #48, #197, #65, .T. ) ;
#315 = DIRECTION ( 'NONE',  ( -3.491481338843133355E-15, 1.224646799147353207E-16, -1.000000000000000000 ) ) ;
#316 = ORIENTED_EDGE ( 'NONE', *, *, #227, .F. ) ;
#317 = PRODUCT_DEFINITION_FORMATION_WITH_SPECIFIED_SOURCE ( 'ANY', '', #326, .NOT_KNOWN. ) ;
#318 = AXIS2_PLACEMENT_3D ( 'NONE', #240, #8, #114 ) ;
#319 = APPROVAL ( #255, 'UNSPECIFIED' ) ;
#320 = FACE_OUTER_BOUND ( 'NONE', #151, .T. ) ;
#321 = DIRECTION ( 'NONE',  ( 1.798245827342159528E-15, -0.8571673007021100021, 0.5150380749100580413 ) ) ;
#322 = CARTESIAN_POINT ( 'NONE',  ( 1.319779946082704535E-13, 0.7749999999999962474, 37.79999999999999716 ) ) ;
#323 = CIRCLE ( 'NONE', #104, 0.7749999999999963585 ) ;
#324 = CONICAL_SURFACE ( 'NONE', #252, 0.5750000000000009548, 0.7853981633974512766 ) ;
#325 = DIRECTION ( 'NONE',  ( -3.491481338843133355E-15, 1.224646799147353207E-16, -1.000000000000000000 ) ) ;
#326 = PRODUCT ( '54501', '54501', '', ( #119 ) ) ;
#327 = PLANE ( 'NONE',  #184 ) ;
#328 = CIRCLE ( 'NONE', #296, 0.7749999999999973577 ) ;
#329 = COORDINATED_UNIVERSAL_TIME_OFFSET ( 1, 0, .AHEAD. ) ;
#330 = ORIENTED_EDGE ( 'NONE', *, *, #17, .T. ) ;
#331 = CALENDAR_DATE ( 2021, 3, 9 ) ;
#332 = AXIS2_PLACEMENT_3D ( 'NONE', #210, #233, #4 ) ;
#333 = VECTOR ( 'NONE', #299, 1000.000000000000114 ) ;
#334 = PERSON_AND_ORGANIZATION_ROLE ( 'creator' ) ;
#335 = ORIENTED_EDGE ( 'NONE', *, *, #195, .T. ) ;
#336 = DATE_AND_TIME ( #230, #34 ) ;
#337 = ORIENTED_EDGE ( 'NONE', *, *, #163, .F. ) ;
ENDSEC;
END-ISO-10303-21;
