ISO-10303-21;
HEADER;
FILE_DESCRIPTION (( 'STEP AP203' ),
    '1' );
FILE_NAME ('54500.step',
    '2021-09-03T07:48:39',
    ( '' ),
    ( '' ),
    'SwSTEP 2.0',
    'SolidWorks 2019',
    '' );
FILE_SCHEMA (( 'CONFIG_CONTROL_DESIGN' ));
ENDSEC;

DATA;
#1 = CONICAL_SURFACE ( 'NONE', #257, 0.5500000000000000444, 0.7853981633974512766 ) ;
#2 = DIRECTION ( 'NONE',  ( -3.491481338843133355E-15, 1.224646799147353207E-16, -1.000000000000000000 ) ) ;
#3 = APPROVAL ( #12, 'UNSPECIFIED' ) ;
#4 = CARTESIAN_POINT ( 'NONE',  ( 2.793185071074506684E-14, -9.797174393178825657E-16, 8.000000000000000000 ) ) ;
#5 = FACE_OUTER_BOUND ( 'NONE', #293, .T. ) ;
#6 = PERSON_AND_ORGANIZATION ( #20, #185 ) ;
#7 = APPROVAL_STATUS ( 'not_yet_approved' ) ;
#8 = CARTESIAN_POINT ( 'NONE',  ( 1.047444401652940007E-13, -3.673940397442059178E-15, 30.00000000000000000 ) ) ;
#9 = DATE_AND_TIME ( #191, #49 ) ;
#10 = EDGE_LOOP ( 'NONE', ( #244, #159, #213, #117 ) ) ;
#11 = AXIS2_PLACEMENT_3D ( 'NONE', #28, #51, #178 ) ;
#12 = APPROVAL_STATUS ( 'not_yet_approved' ) ;
#13 = EDGE_CURVE ( 'NONE', #68, #299, #324, .T. ) ;
#14 = EDGE_LOOP ( 'NONE', ( #40, #234, #200, #197 ) ) ;
#15 = COORDINATED_UNIVERSAL_TIME_OFFSET ( 1, 0, .AHEAD. ) ;
#16 = DIRECTION ( 'NONE',  ( 4.275831445896958607E-31, 1.000000000000000000, 1.224646799147353207E-16 ) ) ;
#17 = EDGE_LOOP ( 'NONE', ( #161, #326 ) ) ;
#18 = CC_DESIGN_PERSON_AND_ORGANIZATION_ASSIGNMENT ( #327, #140, ( #176 ) ) ;
#19 = SECURITY_CLASSIFICATION ( '', '', #122 ) ;
#20 = PERSON ( 'UNSPECIFIED', 'UNSPECIFIED', 'UNSPECIFIED', ('UNSPECIFIED'), ('UNSPECIFIED'), ('UNSPECIFIED') ) ;
#21 = DIRECTION ( 'NONE',  ( -3.491481338843133355E-15, 1.224646799147353207E-16, -1.000000000000000000 ) ) ;
#22 = UNCERTAINTY_MEASURE_WITH_UNIT (LENGTH_MEASURE( 1.000000000000000082E-05 ), #111, 'distance_accuracy_value', 'NONE');
#23 = DIRECTION ( 'NONE',  ( -3.491481338843133355E-15, 1.224646799147353207E-16, -1.000000000000000000 ) ) ;
#24 = CARTESIAN_POINT ( 'NONE',  ( 0.0000000000000000000, 0.0000000000000000000, 0.0000000000000000000 ) ) ;
#25 = APPROVAL_PERSON_ORGANIZATION ( #243, #57, #298 ) ;
#26 = DIRECTION ( 'NONE',  ( 4.275831445896958607E-31, 1.000000000000000000, 1.224646799147353207E-16 ) ) ;
#27 = ADVANCED_FACE ( 'NONE', ( #95 ), #194, .T. ) ;
#28 = CARTESIAN_POINT ( 'NONE',  ( 1.573420228935354697E-15, -5.518815253693525919E-17, 0.4506454642706729796 ) ) ;
#29 = MECHANICAL_CONTEXT ( 'NONE', #104, 'mechanical' ) ;
#30 = VERTEX_POINT ( 'NONE', #123 ) ;
#31 = EDGE_CURVE ( 'NONE', #44, #139, #129, .T. ) ;
#32 = CONICAL_SURFACE ( 'NONE', #74, 0.7499999999999964473, 1.029744258676649649 ) ;
#33 = LOCAL_TIME ( 9, 48, 39.00000000000000000, #119 ) ;
#34 = DIRECTION ( 'NONE',  ( 0.0000000000000000000, 1.000000000000000000, 0.0000000000000000000 ) ) ;
#35 = PERSON_AND_ORGANIZATION ( #20, #185 ) ;
#36 = DIRECTION ( 'NONE',  ( -4.275831445896958607E-31, -1.000000000000000000, -1.224646799147353207E-16 ) ) ;
#37 = VECTOR ( 'NONE', #183, 1000.000000000000000 ) ;
#38 = VERTEX_POINT ( 'NONE', #273 ) ;
#39 = CARTESIAN_POINT ( 'NONE',  ( 0.0000000000000000000, 0.0000000000000000000, 0.0000000000000000000 ) ) ;
#40 = ORIENTED_EDGE ( 'NONE', *, *, #289, .T. ) ;
#41 = CLOSED_SHELL ( 'NONE', ( #163, #66, #270, #239, #113, #201 ) ) ;
#42 = VERTEX_POINT ( 'NONE', #99 ) ;
#43 = CALENDAR_DATE ( 2021, 3, 9 ) ;
#44 = VERTEX_POINT ( 'NONE', #259 ) ;
#45 = EDGE_CURVE ( 'NONE', #169, #121, #281, .T. ) ;
#46 = DESIGN_CONTEXT ( 'detailed design', #133, 'design' ) ;
#47 = CYLINDRICAL_SURFACE ( 'NONE', #142, 0.7499999999999968914 ) ;
#48 = AXIS2_PLACEMENT_3D ( 'NONE', #189, #2, #60 ) ;
#49 = LOCAL_TIME ( 9, 48, 39.00000000000000000, #192 ) ;
#50 = CARTESIAN_POINT ( 'NONE',  ( 2.793185071074506684E-14, 5.624099184981931818E-33, 8.000000000000000000 ) ) ;
#51 = DIRECTION ( 'NONE',  ( -3.491481338843133355E-15, 1.224646799147353207E-16, -1.000000000000000000 ) ) ;
#52 = EDGE_CURVE ( 'NONE', #139, #44, #177, .T. ) ;
#53 = FACE_OUTER_BOUND ( 'NONE', #100, .T. ) ;
#54 = CONICAL_SURFACE ( 'NONE', #300, 0.5500000000000000444, 0.7853981633974512766 ) ;
#55 = CC_DESIGN_SECURITY_CLASSIFICATION ( #19, ( #247 ) ) ;
#56 = CARTESIAN_POINT ( 'NONE',  ( 0.0000000000000000000, 0.0000000000000000000, 0.0000000000000000000 ) ) ;
#57 = APPROVAL ( #143, 'UNSPECIFIED' ) ;
#58 = DIRECTION ( 'NONE',  ( 0.0000000000000000000, 1.000000000000000000, 0.0000000000000000000 ) ) ;
#59 = VECTOR ( 'NONE', #154, 1000.000000000000000 ) ;
#60 = DIRECTION ( 'NONE',  ( 4.275831445896959482E-31, 1.000000000000000000, 1.224646799147353207E-16 ) ) ;
#61 = DIRECTION ( 'NONE',  ( -5.135813185032653172E-31, -1.000000000000000000, -1.445602896647346066E-16 ) ) ;
#62 = DIRECTION ( 'NONE',  ( 1.903218546456022717E-15, 0.8571673007021097801, 0.5150380749100585964 ) ) ;
#63 = VECTOR ( 'NONE', #175, 1000.000000000000114 ) ;
#64 = APPLICATION_PROTOCOL_DEFINITION ( 'international standard', 'config_control_design', 1994, #133 ) ;
#65 = ORIENTED_EDGE ( 'NONE', *, *, #260, .T. ) ;
#66 = ADVANCED_FACE ( 'NONE', ( #279 ), #107, .T. ) ;
#67 = DIRECTION ( 'NONE',  ( 0.0000000000000000000, 1.000000000000000000, 0.0000000000000000000 ) ) ;
#68 = VERTEX_POINT ( 'NONE', #24 ) ;
#69 = CIRCLE ( 'NONE', #11, 0.7499999999999964473 ) ;
#70 = APPROVAL_ROLE ( '' ) ;
#71 = ORIENTED_EDGE ( 'NONE', *, *, #52, .F. ) ;
#72 = DIRECTION ( 'NONE',  ( -3.491481338843133355E-15, 1.224646799147353207E-16, -1.000000000000000000 ) ) ;
#73 = FACE_OUTER_BOUND ( 'NONE', #193, .T. ) ;
#74 = AXIS2_PLACEMENT_3D ( 'NONE', #242, #110, #61 ) ;
#75 = CC_DESIGN_APPROVAL ( #3, ( #176 ) ) ;
#76 = CARTESIAN_POINT ( 'NONE',  ( 3.206873584422705380E-31, 0.7499999999999968914, 9.184850993605110227E-17 ) ) ;
#77 = EDGE_CURVE ( 'NONE', #97, #299, #69, .T. ) ;
#78 = CARTESIAN_POINT ( 'NONE',  ( 2.793185071074506684E-14, 0.7499999999999963363, 8.000000000000000000 ) ) ;
#79 = DIRECTION ( 'NONE',  ( -3.491481338843133355E-15, 1.224646799147353207E-16, -1.000000000000000000 ) ) ;
#80 = AXIS2_PLACEMENT_3D ( 'NONE', #127, #333, #282 ) ;
#81 = CC_DESIGN_APPROVAL ( #57, ( #19 ) ) ;
#82 = CC_DESIGN_PERSON_AND_ORGANIZATION_ASSIGNMENT ( #35, #215, ( #285 ) ) ;
#83 = DIRECTION ( 'NONE',  ( -3.491481338843133355E-15, 1.224646799147353207E-16, -1.000000000000000000 ) ) ;
#84 = DIRECTION ( 'NONE',  ( -3.491481338843133355E-15, 1.224646799147353207E-16, -1.000000000000000000 ) ) ;
#85 = LINE ( 'NONE', #286, #288 ) ;
#86 = LOCAL_TIME ( 9, 48, 39.00000000000000000, #196 ) ;
#87 = CARTESIAN_POINT ( 'NONE',  ( 0.0000000000000000000, 0.0000000000000000000, 0.0000000000000000000 ) ) ;
#88 = EDGE_CURVE ( 'NONE', #44, #30, #229, .T. ) ;
#89 = FACE_OUTER_BOUND ( 'NONE', #220, .T. ) ;
#90 = AXIS2_PLACEMENT_3D ( 'NONE', #337, #106, #202 ) ;
#91 = CALENDAR_DATE ( 2021, 3, 9 ) ;
#92 = PRODUCT_RELATED_PRODUCT_CATEGORY ( 'detail', '', ( #285 ) ) ;
#93 = EDGE_LOOP ( 'NONE', ( #71, #219 ) ) ;
#94 = APPROVAL_ROLE ( '' ) ;
#95 = FACE_OUTER_BOUND ( 'NONE', #14, .T. ) ;
#96 = DATE_AND_TIME ( #214, #33 ) ;
#97 = VERTEX_POINT ( 'NONE', #102 ) ;
#98 = COORDINATED_UNIVERSAL_TIME_OFFSET ( 1, 0, .AHEAD. ) ;
#99 = CARTESIAN_POINT ( 'NONE',  ( 2.793185071074506684E-14, 0.7499999999999963363, 8.000000000000000000 ) ) ;
#100 = EDGE_LOOP ( 'NONE', ( #224, #172, #141, #321 ) ) ;
#101 = DIRECTION ( 'NONE',  ( 5.135813185032653172E-31, 1.000000000000000000, 1.445602896647346066E-16 ) ) ;
#102 = CARTESIAN_POINT ( 'NONE',  ( 1.665268738871405861E-15, 0.7499999999999963363, 0.4506454642706730906 ) ) ;
#103 = AXIS2_PLACEMENT_3D ( 'NONE', #4, #135, #109 ) ;
#104 = APPLICATION_CONTEXT ( 'configuration controlled 3d designs of mechanical parts and assemblies' ) ;
#105 = LOCAL_TIME ( 9, 48, 39.00000000000000000, #98 ) ;
#106 = DIRECTION ( 'NONE',  ( -3.491481338843133355E-15, 1.224646799147353207E-16, -1.000000000000000000 ) ) ;
#107 = CYLINDRICAL_SURFACE ( 'NONE', #223, 0.7499999999999986677 ) ;
#108 = ADVANCED_FACE ( 'NONE', ( #204 ), #225, .T. ) ;
#109 = DIRECTION ( 'NONE',  ( 0.0000000000000000000, 1.000000000000000000, 0.0000000000000000000 ) ) ;
#110 = DIRECTION ( 'NONE',  ( 3.491481338843133355E-15, -1.224646799147353207E-16, 1.000000000000000000 ) ) ;
#111 =( LENGTH_UNIT ( ) NAMED_UNIT ( * ) SI_UNIT ( .MILLI., .METRE. ) );
#112 = APPLICATION_PROTOCOL_DEFINITION ( 'international standard', 'config_control_design', 1994, #104 ) ;
#113 = ADVANCED_FACE ( 'NONE', ( #128 ), #1, .T. ) ;
#114 = PERSON_AND_ORGANIZATION ( #20, #185 ) ;
#115 = CC_DESIGN_DATE_AND_TIME_ASSIGNMENT ( #325, #148, ( #19 ) ) ;
#116 = APPROVAL_DATE_TIME ( #249, #170 ) ;
#117 = ORIENTED_EDGE ( 'NONE', *, *, #182, .F. ) ;
#118 = CIRCLE ( 'NONE', #307, 0.7499999999999973355 ) ;
#119 = COORDINATED_UNIVERSAL_TIME_OFFSET ( 1, 0, .AHEAD. ) ;
#120 = VERTEX_POINT ( 'NONE', #207 ) ;
#121 = VERTEX_POINT ( 'NONE', #78 ) ;
#122 = SECURITY_CLASSIFICATION_LEVEL ( 'unclassified' ) ;
#123 = CARTESIAN_POINT ( 'NONE',  ( 6.608084581407113294E-14, -0.7500000000000037748, 29.80000000000000071 ) ) ;
#124 = DIRECTION ( 'NONE',  ( -3.491481338843133355E-15, 1.224646799147353207E-16, -1.000000000000000000 ) ) ;
#125 = CIRCLE ( 'NONE', #233, 0.7499999999999973355 ) ;
#126 = LINE ( 'NONE', #203, #37 ) ;
#127 = CARTESIAN_POINT ( 'NONE',  ( 1.040461438975253740E-13, -3.649447461459112464E-15, 29.80000000000000071 ) ) ;
#128 = FACE_OUTER_BOUND ( 'NONE', #269, .T. ) ;
#129 = CIRCLE ( 'NONE', #211, 0.5500000000000000444 ) ;
#130 = FACE_OUTER_BOUND ( 'NONE', #93, .T. ) ;
#131 = DIRECTION ( 'NONE',  ( 0.0000000000000000000, 1.000000000000000000, 0.0000000000000000000 ) ) ;
#132 = ORIENTED_EDGE ( 'NONE', *, *, #138, .F. ) ;
#133 = APPLICATION_CONTEXT ( 'configuration controlled 3d designs of mechanical parts and assemblies' ) ;
#134 = EDGE_CURVE ( 'NONE', #169, #30, #184, .T. ) ;
#135 = DIRECTION ( 'NONE',  ( -3.491481338843133355E-15, 1.224646799147353207E-16, -1.000000000000000000 ) ) ;
#136 = VECTOR ( 'NONE', #21, 1000.000000000000000 ) ;
#137 = CARTESIAN_POINT ( 'NONE',  ( 1.573420228935354303E-15, -0.7499999999999965583, 0.4506454642706728686 ) ) ;
#138 = EDGE_CURVE ( 'NONE', #121, #120, #262, .T. ) ;
#139 = VERTEX_POINT ( 'NONE', #335 ) ;
#140 = PERSON_AND_ORGANIZATION_ROLE ( 'creator' ) ;
#141 = ORIENTED_EDGE ( 'NONE', *, *, #134, .F. ) ;
#142 = AXIS2_PLACEMENT_3D ( 'NONE', #56, #258, #26 ) ;
#143 = APPROVAL_STATUS ( 'not_yet_approved' ) ;
#144 = ORIENTED_EDGE ( 'NONE', *, *, #206, .F. ) ;
#145 = CALENDAR_DATE ( 2021, 3, 9 ) ;
#146 = EDGE_CURVE ( 'NONE', #42, #97, #277, .T. ) ;
#147 = ORIENTED_EDGE ( 'NONE', *, *, #77, .T. ) ;
#148 = DATE_TIME_ROLE ( 'classification_date' ) ;
#149 = ORIENTED_EDGE ( 'NONE', *, *, #331, .F. ) ;
#150 = DIRECTION ( 'NONE',  ( 4.275831445896958607E-31, 1.000000000000000000, 1.224646799147353207E-16 ) ) ;
#151 = LOCAL_TIME ( 9, 48, 39.00000000000000000, #15 ) ;
#152 = CC_DESIGN_PERSON_AND_ORGANIZATION_ASSIGNMENT ( #165, #323, ( #247 ) ) ;
#153 = DIRECTION ( 'NONE',  ( -4.275831445896958607E-31, -1.000000000000000000, -1.224646799147353207E-16 ) ) ;
#154 = DIRECTION ( 'NONE',  ( -3.491481338843133355E-15, 1.224646799147353207E-16, -1.000000000000000000 ) ) ;
#155 = FACE_OUTER_BOUND ( 'NONE', #10, .T. ) ;
#156 = MANIFOLD_SOLID_BREP ( 'Corps-Déplacer/Copier1[1]', #41 ) ;
#157 = CIRCLE ( 'NONE', #240, 0.7499999999999964473 ) ;
#158 = CARTESIAN_POINT ( 'NONE',  ( 3.206873584422713700E-31, 0.7499999999999986677, 9.184850993605133646E-17 ) ) ;
#159 = ORIENTED_EDGE ( 'NONE', *, *, #302, .T. ) ;
#160 = DIRECTION ( 'NONE',  ( -3.491481338843133355E-15, 1.224646799147353207E-16, -1.000000000000000000 ) ) ;
#161 = ORIENTED_EDGE ( 'NONE', *, *, #138, .T. ) ;
#162 = CARTESIAN_POINT ( 'NONE',  ( 2.793185071074506684E-14, 5.624099184981931818E-33, 8.000000000000000000 ) ) ;
#163 = ADVANCED_FACE ( 'NONE', ( #53 ), #54, .T. ) ;
#164 = AXIS2_PLACEMENT_3D ( 'NONE', #284, #316, #186 ) ;
#165 = PERSON_AND_ORGANIZATION ( #20, #185 ) ;
#166 = ORIENTED_EDGE ( 'NONE', *, *, #319, .T. ) ;
#167 = CARTESIAN_POINT ( 'NONE',  ( 1.573420228935354303E-15, -0.7499999999999965583, 0.4506454642706728686 ) ) ;
#168 = PERSON_AND_ORGANIZATION ( #20, #185 ) ;
#169 = VERTEX_POINT ( 'NONE', #252 ) ;
#170 = APPROVAL ( #7, 'UNSPECIFIED' ) ;
#171 = CIRCLE ( 'NONE', #179, 0.7500000000000000000 ) ;
#172 = ORIENTED_EDGE ( 'NONE', *, *, #88, .T. ) ;
#173 = PERSON_AND_ORGANIZATION_ROLE ( 'classification_officer' ) ;
#174 = ORIENTED_EDGE ( 'NONE', *, *, #88, .F. ) ;
#175 = DIRECTION ( 'NONE',  ( -2.382254525458708792E-15, -0.7071067811865495711, -0.7071067811865455743 ) ) ;
#176 = PRODUCT_DEFINITION ( 'UNKNOWN', '', #247, #46 ) ;
#177 = CIRCLE ( 'NONE', #294, 0.5500000000000000444 ) ;
#178 = DIRECTION ( 'NONE',  ( 5.135813185032653172E-31, 1.000000000000000000, 1.445602896647346066E-16 ) ) ;
#179 = AXIS2_PLACEMENT_3D ( 'NONE', #311, #83, #238 ) ;
#180 = CARTESIAN_POINT ( 'NONE',  ( 1.047444401652940007E-13, -3.673940397442059178E-15, 30.00000000000000000 ) ) ;
#181 = DIRECTION ( 'NONE',  ( 4.275831445896959482E-31, 1.000000000000000000, 1.224646799147353207E-16 ) ) ;
#182 = EDGE_CURVE ( 'NONE', #299, #97, #157, .T. ) ;
#183 = DIRECTION ( 'NONE',  ( -3.491481338843133355E-15, 1.224646799147353207E-16, -1.000000000000000000 ) ) ;
#184 = CIRCLE ( 'NONE', #80, 0.7500000000000000000 ) ;
#185 = ORGANIZATION ( 'UNSPECIFIED', 'UNSPECIFIED', '' ) ;
#186 = DIRECTION ( 'NONE',  ( -5.135813185032653172E-31, -1.000000000000000000, -1.445602896647346066E-16 ) ) ;
#187 = FACE_OUTER_BOUND ( 'NONE', #17, .T. ) ;
#188 = CLOSED_SHELL ( 'NONE', ( #27, #264, #228, #195, #108 ) ) ;
#189 = CARTESIAN_POINT ( 'NONE',  ( 0.0000000000000000000, 0.0000000000000000000, 0.0000000000000000000 ) ) ;
#190 = PLANE ( 'NONE',  #322 ) ;
#191 = CALENDAR_DATE ( 2021, 3, 9 ) ;
#192 = COORDINATED_UNIVERSAL_TIME_OFFSET ( 1, 0, .AHEAD. ) ;
#193 = EDGE_LOOP ( 'NONE', ( #330, #276, #296 ) ) ;
#194 = CYLINDRICAL_SURFACE ( 'NONE', #198, 0.7499999999999968914 ) ;
#195 = ADVANCED_FACE ( 'NONE', ( #155 ), #47, .T. ) ;
#196 = COORDINATED_UNIVERSAL_TIME_OFFSET ( 1, 0, .AHEAD. ) ;
#197 = ORIENTED_EDGE ( 'NONE', *, *, #146, .F. ) ;
#198 = AXIS2_PLACEMENT_3D ( 'NONE', #39, #124, #16 ) ;
#199 = APPROVAL_DATE_TIME ( #9, #3 ) ;
#200 = ORIENTED_EDGE ( 'NONE', *, *, #77, .F. ) ;
#201 = ADVANCED_FACE ( 'NONE', ( #130 ), #306, .F. ) ;
#202 = DIRECTION ( 'NONE',  ( 0.0000000000000000000, 1.000000000000000000, 0.0000000000000000000 ) ) ;
#203 = CARTESIAN_POINT ( 'NONE',  ( 9.184850993605102831E-17, -0.7499999999999986677, -9.184850993605164461E-17 ) ) ;
#204 = FACE_OUTER_BOUND ( 'NONE', #318, .T. ) ;
#205 = DIRECTION ( 'NONE',  ( 0.0000000000000000000, 1.000000000000000000, 0.0000000000000000000 ) ) ;
#206 = EDGE_CURVE ( 'NONE', #30, #120, #126, .T. ) ;
#207 = CARTESIAN_POINT ( 'NONE',  ( 6.608084581407124653E-14, -0.7499999999999983347, 8.000000000000000000 ) ) ;
#208 = DIRECTION ( 'NONE',  ( -3.491481338843133355E-15, 1.224646799147353207E-16, -1.000000000000000000 ) ) ;
#209 = CC_DESIGN_APPROVAL ( #170, ( #247 ) ) ;
#210 = CARTESIAN_POINT ( 'NONE',  ( 2.793185071074506684E-14, -9.797174393178825657E-16, 8.000000000000000000 ) ) ;
#211 = AXIS2_PLACEMENT_3D ( 'NONE', #8, #297, #67 ) ;
#212 = CARTESIAN_POINT ( 'NONE',  ( 1.665268738871405861E-15, 0.7499999999999963363, 0.4506454642706730906 ) ) ;
#213 = ORIENTED_EDGE ( 'NONE', *, *, #146, .T. ) ;
#214 = CALENDAR_DATE ( 2021, 3, 9 ) ;
#215 = PERSON_AND_ORGANIZATION_ROLE ( 'design_owner' ) ;
#216 = ORIENTED_EDGE ( 'NONE', *, *, #45, .F. ) ;
#217 = CONICAL_SURFACE ( 'NONE', #164, 0.7499999999999964473, 1.029744258676649649 ) ;
#218 = PERSON_AND_ORGANIZATION ( #20, #185 ) ;
#219 = ORIENTED_EDGE ( 'NONE', *, *, #31, .F. ) ;
#220 = EDGE_LOOP ( 'NONE', ( #222, #65, #147 ) ) ;
#221 = SHAPE_DEFINITION_REPRESENTATION ( #254, #231 ) ;
#222 = ORIENTED_EDGE ( 'NONE', *, *, #13, .F. ) ;
#223 = AXIS2_PLACEMENT_3D ( 'NONE', #253, #23, #181 ) ;
#224 = ORIENTED_EDGE ( 'NONE', *, *, #52, .T. ) ;
#225 = PLANE ( 'NONE',  #283 ) ;
#226 = DIRECTION ( 'NONE',  ( -3.491481338843133355E-15, 1.224646799147353207E-16, -1.000000000000000000 ) ) ;
#227 = DIRECTION ( 'NONE',  ( 3.491481338843133355E-15, -1.224646799147353207E-16, 1.000000000000000000 ) ) ;
#228 = ADVANCED_FACE ( 'NONE', ( #73 ), #217, .T. ) ;
#229 = LINE ( 'NONE', #336, #63 ) ;
#230 = DIRECTION ( 'NONE',  ( 0.0000000000000000000, 1.000000000000000000, 0.0000000000000000000 ) ) ;
#231 = ADVANCED_BREP_SHAPE_REPRESENTATION ( '54500', ( #156, #266, #312 ), #268 ) ;
#232 = CC_DESIGN_PERSON_AND_ORGANIZATION_ASSIGNMENT ( #6, #173, ( #19 ) ) ;
#233 = AXIS2_PLACEMENT_3D ( 'NONE', #317, #84, #58 ) ;
#234 = ORIENTED_EDGE ( 'NONE', *, *, #315, .T. ) ;
#235 =( NAMED_UNIT ( * ) PLANE_ANGLE_UNIT ( ) SI_UNIT ( $, .RADIAN. ) );
#236 = ORIENTED_EDGE ( 'NONE', *, *, #134, .T. ) ;
#237 = DIRECTION ( 'NONE',  ( -2.468850131082257455E-15, 0.7071067811865497932, -0.7071067811865453523 ) ) ;
#238 = DIRECTION ( 'NONE',  ( 0.0000000000000000000, 1.000000000000000000, 0.0000000000000000000 ) ) ;
#239 = ADVANCED_FACE ( 'NONE', ( #5 ), #261, .T. ) ;
#240 = AXIS2_PLACEMENT_3D ( 'NONE', #332, #309, #101 ) ;
#241 = APPROVAL_PERSON_ORGANIZATION ( #168, #170, #70 ) ;
#242 = CARTESIAN_POINT ( 'NONE',  ( 1.573420228935354697E-15, -5.518815253693525919E-17, 0.4506454642706729796 ) ) ;
#243 = PERSON_AND_ORGANIZATION ( #20, #185 ) ;
#244 = ORIENTED_EDGE ( 'NONE', *, *, #315, .F. ) ;
#245 = ORIENTED_EDGE ( 'NONE', *, *, #255, .F. ) ;
#246 = CIRCLE ( 'NONE', #103, 0.7499999999999973355 ) ;
#247 = PRODUCT_DEFINITION_FORMATION_WITH_SPECIFIED_SOURCE ( 'ANY', '', #285, .NOT_KNOWN. ) ;
#248 = ORIENTED_EDGE ( 'NONE', *, *, #331, .T. ) ;
#249 = DATE_AND_TIME ( #91, #86 ) ;
#250 = ORIENTED_EDGE ( 'NONE', *, *, #302, .F. ) ;
#251 = ORIENTED_EDGE ( 'NONE', *, *, #31, .T. ) ;
#252 = CARTESIAN_POINT ( 'NONE',  ( 1.040461438975253740E-13, 0.7499999999999963363, 29.80000000000000071 ) ) ;
#253 = CARTESIAN_POINT ( 'NONE',  ( 0.0000000000000000000, 0.0000000000000000000, 0.0000000000000000000 ) ) ;
#254 = PRODUCT_DEFINITION_SHAPE ( 'NONE', 'NONE',  #176 ) ;
#255 = EDGE_CURVE ( 'NONE', #120, #121, #125, .T. ) ;
#256 = DIRECTION ( 'NONE',  ( -3.491481338843133355E-15, 1.224646799147353207E-16, -1.000000000000000000 ) ) ;
#257 = AXIS2_PLACEMENT_3D ( 'NONE', #308, #72, #131 ) ;
#258 = DIRECTION ( 'NONE',  ( -3.491481338843133355E-15, 1.224646799147353207E-16, -1.000000000000000000 ) ) ;
#259 = CARTESIAN_POINT ( 'NONE',  ( 1.044748940733542677E-13, -0.5500000000000037081, 30.00000000000000000 ) ) ;
#260 = EDGE_CURVE ( 'NONE', #68, #97, #291, .T. ) ;
#261 = CYLINDRICAL_SURFACE ( 'NONE', #48, 0.7499999999999986677 ) ;
#262 = CIRCLE ( 'NONE', #90, 0.7499999999999973355 ) ;
#263 = ORIENTED_EDGE ( 'NONE', *, *, #289, .F. ) ;
#264 = ADVANCED_FACE ( 'NONE', ( #89 ), #32, .T. ) ;
#265 = DIRECTION ( 'NONE',  ( 1.000000000000000000, 0.0000000000000000000, 0.0000000000000000000 ) ) ;
#266 = MANIFOLD_SOLID_BREP ( 'Corps-Déplacer/Copier1[2]', #188 ) ;
#267 = DIRECTION ( 'NONE',  ( 3.491481338843133355E-15, -1.224646799147353207E-16, 1.000000000000000000 ) ) ;
#268 =( GEOMETRIC_REPRESENTATION_CONTEXT ( 3 ) GLOBAL_UNCERTAINTY_ASSIGNED_CONTEXT ( ( #22 ) ) GLOBAL_UNIT_ASSIGNED_CONTEXT ( ( #111, #235, #313 ) ) REPRESENTATION_CONTEXT ( 'NONE', 'WORKASPACE' ) );
#269 = EDGE_LOOP ( 'NONE', ( #174, #251, #166, #149 ) ) ;
#270 = ADVANCED_FACE ( 'NONE', ( #187 ), #190, .F. ) ;
#271 = EDGE_LOOP ( 'NONE', ( #236, #328, #132, #216 ) ) ;
#272 = APPROVAL_DATE_TIME ( #320, #57 ) ;
#273 = CARTESIAN_POINT ( 'NONE',  ( 1.484448397977624773E-14, -0.7499999999999983347, 8.000000000000000000 ) ) ;
#274 = VECTOR ( 'NONE', #275, 1000.000000000000000 ) ;
#275 = DIRECTION ( 'NONE',  ( 1.798245827342160317E-15, -0.8571673007021098911, 0.5150380749100582634 ) ) ;
#276 = ORIENTED_EDGE ( 'NONE', *, *, #13, .T. ) ;
#277 = LINE ( 'NONE', #76, #59 ) ;
#278 = VECTOR ( 'NONE', #62, 999.9999999999998863 ) ;
#279 = FACE_OUTER_BOUND ( 'NONE', #271, .T. ) ;
#280 = CC_DESIGN_DATE_AND_TIME_ASSIGNMENT ( #96, #303, ( #176 ) ) ;
#281 = LINE ( 'NONE', #158, #136 ) ;
#282 = DIRECTION ( 'NONE',  ( 0.0000000000000000000, 1.000000000000000000, 0.0000000000000000000 ) ) ;
#283 = AXIS2_PLACEMENT_3D ( 'NONE', #50, #227, #153 ) ;
#284 = CARTESIAN_POINT ( 'NONE',  ( 1.573420228935354697E-15, -5.518815253693525919E-17, 0.4506454642706729796 ) ) ;
#285 = PRODUCT ( '54500', '54500', '', ( #29 ) ) ;
#286 = CARTESIAN_POINT ( 'NONE',  ( 9.184850993605079412E-17, -0.7499999999999968914, -9.184850993605142275E-17 ) ) ;
#287 = LINE ( 'NONE', #314, #334 ) ;
#288 = VECTOR ( 'NONE', #208, 1000.000000000000000 ) ;
#289 = EDGE_CURVE ( 'NONE', #42, #38, #118, .T. ) ;
#290 = DIRECTION ( 'NONE',  ( 0.0000000000000000000, 0.0000000000000000000, 1.000000000000000000 ) ) ;
#291 = LINE ( 'NONE', #212, #278 ) ;
#292 = CC_DESIGN_PERSON_AND_ORGANIZATION_ASSIGNMENT ( #114, #295, ( #247 ) ) ;
#293 = EDGE_LOOP ( 'NONE', ( #144, #248, #304, #245 ) ) ;
#294 = AXIS2_PLACEMENT_3D ( 'NONE', #310, #226, #230 ) ;
#295 = PERSON_AND_ORGANIZATION_ROLE ( 'creator' ) ;
#296 = ORIENTED_EDGE ( 'NONE', *, *, #182, .T. ) ;
#297 = DIRECTION ( 'NONE',  ( -3.491481338843133355E-15, 1.224646799147353207E-16, -1.000000000000000000 ) ) ;
#298 = APPROVAL_ROLE ( '' ) ;
#299 = VERTEX_POINT ( 'NONE', #137 ) ;
#300 = AXIS2_PLACEMENT_3D ( 'NONE', #180, #256, #205 ) ;
#301 = APPROVAL_PERSON_ORGANIZATION ( #218, #3, #94 ) ;
#302 = EDGE_CURVE ( 'NONE', #38, #42, #246, .T. ) ;
#303 = DATE_TIME_ROLE ( 'creation_date' ) ;
#304 = ORIENTED_EDGE ( 'NONE', *, *, #45, .T. ) ;
#305 = CARTESIAN_POINT ( 'NONE',  ( 1.047444401652940007E-13, 4.124339402320052999E-33, 30.00000000000000000 ) ) ;
#306 = PLANE ( 'NONE',  #329 ) ;
#307 = AXIS2_PLACEMENT_3D ( 'NONE', #210, #160, #34 ) ;
#308 = CARTESIAN_POINT ( 'NONE',  ( 1.047444401652940007E-13, -3.673940397442059178E-15, 30.00000000000000000 ) ) ;
#309 = DIRECTION ( 'NONE',  ( -3.491481338843133355E-15, 1.224646799147353207E-16, -1.000000000000000000 ) ) ;
#310 = CARTESIAN_POINT ( 'NONE',  ( 1.047444401652940007E-13, -3.673940397442059178E-15, 30.00000000000000000 ) ) ;
#311 = CARTESIAN_POINT ( 'NONE',  ( 1.040461438975253740E-13, -3.649447461459112464E-15, 29.80000000000000071 ) ) ;
#312 = AXIS2_PLACEMENT_3D ( 'NONE', #87, #290, #265 ) ;
#313 =( NAMED_UNIT ( * ) SI_UNIT ( $, .STERADIAN. ) SOLID_ANGLE_UNIT ( ) );
#314 = CARTESIAN_POINT ( 'NONE',  ( 1.047444401652940007E-13, 0.5499999999999963807, 30.00000000000000000 ) ) ;
#315 = EDGE_CURVE ( 'NONE', #38, #299, #85, .T. ) ;
#316 = DIRECTION ( 'NONE',  ( 3.491481338843133355E-15, -1.224646799147353207E-16, 1.000000000000000000 ) ) ;
#317 = CARTESIAN_POINT ( 'NONE',  ( 2.793185071074506684E-14, -9.797174393178825657E-16, 8.000000000000000000 ) ) ;
#318 = EDGE_LOOP ( 'NONE', ( #263, #250 ) ) ;
#319 = EDGE_CURVE ( 'NONE', #139, #169, #287, .T. ) ;
#320 = DATE_AND_TIME ( #43, #151 ) ;
#321 = ORIENTED_EDGE ( 'NONE', *, *, #319, .F. ) ;
#322 = AXIS2_PLACEMENT_3D ( 'NONE', #162, #267, #36 ) ;
#323 = PERSON_AND_ORGANIZATION_ROLE ( 'design_supplier' ) ;
#324 = LINE ( 'NONE', #167, #274 ) ;
#325 = DATE_AND_TIME ( #145, #105 ) ;
#326 = ORIENTED_EDGE ( 'NONE', *, *, #255, .T. ) ;
#327 = PERSON_AND_ORGANIZATION ( #20, #185 ) ;
#328 = ORIENTED_EDGE ( 'NONE', *, *, #206, .T. ) ;
#329 = AXIS2_PLACEMENT_3D ( 'NONE', #305, #79, #150 ) ;
#330 = ORIENTED_EDGE ( 'NONE', *, *, #260, .F. ) ;
#331 = EDGE_CURVE ( 'NONE', #30, #169, #171, .T. ) ;
#332 = CARTESIAN_POINT ( 'NONE',  ( 1.573420228935354697E-15, -5.518815253693525919E-17, 0.4506454642706729796 ) ) ;
#333 = DIRECTION ( 'NONE',  ( -3.491481338843133355E-15, 1.224646799147353207E-16, -1.000000000000000000 ) ) ;
#334 = VECTOR ( 'NONE', #237, 1000.000000000000114 ) ;
#335 = CARTESIAN_POINT ( 'NONE',  ( 1.047444401652940007E-13, 0.5499999999999963807, 30.00000000000000000 ) ) ;
#336 = CARTESIAN_POINT ( 'NONE',  ( 1.048117957392471037E-13, -0.5500000000000037081, 30.00000000000000000 ) ) ;
#337 = CARTESIAN_POINT ( 'NONE',  ( 2.793185071074506684E-14, -9.797174393178825657E-16, 8.000000000000000000 ) ) ;
ENDSEC;
END-ISO-10303-21;
