ISO-10303-21;
HEADER;
FILE_DESCRIPTION (( 'STEP AP203' ),
    '1' );
FILE_NAME ('54499.step',
    '2021-09-03T07:48:38',
    ( '' ),
    ( '' ),
    'SwSTEP 2.0',
    'SolidWorks 2019',
    '' );
FILE_SCHEMA (( 'CONFIG_CONTROL_DESIGN' ));
ENDSEC;

DATA;
#1 = ORIENTED_EDGE ( 'NONE', *, *, #155, .T. ) ;
#2 =( GEOMETRIC_REPRESENTATION_CONTEXT ( 3 ) GLOBAL_UNCERTAINTY_ASSIGNED_CONTEXT ( ( #142 ) ) GLOBAL_UNIT_ASSIGNED_CONTEXT ( ( #177, #154, #146 ) ) REPRESENTATION_CONTEXT ( 'NONE', 'WORKASPACE' ) );
#3 = DIRECTION ( 'NONE',  ( -3.491481338843133355E-15, 1.224646799147353207E-16, -1.000000000000000000 ) ) ;
#4 = CIRCLE ( 'NONE', #211, 0.7249999999999999778 ) ;
#5 = CALENDAR_DATE ( 2021, 3, 9 ) ;
#6 = FACE_OUTER_BOUND ( 'NONE', #285, .T. ) ;
#7 = APPROVAL_DATE_TIME ( #263, #168 ) ;
#8 = CARTESIAN_POINT ( 'NONE',  ( 8.878689293818263975E-17, -0.7249999999999986455, -8.878689293818324372E-17 ) ) ;
#9 = CC_DESIGN_PERSON_AND_ORGANIZATION_ASSIGNMENT ( #72, #48, ( #88 ) ) ;
#10 = APPROVAL_PERSON_ORGANIZATION ( #309, #168, #234 ) ;
#11 = CARTESIAN_POINT ( 'NONE',  ( 2.793185071074506684E-14, -9.797174393178825657E-16, 8.000000000000000000 ) ) ;
#12 = VECTOR ( 'NONE', #3, 1000.000000000000000 ) ;
#13 = CIRCLE ( 'NONE', #110, 0.7249999999999963141 ) ;
#14 = EDGE_LOOP ( 'NONE', ( #190, #1, #101, #251 ) ) ;
#15 = CARTESIAN_POINT ( 'NONE',  ( 1.048087341222492423E-13, -0.5250000000000036859, 30.00000000000000000 ) ) ;
#16 = FACE_OUTER_BOUND ( 'NONE', #52, .T. ) ;
#17 = DIRECTION ( 'NONE',  ( -5.312910191413091844E-31, -1.000000000000000000, -1.495451272393806938E-16 ) ) ;
#18 = DIRECTION ( 'NONE',  ( 0.0000000000000000000, 1.000000000000000000, 0.0000000000000000000 ) ) ;
#19 = CC_DESIGN_DATE_AND_TIME_ASSIGNMENT ( #51, #151, ( #238 ) ) ;
#20 = DIRECTION ( 'NONE',  ( -5.312910191413091844E-31, -1.000000000000000000, -1.495451272393806938E-16 ) ) ;
#21 = CIRCLE ( 'NONE', #199, 0.7249999999999999778 ) ;
#22 = EDGE_LOOP ( 'NONE', ( #156, #224, #308, #143 ) ) ;
#23 = CALENDAR_DATE ( 2021, 3, 9 ) ;
#24 = ORIENTED_EDGE ( 'NONE', *, *, #94, .F. ) ;
#25 = ORIENTED_EDGE ( 'NONE', *, *, #78, .F. ) ;
#26 = DATE_AND_TIME ( #76, #232 ) ;
#27 = ADVANCED_FACE ( 'NONE', ( #286 ), #109, .F. ) ;
#28 = ORIENTED_EDGE ( 'NONE', *, *, #324, .T. ) ;
#29 = DIRECTION ( 'NONE',  ( 1.000000000000000000, 0.0000000000000000000, 0.0000000000000000000 ) ) ;
#30 = ORIENTED_EDGE ( 'NONE', *, *, #252, .F. ) ;
#31 = DIRECTION ( 'NONE',  ( 0.0000000000000000000, 1.000000000000000000, 0.0000000000000000000 ) ) ;
#32 = ADVANCED_FACE ( 'NONE', ( #56 ), #319, .T. ) ;
#33 = CARTESIAN_POINT ( 'NONE',  ( 1.047444401652940007E-13, -3.673940397442059178E-15, 30.00000000000000000 ) ) ;
#34 = DIRECTION ( 'NONE',  ( -3.491481338843133355E-15, 1.224646799147353207E-16, -1.000000000000000000 ) ) ;
#35 = DIRECTION ( 'NONE',  ( -2.468850131082257455E-15, 0.7071067811865497932, -0.7071067811865453523 ) ) ;
#36 = ORIENTED_EDGE ( 'NONE', *, *, #155, .F. ) ;
#37 = AXIS2_PLACEMENT_3D ( 'NONE', #322, #141, #20 ) ;
#38 = LINE ( 'NONE', #134, #222 ) ;
#39 = CARTESIAN_POINT ( 'NONE',  ( 1.040461438975253740E-13, 0.7249999999999963141, 29.80000000000000071 ) ) ;
#40 = APPLICATION_CONTEXT ( 'configuration controlled 3d designs of mechanical parts and assemblies' ) ;
#41 = AXIS2_PLACEMENT_3D ( 'NONE', #53, #256, #29 ) ;
#42 = CARTESIAN_POINT ( 'NONE',  ( 6.607778419707337247E-14, -0.7249999999999982014, 8.000000000000000000 ) ) ;
#43 = CC_DESIGN_PERSON_AND_ORGANIZATION_ASSIGNMENT ( #337, #73, ( #66 ) ) ;
#44 = FACE_OUTER_BOUND ( 'NONE', #22, .T. ) ;
#45 = PLANE ( 'NONE',  #255 ) ;
#46 = DESIGN_CONTEXT ( 'detailed design', #172, 'design' ) ;
#47 = CALENDAR_DATE ( 2021, 3, 9 ) ;
#48 = PERSON_AND_ORGANIZATION_ROLE ( 'design_supplier' ) ;
#49 = COORDINATED_UNIVERSAL_TIME_OFFSET ( 1, 0, .AHEAD. ) ;
#50 = ORIENTED_EDGE ( 'NONE', *, *, #127, .T. ) ;
#51 = DATE_AND_TIME ( #23, #152 ) ;
#52 = EDGE_LOOP ( 'NONE', ( #77, #28, #122 ) ) ;
#53 = CARTESIAN_POINT ( 'NONE',  ( 0.0000000000000000000, 0.0000000000000000000, 0.0000000000000000000 ) ) ;
#54 = AXIS2_PLACEMENT_3D ( 'NONE', #163, #266, #61 ) ;
#55 = LINE ( 'NONE', #8, #226 ) ;
#56 = FACE_OUTER_BOUND ( 'NONE', #287, .T. ) ;
#57 = CC_DESIGN_APPROVAL ( #306, ( #66 ) ) ;
#58 = CARTESIAN_POINT ( 'NONE',  ( 2.793185071074506684E-14, 0.7249999999999963141, 8.000000000000000000 ) ) ;
#59 = CLOSED_SHELL ( 'NONE', ( #102, #133, #265, #138, #297, #27 ) ) ;
#60 = CYLINDRICAL_SURFACE ( 'NONE', #54, 0.7249999999999986455 ) ;
#61 = DIRECTION ( 'NONE',  ( 4.275831445896958607E-31, 1.000000000000000000, 1.224646799147353207E-16 ) ) ;
#62 = CIRCLE ( 'NONE', #239, 0.7249999999999963141 ) ;
#63 = DIRECTION ( 'NONE',  ( 0.0000000000000000000, 1.000000000000000000, 0.0000000000000000000 ) ) ;
#64 = ADVANCED_FACE ( 'NONE', ( #6 ), #237, .T. ) ;
#65 = DIRECTION ( 'NONE',  ( 5.312910191413091844E-31, 1.000000000000000000, 1.495451272393806938E-16 ) ) ;
#66 = PRODUCT_DEFINITION ( 'UNKNOWN', '', #88, #46 ) ;
#67 = CARTESIAN_POINT ( 'NONE',  ( 1.047444401652940007E-13, -3.673940397442059178E-15, 30.00000000000000000 ) ) ;
#68 = ADVANCED_BREP_SHAPE_REPRESENTATION ( '54499', ( #140, #258, #41 ), #2 ) ;
#69 = AXIS2_PLACEMENT_3D ( 'NONE', #128, #267, #189 ) ;
#70 = DIRECTION ( 'NONE',  ( -3.491481338843133355E-15, 1.224646799147353207E-16, -1.000000000000000000 ) ) ;
#71 = APPROVAL_STATUS ( 'not_yet_approved' ) ;
#72 = PERSON_AND_ORGANIZATION ( #158, #316 ) ;
#73 = PERSON_AND_ORGANIZATION_ROLE ( 'creator' ) ;
#74 = ORIENTED_EDGE ( 'NONE', *, *, #127, .F. ) ;
#75 = EDGE_CURVE ( 'NONE', #184, #310, #317, .T. ) ;
#76 = CALENDAR_DATE ( 2021, 3, 9 ) ;
#77 = ORIENTED_EDGE ( 'NONE', *, *, #75, .F. ) ;
#78 = EDGE_CURVE ( 'NONE', #312, #159, #103, .T. ) ;
#79 = AXIS2_PLACEMENT_3D ( 'NONE', #192, #262, #264 ) ;
#80 = CONICAL_SURFACE ( 'NONE', #327, 0.7249999999999963141, 1.029744258676649649 ) ;
#81 = ORIENTED_EDGE ( 'NONE', *, *, #231, .T. ) ;
#82 = DIRECTION ( 'NONE',  ( -3.491481338843133355E-15, 1.224646799147353207E-16, -1.000000000000000000 ) ) ;
#83 = CARTESIAN_POINT ( 'NONE',  ( 1.047444401652940007E-13, 0.5249999999999962474, 30.00000000000000000 ) ) ;
#84 = CIRCLE ( 'NONE', #292, 0.7249999999999972022 ) ;
#85 = EDGE_CURVE ( 'NONE', #159, #161, #105, .T. ) ;
#86 = CARTESIAN_POINT ( 'NONE',  ( 1.047444401652940007E-13, -3.673940397442059178E-15, 30.00000000000000000 ) ) ;
#87 = DIRECTION ( 'NONE',  ( 4.275831445896958607E-31, 1.000000000000000000, 1.224646799147353207E-16 ) ) ;
#88 = PRODUCT_DEFINITION_FORMATION_WITH_SPECIFIED_SOURCE ( 'ANY', '', #229, .NOT_KNOWN. ) ;
#89 = EDGE_CURVE ( 'NONE', #279, #257, #55, .T. ) ;
#90 = FACE_OUTER_BOUND ( 'NONE', #186, .T. ) ;
#91 = CARTESIAN_POINT ( 'NONE',  ( 1.481519869229611383E-14, -0.7249999999999982014, 8.000000000000000000 ) ) ;
#92 = CYLINDRICAL_SURFACE ( 'NONE', #247, 0.7249999999999966471 ) ;
#93 = CYLINDRICAL_SURFACE ( 'NONE', #268, 0.7249999999999986455 ) ;
#94 = EDGE_CURVE ( 'NONE', #119, #248, #84, .T. ) ;
#95 = AXIS2_PLACEMENT_3D ( 'NONE', #195, #296, #295 ) ;
#96 = CARTESIAN_POINT ( 'NONE',  ( 0.0000000000000000000, 0.0000000000000000000, 0.0000000000000000000 ) ) ;
#97 = CARTESIAN_POINT ( 'NONE',  ( 1.044718324563563936E-13, -0.5250000000000036859, 30.00000000000000000 ) ) ;
#98 = PERSON_AND_ORGANIZATION ( #158, #316 ) ;
#99 = ORIENTED_EDGE ( 'NONE', *, *, #89, .F. ) ;
#100 = CARTESIAN_POINT ( 'NONE',  ( 1.520972887970842098E-15, -0.7249999999999963141, 0.4356239487949836731 ) ) ;
#101 = ORIENTED_EDGE ( 'NONE', *, *, #112, .F. ) ;
#102 = ADVANCED_FACE ( 'NONE', ( #209 ), #173, .T. ) ;
#103 = CIRCLE ( 'NONE', #298, 0.5250000000000000222 ) ;
#104 = ORIENTED_EDGE ( 'NONE', *, *, #324, .F. ) ;
#105 = LINE ( 'NONE', #83, #188 ) ;
#106 = COORDINATED_UNIVERSAL_TIME_OFFSET ( 1, 0, .AHEAD. ) ;
#107 = CARTESIAN_POINT ( 'NONE',  ( 1.609759780909025317E-15, 0.7249999999999963141, 0.4356239487949838951 ) ) ;
#108 = LOCAL_TIME ( 9, 48, 38.00000000000000000, #106 ) ;
#109 = PLANE ( 'NONE',  #333 ) ;
#110 = AXIS2_PLACEMENT_3D ( 'NONE', #242, #246, #174 ) ;
#111 = DIRECTION ( 'NONE',  ( 0.0000000000000000000, 1.000000000000000000, 0.0000000000000000000 ) ) ;
#112 = EDGE_CURVE ( 'NONE', #161, #279, #4, .T. ) ;
#113 = FACE_OUTER_BOUND ( 'NONE', #206, .T. ) ;
#114 = DIRECTION ( 'NONE',  ( -3.491481338843133355E-15, 1.224646799147353207E-16, -1.000000000000000000 ) ) ;
#115 = DIRECTION ( 'NONE',  ( 0.0000000000000000000, 1.000000000000000000, 0.0000000000000000000 ) ) ;
#116 = CARTESIAN_POINT ( 'NONE',  ( 0.0000000000000000000, 0.0000000000000000000, 0.0000000000000000000 ) ) ;
#117 = CARTESIAN_POINT ( 'NONE',  ( 2.793185071074506684E-14, 5.436629212149198933E-33, 8.000000000000000000 ) ) ;
#118 = APPROVAL_ROLE ( '' ) ;
#119 = VERTEX_POINT ( 'NONE', #58 ) ;
#120 = PERSON_AND_ORGANIZATION ( #158, #316 ) ;
#121 = VERTEX_POINT ( 'NONE', #126 ) ;
#122 = ORIENTED_EDGE ( 'NONE', *, *, #164, .T. ) ;
#123 = DATE_TIME_ROLE ( 'creation_date' ) ;
#124 = APPROVAL_STATUS ( 'not_yet_approved' ) ;
#125 = LINE ( 'NONE', #233, #12 ) ;
#126 = CARTESIAN_POINT ( 'NONE',  ( 2.793185071074506684E-14, 0.7249999999999963141, 8.000000000000000000 ) ) ;
#127 = EDGE_CURVE ( 'NONE', #161, #121, #125, .T. ) ;
#128 = CARTESIAN_POINT ( 'NONE',  ( 2.793185071074506684E-14, 5.436629212149198933E-33, 8.000000000000000000 ) ) ;
#129 = PRODUCT_DEFINITION_SHAPE ( 'NONE', 'NONE',  #66 ) ;
#130 = CARTESIAN_POINT ( 'NONE',  ( 1.047444401652940007E-13, 3.936869429487320114E-33, 30.00000000000000000 ) ) ;
#131 = VERTEX_POINT ( 'NONE', #107 ) ;
#132 = VECTOR ( 'NONE', #171, 1000.000000000000114 ) ;
#133 = ADVANCED_FACE ( 'NONE', ( #288 ), #60, .T. ) ;
#134 = CARTESIAN_POINT ( 'NONE',  ( 8.878689293818240556E-17, -0.7249999999999966471, -8.878689293818300953E-17 ) ) ;
#135 = DIRECTION ( 'NONE',  ( -3.491481338843133355E-15, 1.224646799147353207E-16, -1.000000000000000000 ) ) ;
#136 = LOCAL_TIME ( 9, 48, 38.00000000000000000, #200 ) ;
#137 = CARTESIAN_POINT ( 'NONE',  ( 1.520972887970842492E-15, -5.334854745237073247E-17, 0.4356239487949837841 ) ) ;
#138 = ADVANCED_FACE ( 'NONE', ( #325 ), #93, .T. ) ;
#139 = DIRECTION ( 'NONE',  ( 0.0000000000000000000, 1.000000000000000000, 0.0000000000000000000 ) ) ;
#140 = MANIFOLD_SOLID_BREP ( 'Corps-Déplacer/Copier1[1]', #59 ) ;
#141 = DIRECTION ( 'NONE',  ( 3.491481338843133355E-15, -1.224646799147353207E-16, 1.000000000000000000 ) ) ;
#142 = UNCERTAINTY_MEASURE_WITH_UNIT (LENGTH_MEASURE( 1.000000000000000082E-05 ), #177, 'distance_accuracy_value', 'NONE');
#143 = ORIENTED_EDGE ( 'NONE', *, *, #231, .F. ) ;
#144 = ADVANCED_FACE ( 'NONE', ( #270 ), #80, .T. ) ;
#145 = CLOSED_SHELL ( 'NONE', ( #290, #214, #144, #32, #64 ) ) ;
#146 =( NAMED_UNIT ( * ) SI_UNIT ( $, .STERADIAN. ) SOLID_ANGLE_UNIT ( ) );
#147 = ORIENTED_EDGE ( 'NONE', *, *, #282, .F. ) ;
#148 = CC_DESIGN_PERSON_AND_ORGANIZATION_ASSIGNMENT ( #120, #149, ( #238 ) ) ;
#149 = PERSON_AND_ORGANIZATION_ROLE ( 'classification_officer' ) ;
#150 = EDGE_LOOP ( 'NONE', ( #104, #276, #185 ) ) ;
#151 = DATE_TIME_ROLE ( 'classification_date' ) ;
#152 = LOCAL_TIME ( 9, 48, 38.00000000000000000, #204 ) ;
#153 = AXIS2_PLACEMENT_3D ( 'NONE', #198, #114, #115 ) ;
#154 =( NAMED_UNIT ( * ) PLANE_ANGLE_UNIT ( ) SI_UNIT ( $, .RADIAN. ) );
#155 = EDGE_CURVE ( 'NONE', #312, #279, #169, .T. ) ;
#156 = ORIENTED_EDGE ( 'NONE', *, *, #94, .T. ) ;
#157 = APPROVAL_STATUS ( 'not_yet_approved' ) ;
#158 = PERSON ( 'UNSPECIFIED', 'UNSPECIFIED', 'UNSPECIFIED', ('UNSPECIFIED'), ('UNSPECIFIED'), ('UNSPECIFIED') ) ;
#159 = VERTEX_POINT ( 'NONE', #216 ) ;
#160 = DIRECTION ( 'NONE',  ( -3.491481338843133355E-15, 1.224646799147353207E-16, -1.000000000000000000 ) ) ;
#161 = VERTEX_POINT ( 'NONE', #39 ) ;
#162 = EDGE_CURVE ( 'NONE', #159, #312, #313, .T. ) ;
#163 = CARTESIAN_POINT ( 'NONE',  ( 0.0000000000000000000, 0.0000000000000000000, 0.0000000000000000000 ) ) ;
#164 = EDGE_CURVE ( 'NONE', #131, #310, #13, .T. ) ;
#165 = EDGE_LOOP ( 'NONE', ( #182, #25 ) ) ;
#166 = LOCAL_TIME ( 9, 48, 38.00000000000000000, #278 ) ;
#167 = CARTESIAN_POINT ( 'NONE',  ( 2.793185071074506684E-14, -9.797174393178825657E-16, 8.000000000000000000 ) ) ;
#168 = APPROVAL ( #157, 'UNSPECIFIED' ) ;
#169 = LINE ( 'NONE', #15, #132 ) ;
#170 = DIRECTION ( 'NONE',  ( 4.275831445896958607E-31, 1.000000000000000000, 1.224646799147353207E-16 ) ) ;
#171 = DIRECTION ( 'NONE',  ( -2.382254525458708792E-15, -0.7071067811865495711, -0.7071067811865455743 ) ) ;
#172 = APPLICATION_CONTEXT ( 'configuration controlled 3d designs of mechanical parts and assemblies' ) ;
#173 = CONICAL_SURFACE ( 'NONE', #212, 0.5250000000000000222, 0.7853981633974512766 ) ;
#174 = DIRECTION ( 'NONE',  ( 5.312910191413091844E-31, 1.000000000000000000, 1.495451272393806938E-16 ) ) ;
#175 = APPLICATION_PROTOCOL_DEFINITION ( 'international standard', 'config_control_design', 1994, #40 ) ;
#176 = VECTOR ( 'NONE', #202, 999.9999999999998863 ) ;
#177 =( LENGTH_UNIT ( ) NAMED_UNIT ( * ) SI_UNIT ( .MILLI., .METRE. ) );
#178 = EDGE_LOOP ( 'NONE', ( #336, #314, #228, #74 ) ) ;
#179 = SECURITY_CLASSIFICATION_LEVEL ( 'unclassified' ) ;
#180 = PERSON_AND_ORGANIZATION_ROLE ( 'creator' ) ;
#181 = ORIENTED_EDGE ( 'NONE', *, *, #302, .F. ) ;
#182 = ORIENTED_EDGE ( 'NONE', *, *, #162, .F. ) ;
#183 = CONICAL_SURFACE ( 'NONE', #37, 0.7249999999999963141, 1.029744258676649649 ) ;
#184 = VERTEX_POINT ( 'NONE', #299 ) ;
#185 = ORIENTED_EDGE ( 'NONE', *, *, #191, .T. ) ;
#186 = EDGE_LOOP ( 'NONE', ( #36, #334, #230, #236 ) ) ;
#187 = CC_DESIGN_DATE_AND_TIME_ASSIGNMENT ( #281, #123, ( #66 ) ) ;
#188 = VECTOR ( 'NONE', #35, 1000.000000000000114 ) ;
#189 = DIRECTION ( 'NONE',  ( -4.275831445896958607E-31, -1.000000000000000000, -1.224646799147353207E-16 ) ) ;
#190 = ORIENTED_EDGE ( 'NONE', *, *, #162, .T. ) ;
#191 = EDGE_CURVE ( 'NONE', #310, #131, #62, .T. ) ;
#192 = CARTESIAN_POINT ( 'NONE',  ( 0.0000000000000000000, 0.0000000000000000000, 0.0000000000000000000 ) ) ;
#193 = APPROVAL_PERSON_ORGANIZATION ( #227, #197, #118 ) ;
#194 = DIRECTION ( 'NONE',  ( -3.491481338843133355E-15, 1.224646799147353207E-16, -1.000000000000000000 ) ) ;
#195 = CARTESIAN_POINT ( 'NONE',  ( 2.793185071074506684E-14, -9.797174393178825657E-16, 8.000000000000000000 ) ) ;
#196 = DIRECTION ( 'NONE',  ( -3.491481338843133355E-15, 1.224646799147353207E-16, -1.000000000000000000 ) ) ;
#197 = APPROVAL ( #71, 'UNSPECIFIED' ) ;
#198 = CARTESIAN_POINT ( 'NONE',  ( 1.047444401652940007E-13, -3.673940397442059178E-15, 30.00000000000000000 ) ) ;
#199 = AXIS2_PLACEMENT_3D ( 'NONE', #218, #70, #18 ) ;
#200 = COORDINATED_UNIVERSAL_TIME_OFFSET ( 1, 0, .AHEAD. ) ;
#201 = DATE_AND_TIME ( #328, #166 ) ;
#202 = DIRECTION ( 'NONE',  ( 1.903218546456022717E-15, 0.8571673007021097801, 0.5150380749100585964 ) ) ;
#203 = ORIENTED_EDGE ( 'NONE', *, *, #277, .T. ) ;
#204 = COORDINATED_UNIVERSAL_TIME_OFFSET ( 1, 0, .AHEAD. ) ;
#205 = CC_DESIGN_APPROVAL ( #197, ( #88 ) ) ;
#206 = EDGE_LOOP ( 'NONE', ( #203, #254 ) ) ;
#207 = VECTOR ( 'NONE', #273, 1000.000000000000000 ) ;
#208 = EDGE_LOOP ( 'NONE', ( #99, #329, #50, #181 ) ) ;
#209 = FACE_OUTER_BOUND ( 'NONE', #14, .T. ) ;
#210 = DIRECTION ( 'NONE',  ( -3.491481338843133355E-15, 1.224646799147353207E-16, -1.000000000000000000 ) ) ;
#211 = AXIS2_PLACEMENT_3D ( 'NONE', #315, #160, #31 ) ;
#212 = AXIS2_PLACEMENT_3D ( 'NONE', #86, #215, #259 ) ;
#213 = ORIENTED_EDGE ( 'NONE', *, *, #252, .T. ) ;
#214 = ADVANCED_FACE ( 'NONE', ( #16 ), #183, .T. ) ;
#215 = DIRECTION ( 'NONE',  ( -3.491481338843133355E-15, 1.224646799147353207E-16, -1.000000000000000000 ) ) ;
#216 = CARTESIAN_POINT ( 'NONE',  ( 1.047444401652940007E-13, 0.5249999999999962474, 30.00000000000000000 ) ) ;
#217 = DIRECTION ( 'NONE',  ( -3.491481338843133355E-15, 1.224646799147353207E-16, -1.000000000000000000 ) ) ;
#218 = CARTESIAN_POINT ( 'NONE',  ( 1.040461438975253740E-13, -3.649447461459112464E-15, 29.80000000000000071 ) ) ;
#219 = CARTESIAN_POINT ( 'NONE',  ( 2.793185071074506684E-14, -9.797174393178825657E-16, 8.000000000000000000 ) ) ;
#220 = EDGE_CURVE ( 'NONE', #279, #161, #21, .T. ) ;
#221 = CARTESIAN_POINT ( 'NONE',  ( 1.520972887970842492E-15, -5.334854745237073247E-17, 0.4356239487949837841 ) ) ;
#222 = VECTOR ( 'NONE', #243, 1000.000000000000000 ) ;
#223 = PERSON_AND_ORGANIZATION_ROLE ( 'design_owner' ) ;
#224 = ORIENTED_EDGE ( 'NONE', *, *, #282, .T. ) ;
#225 = APPLICATION_PROTOCOL_DEFINITION ( 'international standard', 'config_control_design', 1994, #172 ) ;
#226 = VECTOR ( 'NONE', #34, 1000.000000000000000 ) ;
#227 = PERSON_AND_ORGANIZATION ( #158, #316 ) ;
#228 = ORIENTED_EDGE ( 'NONE', *, *, #277, .F. ) ;
#229 = PRODUCT ( '54499', '54499', '', ( #304 ) ) ;
#230 = ORIENTED_EDGE ( 'NONE', *, *, #85, .T. ) ;
#231 = EDGE_CURVE ( 'NONE', #119, #131, #271, .T. ) ;
#232 = LOCAL_TIME ( 9, 48, 38.00000000000000000, #49 ) ;
#233 = CARTESIAN_POINT ( 'NONE',  ( 3.099977798275289253E-31, 0.7249999999999986455, 8.878689293818294790E-17 ) ) ;
#234 = APPROVAL_ROLE ( '' ) ;
#235 = DIRECTION ( 'NONE',  ( 0.0000000000000000000, 1.000000000000000000, 0.0000000000000000000 ) ) ;
#236 = ORIENTED_EDGE ( 'NONE', *, *, #220, .F. ) ;
#237 = PLANE ( 'NONE',  #69 ) ;
#238 = SECURITY_CLASSIFICATION ( '', '', #179 ) ;
#239 = AXIS2_PLACEMENT_3D ( 'NONE', #221, #135, #65 ) ;
#240 = DIRECTION ( 'NONE',  ( 1.798245827342160317E-15, -0.8571673007021098911, 0.5150380749100582634 ) ) ;
#241 = DIRECTION ( 'NONE',  ( 3.491481338843133355E-15, -1.224646799147353207E-16, 1.000000000000000000 ) ) ;
#242 = CARTESIAN_POINT ( 'NONE',  ( 1.520972887970842492E-15, -5.334854745237073247E-17, 0.4356239487949837841 ) ) ;
#243 = DIRECTION ( 'NONE',  ( -3.491481338843133355E-15, 1.224646799147353207E-16, -1.000000000000000000 ) ) ;
#244 = VECTOR ( 'NONE', #240, 1000.000000000000000 ) ;
#245 = DIRECTION ( 'NONE',  ( -3.491481338843133355E-15, 1.224646799147353207E-16, -1.000000000000000000 ) ) ;
#246 = DIRECTION ( 'NONE',  ( -3.491481338843133355E-15, 1.224646799147353207E-16, -1.000000000000000000 ) ) ;
#247 = AXIS2_PLACEMENT_3D ( 'NONE', #116, #196, #321 ) ;
#248 = VERTEX_POINT ( 'NONE', #91 ) ;
#249 = CIRCLE ( 'NONE', #284, 0.7249999999999972022 ) ;
#250 = CARTESIAN_POINT ( 'NONE',  ( 1.609759780909025317E-15, 0.7249999999999963141, 0.4356239487949838951 ) ) ;
#251 = ORIENTED_EDGE ( 'NONE', *, *, #85, .F. ) ;
#252 = EDGE_CURVE ( 'NONE', #248, #119, #300, .T. ) ;
#253 = AXIS2_PLACEMENT_3D ( 'NONE', #219, #293, #63 ) ;
#254 = ORIENTED_EDGE ( 'NONE', *, *, #302, .T. ) ;
#255 = AXIS2_PLACEMENT_3D ( 'NONE', #117, #326, #291 ) ;
#256 = DIRECTION ( 'NONE',  ( 0.0000000000000000000, 0.0000000000000000000, 1.000000000000000000 ) ) ;
#257 = VERTEX_POINT ( 'NONE', #42 ) ;
#258 = MANIFOLD_SOLID_BREP ( 'Corps-Déplacer/Copier1[2]', #145 ) ;
#259 = DIRECTION ( 'NONE',  ( 0.0000000000000000000, 1.000000000000000000, 0.0000000000000000000 ) ) ;
#260 = SHAPE_DEFINITION_REPRESENTATION ( #129, #68 ) ;
#261 = APPROVAL_PERSON_ORGANIZATION ( #98, #306, #307 ) ;
#262 = DIRECTION ( 'NONE',  ( -3.491481338843133355E-15, 1.224646799147353207E-16, -1.000000000000000000 ) ) ;
#263 = DATE_AND_TIME ( #5, #108 ) ;
#264 = DIRECTION ( 'NONE',  ( 4.275831445896958607E-31, 1.000000000000000000, 1.224646799147353207E-16 ) ) ;
#265 = ADVANCED_FACE ( 'NONE', ( #113 ), #45, .F. ) ;
#266 = DIRECTION ( 'NONE',  ( -3.491481338843133355E-15, 1.224646799147353207E-16, -1.000000000000000000 ) ) ;
#267 = DIRECTION ( 'NONE',  ( 3.491481338843133355E-15, -1.224646799147353207E-16, 1.000000000000000000 ) ) ;
#268 = AXIS2_PLACEMENT_3D ( 'NONE', #96, #245, #170 ) ;
#269 = CARTESIAN_POINT ( 'NONE',  ( 6.607778419707325888E-14, -0.7250000000000036415, 29.80000000000000071 ) ) ;
#270 = FACE_OUTER_BOUND ( 'NONE', #150, .T. ) ;
#271 = LINE ( 'NONE', #272, #207 ) ;
#272 = CARTESIAN_POINT ( 'NONE',  ( 3.099977798275280933E-31, 0.7249999999999966471, 8.878689293818270138E-17 ) ) ;
#273 = DIRECTION ( 'NONE',  ( -3.491481338843133355E-15, 1.224646799147353207E-16, -1.000000000000000000 ) ) ;
#274 = APPROVAL_DATE_TIME ( #26, #306 ) ;
#275 = CC_DESIGN_APPROVAL ( #168, ( #238 ) ) ;
#276 = ORIENTED_EDGE ( 'NONE', *, *, #75, .T. ) ;
#277 = EDGE_CURVE ( 'NONE', #121, #257, #249, .T. ) ;
#278 = COORDINATED_UNIVERSAL_TIME_OFFSET ( 1, 0, .AHEAD. ) ;
#279 = VERTEX_POINT ( 'NONE', #269 ) ;
#280 = PRODUCT_RELATED_PRODUCT_CATEGORY ( 'detail', '', ( #229 ) ) ;
#281 = DATE_AND_TIME ( #47, #136 ) ;
#282 = EDGE_CURVE ( 'NONE', #248, #310, #38, .T. ) ;
#283 = PERSON_AND_ORGANIZATION ( #158, #316 ) ;
#284 = AXIS2_PLACEMENT_3D ( 'NONE', #167, #217, #323 ) ;
#285 = EDGE_LOOP ( 'NONE', ( #24, #30 ) ) ;
#286 = FACE_OUTER_BOUND ( 'NONE', #165, .T. ) ;
#287 = EDGE_LOOP ( 'NONE', ( #147, #213, #81, #305 ) ) ;
#288 = FACE_OUTER_BOUND ( 'NONE', #178, .T. ) ;
#289 = DIRECTION ( 'NONE',  ( -3.491481338843133355E-15, 1.224646799147353207E-16, -1.000000000000000000 ) ) ;
#290 = ADVANCED_FACE ( 'NONE', ( #44 ), #92, .T. ) ;
#291 = DIRECTION ( 'NONE',  ( -4.275831445896958607E-31, -1.000000000000000000, -1.224646799147353207E-16 ) ) ;
#292 = AXIS2_PLACEMENT_3D ( 'NONE', #11, #210, #111 ) ;
#293 = DIRECTION ( 'NONE',  ( -3.491481338843133355E-15, 1.224646799147353207E-16, -1.000000000000000000 ) ) ;
#294 = CC_DESIGN_PERSON_AND_ORGANIZATION_ASSIGNMENT ( #335, #180, ( #88 ) ) ;
#295 = DIRECTION ( 'NONE',  ( 0.0000000000000000000, 1.000000000000000000, 0.0000000000000000000 ) ) ;
#296 = DIRECTION ( 'NONE',  ( -3.491481338843133355E-15, 1.224646799147353207E-16, -1.000000000000000000 ) ) ;
#297 = ADVANCED_FACE ( 'NONE', ( #90 ), #303, .T. ) ;
#298 = AXIS2_PLACEMENT_3D ( 'NONE', #33, #82, #235 ) ;
#299 = CARTESIAN_POINT ( 'NONE',  ( 0.0000000000000000000, 0.0000000000000000000, 0.0000000000000000000 ) ) ;
#300 = CIRCLE ( 'NONE', #95, 0.7249999999999972022 ) ;
#301 = APPROVAL_DATE_TIME ( #201, #197 ) ;
#302 = EDGE_CURVE ( 'NONE', #257, #121, #311, .T. ) ;
#303 = CONICAL_SURFACE ( 'NONE', #330, 0.5250000000000000222, 0.7853981633974512766 ) ;
#304 = MECHANICAL_CONTEXT ( 'NONE', #40, 'mechanical' ) ;
#305 = ORIENTED_EDGE ( 'NONE', *, *, #191, .F. ) ;
#306 = APPROVAL ( #124, 'UNSPECIFIED' ) ;
#307 = APPROVAL_ROLE ( '' ) ;
#308 = ORIENTED_EDGE ( 'NONE', *, *, #164, .F. ) ;
#309 = PERSON_AND_ORGANIZATION ( #158, #316 ) ;
#310 = VERTEX_POINT ( 'NONE', #100 ) ;
#311 = CIRCLE ( 'NONE', #253, 0.7249999999999972022 ) ;
#312 = VERTEX_POINT ( 'NONE', #97 ) ;
#313 = CIRCLE ( 'NONE', #153, 0.5250000000000000222 ) ;
#314 = ORIENTED_EDGE ( 'NONE', *, *, #89, .T. ) ;
#315 = CARTESIAN_POINT ( 'NONE',  ( 1.040461438975253740E-13, -3.649447461459112464E-15, 29.80000000000000071 ) ) ;
#316 = ORGANIZATION ( 'UNSPECIFIED', 'UNSPECIFIED', '' ) ;
#317 = LINE ( 'NONE', #318, #244 ) ;
#318 = CARTESIAN_POINT ( 'NONE',  ( 1.520972887970842098E-15, -0.7249999999999963141, 0.4356239487949836731 ) ) ;
#319 = CYLINDRICAL_SURFACE ( 'NONE', #79, 0.7249999999999966471 ) ;
#320 = CC_DESIGN_PERSON_AND_ORGANIZATION_ASSIGNMENT ( #283, #223, ( #229 ) ) ;
#321 = DIRECTION ( 'NONE',  ( 4.275831445896958607E-31, 1.000000000000000000, 1.224646799147353207E-16 ) ) ;
#322 = CARTESIAN_POINT ( 'NONE',  ( 1.520972887970842492E-15, -5.334854745237073247E-17, 0.4356239487949837841 ) ) ;
#323 = DIRECTION ( 'NONE',  ( 0.0000000000000000000, 1.000000000000000000, 0.0000000000000000000 ) ) ;
#324 = EDGE_CURVE ( 'NONE', #184, #131, #332, .T. ) ;
#325 = FACE_OUTER_BOUND ( 'NONE', #208, .T. ) ;
#326 = DIRECTION ( 'NONE',  ( 3.491481338843133355E-15, -1.224646799147353207E-16, 1.000000000000000000 ) ) ;
#327 = AXIS2_PLACEMENT_3D ( 'NONE', #137, #241, #17 ) ;
#328 = CALENDAR_DATE ( 2021, 3, 9 ) ;
#329 = ORIENTED_EDGE ( 'NONE', *, *, #220, .T. ) ;
#330 = AXIS2_PLACEMENT_3D ( 'NONE', #67, #194, #139 ) ;
#331 = CC_DESIGN_SECURITY_CLASSIFICATION ( #238, ( #88 ) ) ;
#332 = LINE ( 'NONE', #250, #176 ) ;
#333 = AXIS2_PLACEMENT_3D ( 'NONE', #130, #289, #87 ) ;
#334 = ORIENTED_EDGE ( 'NONE', *, *, #78, .T. ) ;
#335 = PERSON_AND_ORGANIZATION ( #158, #316 ) ;
#336 = ORIENTED_EDGE ( 'NONE', *, *, #112, .T. ) ;
#337 = PERSON_AND_ORGANIZATION ( #158, #316 ) ;
ENDSEC;
END-ISO-10303-21;
