ISO-10303-21;
HEADER;
FILE_DESCRIPTION (( 'STEP AP203' ),
    '1' );
FILE_NAME ('54498.step',
    '2021-09-03T07:48:37',
    ( '' ),
    ( '' ),
    'SwSTEP 2.0',
    'SolidWorks 2019',
    '' );
FILE_SCHEMA (( 'CONFIG_CONTROL_DESIGN' ));
ENDSEC;

DATA;
#1 = CARTESIAN_POINT ( 'NONE',  ( 2.793185071074506684E-14, 0.6999999999999962919, 8.000000000000000000 ) ) ;
#2 = AXIS2_PLACEMENT_3D ( 'NONE', #62, #244, #86 ) ;
#3 = PERSON_AND_ORGANIZATION_ROLE ( 'design_supplier' ) ;
#4 = DIRECTION ( 'NONE',  ( 3.491481338843133355E-15, -1.224646799147353207E-16, 1.000000000000000000 ) ) ;
#5 = ADVANCED_FACE ( 'NONE', ( #36 ), #106, .F. ) ;
#6 = APPROVAL_DATE_TIME ( #292, #303 ) ;
#7 = ORIENTED_EDGE ( 'NONE', *, *, #184, .T. ) ;
#8 = DATE_AND_TIME ( #178, #187 ) ;
#9 = VERTEX_POINT ( 'NONE', #58 ) ;
#10 = VECTOR ( 'NONE', #301, 1000.000000000000000 ) ;
#11 = PERSON_AND_ORGANIZATION ( #295, #136 ) ;
#12 = ORIENTED_EDGE ( 'NONE', *, *, #74, .F. ) ;
#13 = PERSON_AND_ORGANIZATION ( #295, #136 ) ;
#14 = ORIENTED_EDGE ( 'NONE', *, *, #132, .T. ) ;
#15 = FACE_OUTER_BOUND ( 'NONE', #82, .T. ) ;
#16 = CARTESIAN_POINT ( 'NONE',  ( 1.047444401652940007E-13, 0.4999999999999963363, 30.00000000000000000 ) ) ;
#17 = DIRECTION ( 'NONE',  ( -2.468850131082257455E-15, 0.7071067811865497932, -0.7071067811865453523 ) ) ;
#18 = DIRECTION ( 'NONE',  ( 3.491481338843133355E-15, -1.224646799147353207E-16, 1.000000000000000000 ) ) ;
#19 = LINE ( 'NONE', #300, #10 ) ;
#20 = AXIS2_PLACEMENT_3D ( 'NONE', #143, #197, #97 ) ;
#21 = DIRECTION ( 'NONE',  ( 1.903218546456022717E-15, 0.8571673007021097801, 0.5150380749100585964 ) ) ;
#22 = CARTESIAN_POINT ( 'NONE',  ( 8.572527594031425119E-17, -0.6999999999999986233, -8.572527594031484283E-17 ) ) ;
#23 = CARTESIAN_POINT ( 'NONE',  ( 6.607472258007539744E-14, -0.7000000000000036193, 29.80000000000000071 ) ) ;
#24 = EDGE_CURVE ( 'NONE', #9, #177, #265, .T. ) ;
#25 = DIRECTION ( 'NONE',  ( 4.275831445896957731E-31, 1.000000000000000000, 1.224646799147353207E-16 ) ) ;
#26 = DIRECTION ( 'NONE',  ( -3.491481338843133355E-15, 1.224646799147353207E-16, -1.000000000000000000 ) ) ;
#27 = EDGE_LOOP ( 'NONE', ( #267, #100, #261, #151 ) ) ;
#28 = APPROVAL_PERSON_ORGANIZATION ( #181, #170, #233 ) ;
#29 = APPROVAL_DATE_TIME ( #185, #255 ) ;
#30 = ORIENTED_EDGE ( 'NONE', *, *, #138, .T. ) ;
#31 = ORIENTED_EDGE ( 'NONE', *, *, #90, .F. ) ;
#32 = VERTEX_POINT ( 'NONE', #238 ) ;
#33 = AXIS2_PLACEMENT_3D ( 'NONE', #328, #66, #67 ) ;
#34 = MANIFOLD_SOLID_BREP ( 'Corps-Déplacer/Copier1[2]', #252 ) ;
#35 = CARTESIAN_POINT ( 'NONE',  ( 2.993082012127864806E-31, 0.6999999999999986233, 8.572527594031455933E-17 ) ) ;
#36 = FACE_OUTER_BOUND ( 'NONE', #60, .T. ) ;
#37 = DIRECTION ( 'NONE',  ( -3.491481338843133355E-15, 1.224646799147353207E-16, -1.000000000000000000 ) ) ;
#38 = EDGE_CURVE ( 'NONE', #128, #32, #302, .T. ) ;
#39 = DIRECTION ( 'NONE',  ( -4.275831445896958607E-31, -1.000000000000000000, -1.224646799147353207E-16 ) ) ;
#40 = VECTOR ( 'NONE', #171, 1000.000000000000000 ) ;
#41 = DIRECTION ( 'NONE',  ( -5.502656983963560286E-31, -1.000000000000000000, -1.548860246407871718E-16 ) ) ;
#42 = EDGE_CURVE ( 'NONE', #177, #208, #145, .T. ) ;
#43 = DIRECTION ( 'NONE',  ( -3.491481338843133355E-15, 1.224646799147353207E-16, -1.000000000000000000 ) ) ;
#44 = DIRECTION ( 'NONE',  ( 3.491481338843133355E-15, -1.224646799147353207E-16, 1.000000000000000000 ) ) ;
#45 = APPROVAL_PERSON_ORGANIZATION ( #13, #255, #123 ) ;
#46 = PLANE ( 'NONE',  #160 ) ;
#47 = DIRECTION ( 'NONE',  ( 0.0000000000000000000, 0.0000000000000000000, 1.000000000000000000 ) ) ;
#48 = CONICAL_SURFACE ( 'NONE', #20, 0.6999999999999962919, 1.029744258676649649 ) ;
#49 = DIRECTION ( 'NONE',  ( -3.491481338843133355E-15, 1.224646799147353207E-16, -1.000000000000000000 ) ) ;
#50 = SHAPE_DEFINITION_REPRESENTATION ( #51, #257 ) ;
#51 = PRODUCT_DEFINITION_SHAPE ( 'NONE', 'NONE',  #283 ) ;
#52 = COORDINATED_UNIVERSAL_TIME_OFFSET ( 1, 0, .AHEAD. ) ;
#53 = ORIENTED_EDGE ( 'NONE', *, *, #323, .T. ) ;
#54 = AXIS2_PLACEMENT_3D ( 'NONE', #299, #192, #194 ) ;
#55 = CIRCLE ( 'NONE', #2, 0.6999999999999962919 ) ;
#56 = ORIENTED_EDGE ( 'NONE', *, *, #138, .F. ) ;
#57 = ORIENTED_EDGE ( 'NONE', *, *, #38, .F. ) ;
#58 = CARTESIAN_POINT ( 'NONE',  ( 1.040461438975253740E-13, 0.6999999999999962919, 29.80000000000000071 ) ) ;
#59 = PRODUCT_DEFINITION_FORMATION_WITH_SPECIFIED_SOURCE ( 'ANY', '', #256, .NOT_KNOWN. ) ;
#60 = EDGE_LOOP ( 'NONE', ( #149, #77 ) ) ;
#61 = CARTESIAN_POINT ( 'NONE',  ( 2.993082012127857800E-31, 0.6999999999999968470, 8.572527594031433747E-17 ) ) ;
#62 = CARTESIAN_POINT ( 'NONE',  ( 1.468525547006330485E-15, -5.150894236780622425E-17, 0.4206024333192946441 ) ) ;
#63 = AXIS2_PLACEMENT_3D ( 'NONE', #240, #89, #190 ) ;
#64 = CIRCLE ( 'NONE', #94, 0.5000000000000000000 ) ;
#65 = CARTESIAN_POINT ( 'NONE',  ( 1.047444401652940007E-13, -3.673940397442059178E-15, 30.00000000000000000 ) ) ;
#66 = DIRECTION ( 'NONE',  ( -3.491481338843133355E-15, 1.224646799147353207E-16, -1.000000000000000000 ) ) ;
#67 = DIRECTION ( 'NONE',  ( 0.0000000000000000000, 1.000000000000000000, 0.0000000000000000000 ) ) ;
#68 = AXIS2_PLACEMENT_3D ( 'NONE', #273, #44, #41 ) ;
#69 = CYLINDRICAL_SURFACE ( 'NONE', #312, 0.6999999999999986233 ) ;
#70 = ADVANCED_FACE ( 'NONE', ( #15 ), #282, .T. ) ;
#71 = FACE_OUTER_BOUND ( 'NONE', #293, .T. ) ;
#72 = CARTESIAN_POINT ( 'NONE',  ( 0.0000000000000000000, 0.0000000000000000000, 0.0000000000000000000 ) ) ;
#73 = VECTOR ( 'NONE', #17, 1000.000000000000114 ) ;
#74 = EDGE_CURVE ( 'NONE', #296, #128, #304, .T. ) ;
#75 = FACE_OUTER_BOUND ( 'NONE', #230, .T. ) ;
#76 = PERSON_AND_ORGANIZATION ( #295, #136 ) ;
#77 = ORIENTED_EDGE ( 'NONE', *, *, #245, .T. ) ;
#78 = PERSON_AND_ORGANIZATION_ROLE ( 'classification_officer' ) ;
#79 = VERTEX_POINT ( 'NONE', #16 ) ;
#80 = AXIS2_PLACEMENT_3D ( 'NONE', #183, #4, #179 ) ;
#81 = LOCAL_TIME ( 9, 48, 37.00000000000000000, #263 ) ;
#82 = EDGE_LOOP ( 'NONE', ( #102, #14, #30, #31 ) ) ;
#83 = ORIENTED_EDGE ( 'NONE', *, *, #294, .F. ) ;
#84 = COORDINATED_UNIVERSAL_TIME_OFFSET ( 1, 0, .AHEAD. ) ;
#85 = ORIENTED_EDGE ( 'NONE', *, *, #250, .F. ) ;
#86 = DIRECTION ( 'NONE',  ( 5.502656983963560286E-31, 1.000000000000000000, 1.548860246407871718E-16 ) ) ;
#87 = DIRECTION ( 'NONE',  ( 0.0000000000000000000, 1.000000000000000000, 0.0000000000000000000 ) ) ;
#88 = CARTESIAN_POINT ( 'NONE',  ( 6.607472258007551104E-14, -0.6999999999999982903, 8.000000000000000000 ) ) ;
#89 = DIRECTION ( 'NONE',  ( -3.491481338843133355E-15, 1.224646799147353207E-16, -1.000000000000000000 ) ) ;
#90 = EDGE_CURVE ( 'NONE', #315, #9, #191, .T. ) ;
#91 = CARTESIAN_POINT ( 'NONE',  ( 1.554250822946645168E-15, 0.6999999999999962919, 0.4206024333192947551 ) ) ;
#92 = EDGE_CURVE ( 'NONE', #122, #296, #212, .T. ) ;
#93 = DIRECTION ( 'NONE',  ( -3.491481338843133355E-15, 1.224646799147353207E-16, -1.000000000000000000 ) ) ;
#94 = AXIS2_PLACEMENT_3D ( 'NONE', #141, #43, #87 ) ;
#95 = LINE ( 'NONE', #22, #40 ) ;
#96 = CC_DESIGN_DATE_AND_TIME_ASSIGNMENT ( #260, #107, ( #283 ) ) ;
#97 = DIRECTION ( 'NONE',  ( -5.502656983963560286E-31, -1.000000000000000000, -1.548860246407871718E-16 ) ) ;
#98 = LOCAL_TIME ( 9, 48, 37.00000000000000000, #324 ) ;
#99 = SECURITY_CLASSIFICATION_LEVEL ( 'unclassified' ) ;
#100 = ORIENTED_EDGE ( 'NONE', *, *, #92, .T. ) ;
#101 = PERSON_AND_ORGANIZATION ( #295, #136 ) ;
#102 = ORIENTED_EDGE ( 'NONE', *, *, #323, .F. ) ;
#103 = EDGE_LOOP ( 'NONE', ( #85, #159 ) ) ;
#104 = CC_DESIGN_APPROVAL ( #255, ( #59 ) ) ;
#105 = PERSON_AND_ORGANIZATION ( #295, #136 ) ;
#106 = PLANE ( 'NONE',  #80 ) ;
#107 = DATE_TIME_ROLE ( 'creation_date' ) ;
#108 = ORIENTED_EDGE ( 'NONE', *, *, #329, .T. ) ;
#109 = CC_DESIGN_PERSON_AND_ORGANIZATION_ASSIGNMENT ( #105, #3, ( #59 ) ) ;
#110 = FACE_OUTER_BOUND ( 'NONE', #161, .T. ) ;
#111 = AXIS2_PLACEMENT_3D ( 'NONE', #281, #47, #146 ) ;
#112 = DIRECTION ( 'NONE',  ( 0.0000000000000000000, 1.000000000000000000, 0.0000000000000000000 ) ) ;
#113 = CARTESIAN_POINT ( 'NONE',  ( 0.0000000000000000000, 0.0000000000000000000, 0.0000000000000000000 ) ) ;
#114 = CYLINDRICAL_SURFACE ( 'NONE', #119, 0.6999999999999986233 ) ;
#115 = AXIS2_PLACEMENT_3D ( 'NONE', #331, #211, #239 ) ;
#116 = DIRECTION ( 'NONE',  ( 4.275831445896958607E-31, 1.000000000000000000, 1.224646799147353207E-16 ) ) ;
#117 = DIRECTION ( 'NONE',  ( -3.491481338843133355E-15, 1.224646799147353207E-16, -1.000000000000000000 ) ) ;
#118 = CLOSED_SHELL ( 'NONE', ( #126, #262, #5, #216, #70, #279 ) ) ;
#119 = AXIS2_PLACEMENT_3D ( 'NONE', #113, #214, #188 ) ;
#120 = DIRECTION ( 'NONE',  ( -3.491481338843133355E-15, 1.224646799147353207E-16, -1.000000000000000000 ) ) ;
#121 = DIRECTION ( 'NONE',  ( 4.275831445896958607E-31, 1.000000000000000000, 1.224646799147353207E-16 ) ) ;
#122 = VERTEX_POINT ( 'NONE', #332 ) ;
#123 = APPROVAL_ROLE ( '' ) ;
#124 = DATE_TIME_ROLE ( 'classification_date' ) ;
#125 = VERTEX_POINT ( 'NONE', #246 ) ;
#126 = ADVANCED_FACE ( 'NONE', ( #330 ), #147, .T. ) ;
#127 = CALENDAR_DATE ( 2021, 3, 9 ) ;
#128 = VERTEX_POINT ( 'NONE', #91 ) ;
#129 = APPLICATION_PROTOCOL_DEFINITION ( 'international standard', 'config_control_design', 1994, #289 ) ;
#130 = ORIENTED_EDGE ( 'NONE', *, *, #329, .F. ) ;
#131 = AXIS2_PLACEMENT_3D ( 'NONE', #189, #37, #305 ) ;
#132 = EDGE_CURVE ( 'NONE', #125, #79, #64, .T. ) ;
#133 = DIRECTION ( 'NONE',  ( -3.491481338843133355E-15, 1.224646799147353207E-16, -1.000000000000000000 ) ) ;
#134 = ORIENTED_EDGE ( 'NONE', *, *, #90, .T. ) ;
#135 = DIRECTION ( 'NONE',  ( -3.491481338843133355E-15, 1.224646799147353207E-16, -1.000000000000000000 ) ) ;
#136 = ORGANIZATION ( 'UNSPECIFIED', 'UNSPECIFIED', '' ) ;
#137 = DIRECTION ( 'NONE',  ( -3.491481338843133355E-15, 1.224646799147353207E-16, -1.000000000000000000 ) ) ;
#138 = EDGE_CURVE ( 'NONE', #79, #9, #139, .T. ) ;
#139 = LINE ( 'NONE', #242, #73 ) ;
#140 = MANIFOLD_SOLID_BREP ( 'Corps-Déplacer/Copier1[1]', #118 ) ;
#141 = CARTESIAN_POINT ( 'NONE',  ( 1.047444401652940007E-13, -3.673940397442059178E-15, 30.00000000000000000 ) ) ;
#142 = SECURITY_CLASSIFICATION ( '', '', #99 ) ;
#143 = CARTESIAN_POINT ( 'NONE',  ( 1.468525547006330485E-15, -5.150894236780622425E-17, 0.4206024333192946441 ) ) ;
#144 = FACE_OUTER_BOUND ( 'NONE', #182, .T. ) ;
#145 = CIRCLE ( 'NONE', #270, 0.6999999999999972911 ) ;
#146 = DIRECTION ( 'NONE',  ( 1.000000000000000000, 0.0000000000000000000, 0.0000000000000000000 ) ) ;
#147 = CONICAL_SURFACE ( 'NONE', #33, 0.5000000000000000000, 0.7853981633974512766 ) ;
#148 = DIRECTION ( 'NONE',  ( 1.798245827342160317E-15, -0.8571673007021098911, 0.5150380749100582634 ) ) ;
#149 = ORIENTED_EDGE ( 'NONE', *, *, #42, .T. ) ;
#150 = PERSON_AND_ORGANIZATION ( #295, #136 ) ;
#151 = ORIENTED_EDGE ( 'NONE', *, *, #184, .F. ) ;
#152 = EDGE_CURVE ( 'NONE', #122, #32, #19, .T. ) ;
#153 = CC_DESIGN_SECURITY_CLASSIFICATION ( #142, ( #59 ) ) ;
#154 = APPROVAL_STATUS ( 'not_yet_approved' ) ;
#155 = ORIENTED_EDGE ( 'NONE', *, *, #274, .F. ) ;
#156 = ORIENTED_EDGE ( 'NONE', *, *, #306, .F. ) ;
#157 = CC_DESIGN_PERSON_AND_ORGANIZATION_ASSIGNMENT ( #11, #316, ( #283 ) ) ;
#158 = CALENDAR_DATE ( 2021, 3, 9 ) ;
#159 = ORIENTED_EDGE ( 'NONE', *, *, #92, .F. ) ;
#160 = AXIS2_PLACEMENT_3D ( 'NONE', #221, #93, #278 ) ;
#161 = EDGE_LOOP ( 'NONE', ( #130, #134, #264, #259 ) ) ;
#162 = DIRECTION ( 'NONE',  ( -3.491481338843133355E-15, 1.224646799147353207E-16, -1.000000000000000000 ) ) ;
#163 = CARTESIAN_POINT ( 'NONE',  ( 0.0000000000000000000, 0.0000000000000000000, 0.0000000000000000000 ) ) ;
#164 = VECTOR ( 'NONE', #148, 1000.000000000000000 ) ;
#165 = DIRECTION ( 'NONE',  ( 0.0000000000000000000, 1.000000000000000000, 0.0000000000000000000 ) ) ;
#166 = DESIGN_CONTEXT ( 'detailed design', #289, 'design' ) ;
#167 = CARTESIAN_POINT ( 'NONE',  ( 2.793185071074506684E-14, 0.6999999999999962919, 8.000000000000000000 ) ) ;
#168 = FACE_OUTER_BOUND ( 'NONE', #103, .T. ) ;
#169 = AXIS2_PLACEMENT_3D ( 'NONE', #326, #253, #307 ) ;
#170 = APPROVAL ( #258, 'UNSPECIFIED' ) ;
#171 = DIRECTION ( 'NONE',  ( -3.491481338843133355E-15, 1.224646799147353207E-16, -1.000000000000000000 ) ) ;
#172 = CYLINDRICAL_SURFACE ( 'NONE', #247, 0.6999999999999968470 ) ;
#173 = CYLINDRICAL_SURFACE ( 'NONE', #335, 0.6999999999999968470 ) ;
#174 = CIRCLE ( 'NONE', #115, 0.6999999999999972911 ) ;
#175 = FACE_OUTER_BOUND ( 'NONE', #318, .T. ) ;
#176 = APPROVAL_ROLE ( '' ) ;
#177 = VERTEX_POINT ( 'NONE', #167 ) ;
#178 = CALENDAR_DATE ( 2021, 3, 9 ) ;
#179 = DIRECTION ( 'NONE',  ( -4.275831445896958607E-31, -1.000000000000000000, -1.224646799147353207E-16 ) ) ;
#180 = CIRCLE ( 'NONE', #266, 0.5000000000000000000 ) ;
#181 = PERSON_AND_ORGANIZATION ( #295, #136 ) ;
#182 = EDGE_LOOP ( 'NONE', ( #321, #108, #235, #286 ) ) ;
#183 = CARTESIAN_POINT ( 'NONE',  ( 2.793185071074506684E-14, 5.249159239316466732E-33, 8.000000000000000000 ) ) ;
#184 = EDGE_CURVE ( 'NONE', #32, #128, #55, .T. ) ;
#185 = DATE_AND_TIME ( #228, #98 ) ;
#186 = VERTEX_POINT ( 'NONE', #163 ) ;
#187 = LOCAL_TIME ( 9, 48, 37.00000000000000000, #229 ) ;
#188 = DIRECTION ( 'NONE',  ( 4.275831445896957731E-31, 1.000000000000000000, 1.224646799147353207E-16 ) ) ;
#189 = CARTESIAN_POINT ( 'NONE',  ( 1.040461438975253740E-13, -3.649447461459112464E-15, 29.80000000000000071 ) ) ;
#190 = DIRECTION ( 'NONE',  ( 0.0000000000000000000, 1.000000000000000000, 0.0000000000000000000 ) ) ;
#191 = CIRCLE ( 'NONE', #131, 0.6999999999999999556 ) ;
#192 = DIRECTION ( 'NONE',  ( -3.491481338843133355E-15, 1.224646799147353207E-16, -1.000000000000000000 ) ) ;
#193 = CC_DESIGN_PERSON_AND_ORGANIZATION_ASSIGNMENT ( #76, #201, ( #256 ) ) ;
#194 = DIRECTION ( 'NONE',  ( 5.502656983963560286E-31, 1.000000000000000000, 1.548860246407871718E-16 ) ) ;
#195 = VECTOR ( 'NONE', #133, 1000.000000000000000 ) ;
#196 = AXIS2_PLACEMENT_3D ( 'NONE', #275, #18, #39 ) ;
#197 = DIRECTION ( 'NONE',  ( 3.491481338843133355E-15, -1.224646799147353207E-16, 1.000000000000000000 ) ) ;
#198 =( NAMED_UNIT ( * ) PLANE_ANGLE_UNIT ( ) SI_UNIT ( $, .RADIAN. ) );
#199 = CARTESIAN_POINT ( 'NONE',  ( 1.040461438975253740E-13, -3.649447461459112464E-15, 29.80000000000000071 ) ) ;
#200 = VECTOR ( 'NONE', #280, 1000.000000000000114 ) ;
#201 = PERSON_AND_ORGANIZATION_ROLE ( 'design_owner' ) ;
#202 = EDGE_LOOP ( 'NONE', ( #226, #53, #83, #56 ) ) ;
#203 = PERSON_AND_ORGANIZATION_ROLE ( 'creator' ) ;
#204 = ORIENTED_EDGE ( 'NONE', *, *, #152, .T. ) ;
#205 = VECTOR ( 'NONE', #135, 1000.000000000000000 ) ;
#206 = ORIENTED_EDGE ( 'NONE', *, *, #250, .T. ) ;
#207 = APPROVAL_DATE_TIME ( #8, #170 ) ;
#208 = VERTEX_POINT ( 'NONE', #88 ) ;
#209 = ADVANCED_FACE ( 'NONE', ( #168 ), #269, .T. ) ;
#210 = ORIENTED_EDGE ( 'NONE', *, *, #306, .T. ) ;
#211 = DIRECTION ( 'NONE',  ( -3.491481338843133355E-15, 1.224646799147353207E-16, -1.000000000000000000 ) ) ;
#212 = CIRCLE ( 'NONE', #218, 0.6999999999999972911 ) ;
#213 = DIRECTION ( 'NONE',  ( 0.0000000000000000000, 1.000000000000000000, 0.0000000000000000000 ) ) ;
#214 = DIRECTION ( 'NONE',  ( -3.491481338843133355E-15, 1.224646799147353207E-16, -1.000000000000000000 ) ) ;
#215 = FACE_OUTER_BOUND ( 'NONE', #325, .T. ) ;
#216 = ADVANCED_FACE ( 'NONE', ( #110 ), #114, .T. ) ;
#217 = UNCERTAINTY_MEASURE_WITH_UNIT (LENGTH_MEASURE( 1.000000000000000082E-05 ), #284, 'distance_accuracy_value', 'NONE');
#218 = AXIS2_PLACEMENT_3D ( 'NONE', #219, #162, #112 ) ;
#219 = CARTESIAN_POINT ( 'NONE',  ( 2.793185071074506684E-14, -9.797174393178825657E-16, 8.000000000000000000 ) ) ;
#220 = CC_DESIGN_DATE_AND_TIME_ASSIGNMENT ( #320, #124, ( #142 ) ) ;
#221 = CARTESIAN_POINT ( 'NONE',  ( 1.047444401652940007E-13, 3.749399456654588597E-33, 30.00000000000000000 ) ) ;
#222 = EDGE_CURVE ( 'NONE', #79, #125, #180, .T. ) ;
#223 = CIRCLE ( 'NONE', #327, 0.6999999999999999556 ) ;
#224 = CARTESIAN_POINT ( 'NONE',  ( 1.468525547006330091E-15, -0.6999999999999962919, 0.4206024333192945330 ) ) ;
#225 = LINE ( 'NONE', #251, #277 ) ;
#226 = ORIENTED_EDGE ( 'NONE', *, *, #222, .T. ) ;
#227 = CC_DESIGN_PERSON_AND_ORGANIZATION_ASSIGNMENT ( #101, #203, ( #59 ) ) ;
#228 = CALENDAR_DATE ( 2021, 3, 9 ) ;
#229 = COORDINATED_UNIVERSAL_TIME_OFFSET ( 1, 0, .AHEAD. ) ;
#230 = EDGE_LOOP ( 'NONE', ( #206, #204, #57, #12 ) ) ;
#231 = APPROVAL_STATUS ( 'not_yet_approved' ) ;
#232 = ORIENTED_EDGE ( 'NONE', *, *, #274, .T. ) ;
#233 = APPROVAL_ROLE ( '' ) ;
#234 = ADVANCED_FACE ( 'NONE', ( #215 ), #241, .T. ) ;
#235 = ORIENTED_EDGE ( 'NONE', *, *, #42, .F. ) ;
#236 =( GEOMETRIC_REPRESENTATION_CONTEXT ( 3 ) GLOBAL_UNCERTAINTY_ASSIGNED_CONTEXT ( ( #217 ) ) GLOBAL_UNIT_ASSIGNED_CONTEXT ( ( #284, #198, #336 ) ) REPRESENTATION_CONTEXT ( 'NONE', 'WORKASPACE' ) );
#237 = CALENDAR_DATE ( 2021, 3, 9 ) ;
#238 = CARTESIAN_POINT ( 'NONE',  ( 1.468525547006330091E-15, -0.6999999999999962919, 0.4206024333192945330 ) ) ;
#239 = DIRECTION ( 'NONE',  ( 0.0000000000000000000, 1.000000000000000000, 0.0000000000000000000 ) ) ;
#240 = CARTESIAN_POINT ( 'NONE',  ( 1.047444401652940007E-13, -3.673940397442059178E-15, 30.00000000000000000 ) ) ;
#241 = CONICAL_SURFACE ( 'NONE', #68, 0.6999999999999962919, 1.029744258676649649 ) ;
#242 = CARTESIAN_POINT ( 'NONE',  ( 1.047444401652940007E-13, 0.4999999999999963363, 30.00000000000000000 ) ) ;
#243 = APPLICATION_CONTEXT ( 'configuration controlled 3d designs of mechanical parts and assemblies' ) ;
#244 = DIRECTION ( 'NONE',  ( -3.491481338843133355E-15, 1.224646799147353207E-16, -1.000000000000000000 ) ) ;
#245 = EDGE_CURVE ( 'NONE', #208, #177, #174, .T. ) ;
#246 = CARTESIAN_POINT ( 'NONE',  ( 1.044687708393585322E-13, -0.5000000000000036637, 30.00000000000000000 ) ) ;
#247 = AXIS2_PLACEMENT_3D ( 'NONE', #313, #26, #121 ) ;
#248 = LINE ( 'NONE', #224, #164 ) ;
#249 = APPLICATION_PROTOCOL_DEFINITION ( 'international standard', 'config_control_design', 1994, #243 ) ;
#250 = EDGE_CURVE ( 'NONE', #296, #122, #287, .T. ) ;
#251 = CARTESIAN_POINT ( 'NONE',  ( 1.554250822946645168E-15, 0.6999999999999962919, 0.4206024333192947551 ) ) ;
#252 = CLOSED_SHELL ( 'NONE', ( #317, #290, #234, #311, #209 ) ) ;
#253 = DIRECTION ( 'NONE',  ( -3.491481338843133355E-15, 1.224646799147353207E-16, -1.000000000000000000 ) ) ;
#254 = FACE_OUTER_BOUND ( 'NONE', #27, .T. ) ;
#255 = APPROVAL ( #231, 'UNSPECIFIED' ) ;
#256 = PRODUCT ( '54498', '54498', '', ( #285 ) ) ;
#257 = ADVANCED_BREP_SHAPE_REPRESENTATION ( '54498', ( #140, #34, #111 ), #236 ) ;
#258 = APPROVAL_STATUS ( 'not_yet_approved' ) ;
#259 = ORIENTED_EDGE ( 'NONE', *, *, #245, .F. ) ;
#260 = DATE_AND_TIME ( #127, #297 ) ;
#261 = ORIENTED_EDGE ( 'NONE', *, *, #74, .T. ) ;
#262 = ADVANCED_FACE ( 'NONE', ( #144 ), #69, .T. ) ;
#263 = COORDINATED_UNIVERSAL_TIME_OFFSET ( 1, 0, .AHEAD. ) ;
#264 = ORIENTED_EDGE ( 'NONE', *, *, #24, .T. ) ;
#265 = LINE ( 'NONE', #35, #195 ) ;
#266 = AXIS2_PLACEMENT_3D ( 'NONE', #65, #276, #165 ) ;
#267 = ORIENTED_EDGE ( 'NONE', *, *, #152, .F. ) ;
#268 = CARTESIAN_POINT ( 'NONE',  ( 2.793185071074506684E-14, -9.797174393178825657E-16, 8.000000000000000000 ) ) ;
#269 = PLANE ( 'NONE',  #196 ) ;
#270 = AXIS2_PLACEMENT_3D ( 'NONE', #268, #137, #213 ) ;
#271 = LOCAL_TIME ( 9, 48, 37.00000000000000000, #84 ) ;
#272 = APPROVAL_PERSON_ORGANIZATION ( #314, #303, #176 ) ;
#273 = CARTESIAN_POINT ( 'NONE',  ( 1.468525547006330485E-15, -5.150894236780622425E-17, 0.4206024333192946441 ) ) ;
#274 = EDGE_CURVE ( 'NONE', #186, #128, #225, .T. ) ;
#275 = CARTESIAN_POINT ( 'NONE',  ( 2.793185071074506684E-14, 5.249159239316466732E-33, 8.000000000000000000 ) ) ;
#276 = DIRECTION ( 'NONE',  ( -3.491481338843133355E-15, 1.224646799147353207E-16, -1.000000000000000000 ) ) ;
#277 = VECTOR ( 'NONE', #21, 999.9999999999998863 ) ;
#278 = DIRECTION ( 'NONE',  ( 4.275831445896958607E-31, 1.000000000000000000, 1.224646799147353207E-16 ) ) ;
#279 = ADVANCED_FACE ( 'NONE', ( #71 ), #46, .F. ) ;
#280 = DIRECTION ( 'NONE',  ( -2.382254525458708792E-15, -0.7071067811865495711, -0.7071067811865455743 ) ) ;
#281 = CARTESIAN_POINT ( 'NONE',  ( 0.0000000000000000000, 0.0000000000000000000, 0.0000000000000000000 ) ) ;
#282 = CONICAL_SURFACE ( 'NONE', #63, 0.5000000000000000000, 0.7853981633974512766 ) ;
#283 = PRODUCT_DEFINITION ( 'UNKNOWN', '', #59, #166 ) ;
#284 =( LENGTH_UNIT ( ) NAMED_UNIT ( * ) SI_UNIT ( .MILLI., .METRE. ) );
#285 = MECHANICAL_CONTEXT ( 'NONE', #243, 'mechanical' ) ;
#286 = ORIENTED_EDGE ( 'NONE', *, *, #24, .F. ) ;
#287 = CIRCLE ( 'NONE', #169, 0.6999999999999972911 ) ;
#288 = ORIENTED_EDGE ( 'NONE', *, *, #222, .F. ) ;
#289 = APPLICATION_CONTEXT ( 'configuration controlled 3d designs of mechanical parts and assemblies' ) ;
#290 = ADVANCED_FACE ( 'NONE', ( #175 ), #48, .T. ) ;
#291 = ORIENTED_EDGE ( 'NONE', *, *, #132, .F. ) ;
#292 = DATE_AND_TIME ( #237, #81 ) ;
#293 = EDGE_LOOP ( 'NONE', ( #288, #291 ) ) ;
#294 = EDGE_CURVE ( 'NONE', #9, #315, #223, .T. ) ;
#295 = PERSON ( 'UNSPECIFIED', 'UNSPECIFIED', 'UNSPECIFIED', ('UNSPECIFIED'), ('UNSPECIFIED'), ('UNSPECIFIED') ) ;
#296 = VERTEX_POINT ( 'NONE', #1 ) ;
#297 = LOCAL_TIME ( 9, 48, 37.00000000000000000, #52 ) ;
#298 = CC_DESIGN_PERSON_AND_ORGANIZATION_ASSIGNMENT ( #150, #78, ( #142 ) ) ;
#299 = CARTESIAN_POINT ( 'NONE',  ( 1.468525547006330485E-15, -5.150894236780622425E-17, 0.4206024333192946441 ) ) ;
#300 = CARTESIAN_POINT ( 'NONE',  ( 8.572527594031405397E-17, -0.6999999999999968470, -8.572527594031462096E-17 ) ) ;
#301 = DIRECTION ( 'NONE',  ( -3.491481338843133355E-15, 1.224646799147353207E-16, -1.000000000000000000 ) ) ;
#302 = CIRCLE ( 'NONE', #54, 0.6999999999999962919 ) ;
#303 = APPROVAL ( #154, 'UNSPECIFIED' ) ;
#304 = LINE ( 'NONE', #61, #205 ) ;
#305 = DIRECTION ( 'NONE',  ( 0.0000000000000000000, 1.000000000000000000, 0.0000000000000000000 ) ) ;
#306 = EDGE_CURVE ( 'NONE', #186, #32, #248, .T. ) ;
#307 = DIRECTION ( 'NONE',  ( 0.0000000000000000000, 1.000000000000000000, 0.0000000000000000000 ) ) ;
#308 = CC_DESIGN_APPROVAL ( #303, ( #283 ) ) ;
#309 = LINE ( 'NONE', #337, #200 ) ;
#310 = DIRECTION ( 'NONE',  ( 0.0000000000000000000, 1.000000000000000000, 0.0000000000000000000 ) ) ;
#311 = ADVANCED_FACE ( 'NONE', ( #254 ), #172, .T. ) ;
#312 = AXIS2_PLACEMENT_3D ( 'NONE', #72, #117, #25 ) ;
#313 = CARTESIAN_POINT ( 'NONE',  ( 0.0000000000000000000, 0.0000000000000000000, 0.0000000000000000000 ) ) ;
#314 = PERSON_AND_ORGANIZATION ( #295, #136 ) ;
#315 = VERTEX_POINT ( 'NONE', #23 ) ;
#316 = PERSON_AND_ORGANIZATION_ROLE ( 'creator' ) ;
#317 = ADVANCED_FACE ( 'NONE', ( #75 ), #173, .T. ) ;
#318 = EDGE_LOOP ( 'NONE', ( #156, #232, #322 ) ) ;
#319 = CC_DESIGN_APPROVAL ( #170, ( #142 ) ) ;
#320 = DATE_AND_TIME ( #158, #271 ) ;
#321 = ORIENTED_EDGE ( 'NONE', *, *, #294, .T. ) ;
#322 = ORIENTED_EDGE ( 'NONE', *, *, #38, .T. ) ;
#323 = EDGE_CURVE ( 'NONE', #125, #315, #309, .T. ) ;
#324 = COORDINATED_UNIVERSAL_TIME_OFFSET ( 1, 0, .AHEAD. ) ;
#325 = EDGE_LOOP ( 'NONE', ( #155, #210, #7 ) ) ;
#326 = CARTESIAN_POINT ( 'NONE',  ( 2.793185071074506684E-14, -9.797174393178825657E-16, 8.000000000000000000 ) ) ;
#327 = AXIS2_PLACEMENT_3D ( 'NONE', #199, #49, #310 ) ;
#328 = CARTESIAN_POINT ( 'NONE',  ( 1.047444401652940007E-13, -3.673940397442059178E-15, 30.00000000000000000 ) ) ;
#329 = EDGE_CURVE ( 'NONE', #315, #208, #95, .T. ) ;
#330 = FACE_OUTER_BOUND ( 'NONE', #202, .T. ) ;
#331 = CARTESIAN_POINT ( 'NONE',  ( 2.793185071074506684E-14, -9.797174393178825657E-16, 8.000000000000000000 ) ) ;
#332 = CARTESIAN_POINT ( 'NONE',  ( 1.478591340481599254E-14, -0.6999999999999982903, 8.000000000000000000 ) ) ;
#333 = PRODUCT_RELATED_PRODUCT_CATEGORY ( 'detail', '', ( #256 ) ) ;
#334 = CARTESIAN_POINT ( 'NONE',  ( 0.0000000000000000000, 0.0000000000000000000, 0.0000000000000000000 ) ) ;
#335 = AXIS2_PLACEMENT_3D ( 'NONE', #334, #120, #116 ) ;
#336 =( NAMED_UNIT ( * ) SI_UNIT ( $, .STERADIAN. ) SOLID_ANGLE_UNIT ( ) );
#337 = CARTESIAN_POINT ( 'NONE',  ( 1.048056725052513556E-13, -0.5000000000000036637, 30.00000000000000000 ) ) ;
ENDSEC;
END-ISO-10303-21;
