ISO-10303-21;
HEADER;
FILE_DESCRIPTION (( 'STEP AP203' ),
    '1' );
FILE_NAME ('54497.step',
    '2021-09-03T07:48:35',
    ( '' ),
    ( '' ),
    'SwSTEP 2.0',
    'SolidWorks 2019',
    '' );
FILE_SCHEMA (( 'CONFIG_CONTROL_DESIGN' ));
ENDSEC;

DATA;
#1 = CALENDAR_DATE ( 2021, 3, 9 ) ;
#2 = CARTESIAN_POINT ( 'NONE',  ( 1.040461438975253740E-13, -3.649447461459112464E-15, 29.80000000000000071 ) ) ;
#3 = VECTOR ( 'NONE', #104, 1000.000000000000114 ) ;
#4 = DIRECTION ( 'NONE',  ( 0.0000000000000000000, 1.000000000000000000, 0.0000000000000000000 ) ) ;
#5 = EDGE_CURVE ( 'NONE', #222, #138, #282, .T. ) ;
#6 = CARTESIAN_POINT ( 'NONE',  ( 1.048026108882534942E-13, -0.4750000000000037526, 30.00000000000000000 ) ) ;
#7 = CARTESIAN_POINT ( 'NONE',  ( 1.416078206041818478E-15, -4.966933728324170369E-17, 0.4055809178436054485 ) ) ;
#8 = CIRCLE ( 'NONE', #11, 0.6749999999999963807 ) ;
#9 = PRODUCT_DEFINITION_SHAPE ( 'NONE', 'NONE',  #19 ) ;
#10 = MANIFOLD_SOLID_BREP ( 'Corps-Déplacer/Copier1[1]', #121 ) ;
#11 = AXIS2_PLACEMENT_3D ( 'NONE', #7, #217, #197 ) ;
#12 = ORIENTED_EDGE ( 'NONE', *, *, #280, .F. ) ;
#13 = AXIS2_PLACEMENT_3D ( 'NONE', #180, #290, #52 ) ;
#14 = ORIENTED_EDGE ( 'NONE', *, *, #68, .F. ) ;
#15 = EDGE_LOOP ( 'NONE', ( #14, #193, #140, #111 ) ) ;
#16 = COORDINATED_UNIVERSAL_TIME_OFFSET ( 1, 0, .AHEAD. ) ;
#17 = ORIENTED_EDGE ( 'NONE', *, *, #218, .T. ) ;
#18 = ORIENTED_EDGE ( 'NONE', *, *, #137, .T. ) ;
#19 = PRODUCT_DEFINITION ( 'UNKNOWN', '', #139, #92 ) ;
#20 = DIRECTION ( 'NONE',  ( -3.491481338843133355E-15, 1.224646799147353207E-16, -1.000000000000000000 ) ) ;
#21 = PERSON_AND_ORGANIZATION ( #186, #192 ) ;
#22 = FACE_OUTER_BOUND ( 'NONE', #57, .T. ) ;
#23 = DATE_TIME_ROLE ( 'creation_date' ) ;
#24 = ADVANCED_FACE ( 'NONE', ( #224 ), #42, .F. ) ;
#25 = CARTESIAN_POINT ( 'NONE',  ( 1.047444401652940007E-13, 0.4749999999999963696, 30.00000000000000000 ) ) ;
#26 = AXIS2_PLACEMENT_3D ( 'NONE', #234, #237, #267 ) ;
#27 = FACE_OUTER_BOUND ( 'NONE', #219, .T. ) ;
#28 = LINE ( 'NONE', #25, #3 ) ;
#29 = DIRECTION ( 'NONE',  ( -3.491481338843133355E-15, 1.224646799147353207E-16, -1.000000000000000000 ) ) ;
#30 = VECTOR ( 'NONE', #242, 1000.000000000000114 ) ;
#31 = EDGE_LOOP ( 'NONE', ( #37, #63 ) ) ;
#32 = ORIENTED_EDGE ( 'NONE', *, *, #276, .T. ) ;
#33 = CC_DESIGN_PERSON_AND_ORGANIZATION_ASSIGNMENT ( #21, #229, ( #322 ) ) ;
#34 = AXIS2_PLACEMENT_3D ( 'NONE', #291, #158, #313 ) ;
#35 = ORIENTED_EDGE ( 'NONE', *, *, #155, .T. ) ;
#36 =( NAMED_UNIT ( * ) PLANE_ANGLE_UNIT ( ) SI_UNIT ( $, .RADIAN. ) );
#37 = ORIENTED_EDGE ( 'NONE', *, *, #280, .T. ) ;
#38 = APPROVAL ( #263, 'UNSPECIFIED' ) ;
#39 = DIRECTION ( 'NONE',  ( -2.853229547240364820E-31, -1.000000000000000000, -1.606225440719274502E-16 ) ) ;
#40 = AXIS2_PLACEMENT_3D ( 'NONE', #102, #54, #4 ) ;
#41 = CC_DESIGN_SECURITY_CLASSIFICATION ( #322, ( #139 ) ) ;
#42 = PLANE ( 'NONE',  #257 ) ;
#43 = APPROVAL_ROLE ( '' ) ;
#44 = LINE ( 'NONE', #148, #251 ) ;
#45 = CYLINDRICAL_SURFACE ( 'NONE', #308, 0.6749999999999968248 ) ;
#46 = CIRCLE ( 'NONE', #330, 0.6749999999999973799 ) ;
#47 = CARTESIAN_POINT ( 'NONE',  ( 0.0000000000000000000, 0.0000000000000000000, 0.0000000000000000000 ) ) ;
#48 =( LENGTH_UNIT ( ) NAMED_UNIT ( * ) SI_UNIT ( .MILLI., .METRE. ) );
#49 = DATE_AND_TIME ( #128, #273 ) ;
#50 = DIRECTION ( 'NONE',  ( -3.491481338843133355E-15, 1.224646799147353207E-16, -1.000000000000000000 ) ) ;
#51 = APPROVAL_DATE_TIME ( #312, #38 ) ;
#52 = DIRECTION ( 'NONE',  ( 0.0000000000000000000, 1.000000000000000000, 0.0000000000000000000 ) ) ;
#53 = DIRECTION ( 'NONE',  ( 3.491481338843133355E-15, -1.224646799147353207E-16, 1.000000000000000000 ) ) ;
#54 = DIRECTION ( 'NONE',  ( -3.491481338843133355E-15, 1.224646799147353207E-16, -1.000000000000000000 ) ) ;
#55 = DIRECTION ( 'NONE',  ( -3.491481338843133355E-15, 1.224646799147353207E-16, -1.000000000000000000 ) ) ;
#56 = ORIENTED_EDGE ( 'NONE', *, *, #301, .T. ) ;
#57 = EDGE_LOOP ( 'NONE', ( #59, #18, #113, #275 ) ) ;
#58 = ADVANCED_FACE ( 'NONE', ( #143 ), #202, .T. ) ;
#59 = ORIENTED_EDGE ( 'NONE', *, *, #297, .T. ) ;
#60 = VECTOR ( 'NONE', #230, 1000.000000000000000 ) ;
#61 = CIRCLE ( 'NONE', #34, 0.6749999999999973799 ) ;
#62 = LINE ( 'NONE', #277, #151 ) ;
#63 = ORIENTED_EDGE ( 'NONE', *, *, #288, .T. ) ;
#64 = DIRECTION ( 'NONE',  ( 4.275831445896958607E-31, 1.000000000000000000, 1.224646799147353207E-16 ) ) ;
#65 = CIRCLE ( 'NONE', #265, 0.6750000000000000444 ) ;
#66 = CALENDAR_DATE ( 2021, 3, 9 ) ;
#67 = DIRECTION ( 'NONE',  ( 0.0000000000000000000, 1.000000000000000000, 0.0000000000000000000 ) ) ;
#68 = EDGE_CURVE ( 'NONE', #70, #302, #62, .T. ) ;
#69 = DIRECTION ( 'NONE',  ( 0.0000000000000000000, 0.0000000000000000000, 1.000000000000000000 ) ) ;
#70 = VERTEX_POINT ( 'NONE', #256 ) ;
#71 = SECURITY_CLASSIFICATION_LEVEL ( 'unclassified' ) ;
#72 = CARTESIAN_POINT ( 'NONE',  ( 1.047444401652940007E-13, 0.4749999999999963696, 30.00000000000000000 ) ) ;
#73 = COORDINATED_UNIVERSAL_TIME_OFFSET ( 1, 0, .AHEAD. ) ;
#74 = CARTESIAN_POINT ( 'NONE',  ( 1.498741864984264624E-15, 0.6749999999999963807, 0.4055809178436055595 ) ) ;
#75 = ADVANCED_FACE ( 'NONE', ( #90 ), #200, .T. ) ;
#76 = APPROVAL_DATE_TIME ( #285, #260 ) ;
#77 = CARTESIAN_POINT ( 'NONE',  ( 1.416078206041818478E-15, -4.966933728324170369E-17, 0.4055809178436054485 ) ) ;
#78 = DIRECTION ( 'NONE',  ( -3.491481338843133355E-15, 1.224646799147353207E-16, -1.000000000000000000 ) ) ;
#79 = LINE ( 'NONE', #6, #30 ) ;
#80 = APPROVAL_PERSON_ORGANIZATION ( #119, #223, #43 ) ;
#81 = ADVANCED_FACE ( 'NONE', ( #173 ), #181, .T. ) ;
#82 = FACE_OUTER_BOUND ( 'NONE', #15, .T. ) ;
#83 = DIRECTION ( 'NONE',  ( -3.491481338843133355E-15, 1.224646799147353207E-16, -1.000000000000000000 ) ) ;
#84 = ORIENTED_EDGE ( 'NONE', *, *, #137, .F. ) ;
#85 = EDGE_CURVE ( 'NONE', #115, #278, #244, .T. ) ;
#86 = AXIS2_PLACEMENT_3D ( 'NONE', #132, #318, #162 ) ;
#87 = VERTEX_POINT ( 'NONE', #178 ) ;
#88 = CONICAL_SURFACE ( 'NONE', #335, 0.6749999999999963807, 1.029744258676649649 ) ;
#89 = EDGE_CURVE ( 'NONE', #195, #87, #44, .T. ) ;
#90 = FACE_OUTER_BOUND ( 'NONE', #246, .T. ) ;
#91 = DIRECTION ( 'NONE',  ( -3.491481338843133355E-15, 1.224646799147353207E-16, -1.000000000000000000 ) ) ;
#92 = DESIGN_CONTEXT ( 'detailed design', #286, 'design' ) ;
#93 = APPROVAL_STATUS ( 'not_yet_approved' ) ;
#94 = DIRECTION ( 'NONE',  ( 3.491481338843133355E-15, -1.224646799147353207E-16, 1.000000000000000000 ) ) ;
#95 = CC_DESIGN_PERSON_AND_ORGANIZATION_ASSIGNMENT ( #177, #283, ( #19 ) ) ;
#96 = APPROVAL_PERSON_ORGANIZATION ( #289, #38, #205 ) ;
#97 = ORIENTED_EDGE ( 'NONE', *, *, #114, .F. ) ;
#98 = CALENDAR_DATE ( 2021, 3, 9 ) ;
#99 = DIRECTION ( 'NONE',  ( -4.275831445896958607E-31, -1.000000000000000000, -1.224646799147353207E-16 ) ) ;
#100 = PERSON_AND_ORGANIZATION ( #186, #192 ) ;
#101 = ADVANCED_FACE ( 'NONE', ( #176 ), #45, .T. ) ;
#102 = CARTESIAN_POINT ( 'NONE',  ( 1.047444401652940007E-13, -3.673940397442059178E-15, 30.00000000000000000 ) ) ;
#103 = PERSON_AND_ORGANIZATION_ROLE ( 'design_supplier' ) ;
#104 = DIRECTION ( 'NONE',  ( -2.468850131082257455E-15, 0.7071067811865497932, -0.7071067811865453523 ) ) ;
#105 = CARTESIAN_POINT ( 'NONE',  ( 2.793185071074506684E-14, -9.797174393178825657E-16, 8.000000000000000000 ) ) ;
#106 = DIRECTION ( 'NONE',  ( -2.853229547240364820E-31, -1.000000000000000000, -1.606225440719274502E-16 ) ) ;
#107 = CARTESIAN_POINT ( 'NONE',  ( 1.498741864984264624E-15, 0.6749999999999963807, 0.4055809178436055595 ) ) ;
#108 = AXIS2_PLACEMENT_3D ( 'NONE', #295, #55, #163 ) ;
#109 = CC_DESIGN_PERSON_AND_ORGANIZATION_ASSIGNMENT ( #100, #103, ( #139 ) ) ;
#110 = ORIENTED_EDGE ( 'NONE', *, *, #85, .F. ) ;
#111 = ORIENTED_EDGE ( 'NONE', *, *, #324, .F. ) ;
#112 = ORIENTED_EDGE ( 'NONE', *, *, #288, .F. ) ;
#113 = ORIENTED_EDGE ( 'NONE', *, *, #218, .F. ) ;
#114 = EDGE_CURVE ( 'NONE', #164, #302, #125, .T. ) ;
#115 = VERTEX_POINT ( 'NONE', #262 ) ;
#116 = CIRCLE ( 'NONE', #166, 0.6750000000000000444 ) ;
#117 = EDGE_LOOP ( 'NONE', ( #221, #168, #56, #112 ) ) ;
#118 = CARTESIAN_POINT ( 'NONE',  ( 0.0000000000000000000, 0.0000000000000000000, 0.0000000000000000000 ) ) ;
#119 = PERSON_AND_ORGANIZATION ( #186, #192 ) ;
#120 = EDGE_LOOP ( 'NONE', ( #309, #110 ) ) ;
#121 = CLOSED_SHELL ( 'NONE', ( #212, #75, #159, #58, #249, #24 ) ) ;
#122 = VECTOR ( 'NONE', #29, 1000.000000000000000 ) ;
#123 = APPLICATION_PROTOCOL_DEFINITION ( 'international standard', 'config_control_design', 1994, #286 ) ;
#124 = CARTESIAN_POINT ( 'NONE',  ( 0.0000000000000000000, 0.0000000000000000000, 0.0000000000000000000 ) ) ;
#125 = LINE ( 'NONE', #241, #271 ) ;
#126 = DATE_AND_TIME ( #98, #326 ) ;
#127 = DIRECTION ( 'NONE',  ( 0.0000000000000000000, 1.000000000000000000, 0.0000000000000000000 ) ) ;
#128 = CALENDAR_DATE ( 2021, 3, 9 ) ;
#129 = LOCAL_TIME ( 9, 48, 35.00000000000000000, #306 ) ;
#130 = CARTESIAN_POINT ( 'NONE',  ( 2.793185071074506684E-14, 5.061689266483735215E-33, 8.000000000000000000 ) ) ;
#131 = CARTESIAN_POINT ( 'NONE',  ( 2.793185071074506684E-14, -9.797174393178825657E-16, 8.000000000000000000 ) ) ;
#132 = CARTESIAN_POINT ( 'NONE',  ( 2.793185071074506684E-14, -9.797174393178825657E-16, 8.000000000000000000 ) ) ;
#133 = DIRECTION ( 'NONE',  ( -3.491481338843133355E-15, 1.224646799147353207E-16, -1.000000000000000000 ) ) ;
#134 = LINE ( 'NONE', #107, #209 ) ;
#135 = AXIS2_PLACEMENT_3D ( 'NONE', #105, #78, #183 ) ;
#136 = EDGE_LOOP ( 'NONE', ( #245, #198, #270, #272 ) ) ;
#137 = EDGE_CURVE ( 'NONE', #115, #195, #79, .T. ) ;
#138 = VERTEX_POINT ( 'NONE', #74 ) ;
#139 = PRODUCT_DEFINITION_FORMATION_WITH_SPECIFIED_SOURCE ( 'ANY', '', #142, .NOT_KNOWN. ) ;
#140 = ORIENTED_EDGE ( 'NONE', *, *, #5, .T. ) ;
#141 = ADVANCED_FACE ( 'NONE', ( #161 ), #88, .T. ) ;
#142 = PRODUCT ( '54497', '54497', '', ( #261 ) ) ;
#143 = FACE_OUTER_BOUND ( 'NONE', #117, .T. ) ;
#144 = CARTESIAN_POINT ( 'NONE',  ( 1.047444401652940007E-13, -3.673940397442059178E-15, 30.00000000000000000 ) ) ;
#145 =( GEOMETRIC_REPRESENTATION_CONTEXT ( 3 ) GLOBAL_UNCERTAINTY_ASSIGNED_CONTEXT ( ( #225 ) ) GLOBAL_UNIT_ASSIGNED_CONTEXT ( ( #48, #36, #199 ) ) REPRESENTATION_CONTEXT ( 'NONE', 'WORKASPACE' ) );
#146 = CARTESIAN_POINT ( 'NONE',  ( 1.416078206041818478E-15, -4.966933728324170369E-17, 0.4055809178436054485 ) ) ;
#147 = DATE_AND_TIME ( #235, #258 ) ;
#148 = CARTESIAN_POINT ( 'NONE',  ( 8.266365894244589960E-17, -0.6749999999999987121, -8.266365894244646659E-17 ) ) ;
#149 = SHAPE_DEFINITION_REPRESENTATION ( #9, #315 ) ;
#150 = ORIENTED_EDGE ( 'NONE', *, *, #314, .F. ) ;
#151 = VECTOR ( 'NONE', #91, 1000.000000000000000 ) ;
#152 = LOCAL_TIME ( 9, 48, 35.00000000000000000, #73 ) ;
#153 = PERSON_AND_ORGANIZATION_ROLE ( 'design_owner' ) ;
#154 = CARTESIAN_POINT ( 'NONE',  ( 1.416078206041818478E-15, -4.966933728324170369E-17, 0.4055809178436054485 ) ) ;
#155 = EDGE_CURVE ( 'NONE', #278, #296, #28, .T. ) ;
#156 = APPROVAL_DATE_TIME ( #49, #223 ) ;
#157 = CARTESIAN_POINT ( 'NONE',  ( 6.607166096307751076E-14, -0.6750000000000037081, 29.80000000000000071 ) ) ;
#158 = DIRECTION ( 'NONE',  ( -3.491481338843133355E-15, 1.224646799147353207E-16, -1.000000000000000000 ) ) ;
#159 = ADVANCED_FACE ( 'NONE', ( #211 ), #292, .F. ) ;
#160 = CIRCLE ( 'NONE', #135, 0.6749999999999973799 ) ;
#161 = FACE_OUTER_BOUND ( 'NONE', #299, .T. ) ;
#162 = DIRECTION ( 'NONE',  ( 0.0000000000000000000, 1.000000000000000000, 0.0000000000000000000 ) ) ;
#163 = DIRECTION ( 'NONE',  ( 4.275831445896958607E-31, 1.000000000000000000, 1.224646799147353207E-16 ) ) ;
#164 = VERTEX_POINT ( 'NONE', #47 ) ;
#165 = CC_DESIGN_PERSON_AND_ORGANIZATION_ASSIGNMENT ( #281, #179, ( #139 ) ) ;
#166 = AXIS2_PLACEMENT_3D ( 'NONE', #214, #20, #127 ) ;
#167 = DIRECTION ( 'NONE',  ( 0.0000000000000000000, 1.000000000000000000, 0.0000000000000000000 ) ) ;
#168 = ORIENTED_EDGE ( 'NONE', *, *, #184, .T. ) ;
#169 = ORIENTED_EDGE ( 'NONE', *, *, #268, .F. ) ;
#170 = AXIS2_PLACEMENT_3D ( 'NONE', #146, #94, #39 ) ;
#171 = ORIENTED_EDGE ( 'NONE', *, *, #329, .F. ) ;
#172 = CARTESIAN_POINT ( 'NONE',  ( 1.047444401652940007E-13, 3.561929483821856396E-33, 30.00000000000000000 ) ) ;
#173 = FACE_OUTER_BOUND ( 'NONE', #334, .T. ) ;
#174 = CIRCLE ( 'NONE', #86, 0.6749999999999973799 ) ;
#175 = APPROVAL_STATUS ( 'not_yet_approved' ) ;
#176 = FACE_OUTER_BOUND ( 'NONE', #136, .T. ) ;
#177 = PERSON_AND_ORGANIZATION ( #186, #192 ) ;
#178 = CARTESIAN_POINT ( 'NONE',  ( 6.607166096307762436E-14, -0.6749999999999982681, 8.000000000000000000 ) ) ;
#179 = PERSON_AND_ORGANIZATION_ROLE ( 'creator' ) ;
#180 = CARTESIAN_POINT ( 'NONE',  ( 1.047444401652940007E-13, -3.673940397442059178E-15, 30.00000000000000000 ) ) ;
#181 = CONICAL_SURFACE ( 'NONE', #170, 0.6749999999999963807, 1.029744258676649649 ) ;
#182 = DIRECTION ( 'NONE',  ( 0.0000000000000000000, 1.000000000000000000, 0.0000000000000000000 ) ) ;
#183 = DIRECTION ( 'NONE',  ( 0.0000000000000000000, 1.000000000000000000, 0.0000000000000000000 ) ) ;
#184 = EDGE_CURVE ( 'NONE', #195, #296, #116, .T. ) ;
#185 = DIRECTION ( 'NONE',  ( 4.275831445896958607E-31, 1.000000000000000000, 1.224646799147353207E-16 ) ) ;
#186 = PERSON ( 'UNSPECIFIED', 'UNSPECIFIED', 'UNSPECIFIED', ('UNSPECIFIED'), ('UNSPECIFIED'), ('UNSPECIFIED') ) ;
#187 = CIRCLE ( 'NONE', #216, 0.6749999999999963807 ) ;
#188 = DIRECTION ( 'NONE',  ( -4.275831445896958607E-31, -1.000000000000000000, -1.224646799147353207E-16 ) ) ;
#189 = CYLINDRICAL_SURFACE ( 'NONE', #108, 0.6749999999999968248 ) ;
#190 = APPLICATION_CONTEXT ( 'configuration controlled 3d designs of mechanical parts and assemblies' ) ;
#191 = CC_DESIGN_DATE_AND_TIME_ASSIGNMENT ( #126, #23, ( #19 ) ) ;
#192 = ORGANIZATION ( 'UNSPECIFIED', 'UNSPECIFIED', '' ) ;
#193 = ORIENTED_EDGE ( 'NONE', *, *, #329, .T. ) ;
#194 = AXIS2_PLACEMENT_3D ( 'NONE', #118, #252, #64 ) ;
#195 = VERTEX_POINT ( 'NONE', #157 ) ;
#196 = CC_DESIGN_APPROVAL ( #260, ( #322 ) ) ;
#197 = DIRECTION ( 'NONE',  ( 2.853229547240364820E-31, 1.000000000000000000, 1.606225440719274502E-16 ) ) ;
#198 = ORIENTED_EDGE ( 'NONE', *, *, #68, .T. ) ;
#199 =( NAMED_UNIT ( * ) SI_UNIT ( $, .STERADIAN. ) SOLID_ANGLE_UNIT ( ) );
#200 = CYLINDRICAL_SURFACE ( 'NONE', #226, 0.6749999999999987121 ) ;
#201 = PERSON_AND_ORGANIZATION ( #186, #192 ) ;
#202 = CYLINDRICAL_SURFACE ( 'NONE', #194, 0.6749999999999987121 ) ;
#203 = CONICAL_SURFACE ( 'NONE', #26, 0.4750000000000000333, 0.7853981633974512766 ) ;
#204 = ORIENTED_EDGE ( 'NONE', *, *, #114, .T. ) ;
#205 = APPROVAL_ROLE ( '' ) ;
#206 = CARTESIAN_POINT ( 'NONE',  ( 2.793185071074506684E-14, 5.061689266483735215E-33, 8.000000000000000000 ) ) ;
#207 = APPROVAL_ROLE ( '' ) ;
#208 = DIRECTION ( 'NONE',  ( 3.491481338843133355E-15, -1.224646799147353207E-16, 1.000000000000000000 ) ) ;
#209 = VECTOR ( 'NONE', #269, 999.9999999999998863 ) ;
#210 = APPLICATION_PROTOCOL_DEFINITION ( 'international standard', 'config_control_design', 1994, #190 ) ;
#211 = FACE_OUTER_BOUND ( 'NONE', #31, .T. ) ;
#212 = ADVANCED_FACE ( 'NONE', ( #22 ), #203, .T. ) ;
#213 = CARTESIAN_POINT ( 'NONE',  ( 1.040461438975253740E-13, 0.6749999999999963807, 29.80000000000000071 ) ) ;
#214 = CARTESIAN_POINT ( 'NONE',  ( 1.040461438975253740E-13, -3.649447461459112464E-15, 29.80000000000000071 ) ) ;
#215 = CLOSED_SHELL ( 'NONE', ( #101, #141, #81, #305, #243 ) ) ;
#216 = AXIS2_PLACEMENT_3D ( 'NONE', #77, #133, #311 ) ;
#217 = DIRECTION ( 'NONE',  ( -3.491481338843133355E-15, 1.224646799147353207E-16, -1.000000000000000000 ) ) ;
#218 = EDGE_CURVE ( 'NONE', #296, #195, #65, .T. ) ;
#219 = EDGE_LOOP ( 'NONE', ( #169, #171 ) ) ;
#220 = AXIS2_PLACEMENT_3D ( 'NONE', #130, #53, #99 ) ;
#221 = ORIENTED_EDGE ( 'NONE', *, *, #89, .F. ) ;
#222 = VERTEX_POINT ( 'NONE', #337 ) ;
#223 = APPROVAL ( #175, 'UNSPECIFIED' ) ;
#224 = FACE_OUTER_BOUND ( 'NONE', #120, .T. ) ;
#225 = UNCERTAINTY_MEASURE_WITH_UNIT (LENGTH_MEASURE( 1.000000000000000082E-05 ), #48, 'distance_accuracy_value', 'NONE');
#226 = AXIS2_PLACEMENT_3D ( 'NONE', #333, #228, #336 ) ;
#227 = VERTEX_POINT ( 'NONE', #266 ) ;
#228 = DIRECTION ( 'NONE',  ( -3.491481338843133355E-15, 1.224646799147353207E-16, -1.000000000000000000 ) ) ;
#229 = PERSON_AND_ORGANIZATION_ROLE ( 'classification_officer' ) ;
#230 = DIRECTION ( 'NONE',  ( -3.491481338843133355E-15, 1.224646799147353207E-16, -1.000000000000000000 ) ) ;
#231 = CIRCLE ( 'NONE', #13, 0.4750000000000000333 ) ;
#232 = DIRECTION ( 'NONE',  ( 1.000000000000000000, 0.0000000000000000000, 0.0000000000000000000 ) ) ;
#233 = CARTESIAN_POINT ( 'NONE',  ( 2.886186225980433353E-31, 0.6749999999999968248, 8.266365894244594890E-17 ) ) ;
#234 = CARTESIAN_POINT ( 'NONE',  ( 1.047444401652940007E-13, -3.673940397442059178E-15, 30.00000000000000000 ) ) ;
#235 = CALENDAR_DATE ( 2021, 3, 9 ) ;
#236 = CC_DESIGN_PERSON_AND_ORGANIZATION_ASSIGNMENT ( #201, #153, ( #142 ) ) ;
#237 = DIRECTION ( 'NONE',  ( -3.491481338843133355E-15, 1.224646799147353207E-16, -1.000000000000000000 ) ) ;
#238 = AXIS2_PLACEMENT_3D ( 'NONE', #325, #69, #232 ) ;
#239 = COORDINATED_UNIVERSAL_TIME_OFFSET ( 1, 0, .AHEAD. ) ;
#240 = PLANE ( 'NONE',  #279 ) ;
#241 = CARTESIAN_POINT ( 'NONE',  ( 1.416078206041818281E-15, -0.6749999999999963807, 0.4055809178436053375 ) ) ;
#242 = DIRECTION ( 'NONE',  ( -2.382254525458708792E-15, -0.7071067811865495711, -0.7071067811865455743 ) ) ;
#243 = ADVANCED_FACE ( 'NONE', ( #27 ), #240, .T. ) ;
#244 = CIRCLE ( 'NONE', #316, 0.4750000000000000333 ) ;
#245 = ORIENTED_EDGE ( 'NONE', *, *, #268, .T. ) ;
#246 = EDGE_LOOP ( 'NONE', ( #17, #328, #12, #304 ) ) ;
#247 = MANIFOLD_SOLID_BREP ( 'Corps-Déplacer/Copier1[2]', #215 ) ;
#248 = DIRECTION ( 'NONE',  ( -3.491481338843133355E-15, 1.224646799147353207E-16, -1.000000000000000000 ) ) ;
#249 = ADVANCED_FACE ( 'NONE', ( #294 ), #298, .T. ) ;
#250 = ORIENTED_EDGE ( 'NONE', *, *, #85, .T. ) ;
#251 = VECTOR ( 'NONE', #284, 1000.000000000000000 ) ;
#252 = DIRECTION ( 'NONE',  ( -3.491481338843133355E-15, 1.224646799147353207E-16, -1.000000000000000000 ) ) ;
#253 = PERSON_AND_ORGANIZATION ( #186, #192 ) ;
#254 = ORIENTED_EDGE ( 'NONE', *, *, #314, .T. ) ;
#255 = PRODUCT_RELATED_PRODUCT_CATEGORY ( 'detail', '', ( #142 ) ) ;
#256 = CARTESIAN_POINT ( 'NONE',  ( 1.475662811733586810E-14, -0.6749999999999982681, 8.000000000000000000 ) ) ;
#257 = AXIS2_PLACEMENT_3D ( 'NONE', #172, #248, #331 ) ;
#258 = LOCAL_TIME ( 9, 48, 35.00000000000000000, #239 ) ;
#259 = DIRECTION ( 'NONE',  ( 3.491481338843133355E-15, -1.224646799147353207E-16, 1.000000000000000000 ) ) ;
#260 = APPROVAL ( #93, 'UNSPECIFIED' ) ;
#261 = MECHANICAL_CONTEXT ( 'NONE', #190, 'mechanical' ) ;
#262 = CARTESIAN_POINT ( 'NONE',  ( 1.044657092223606455E-13, -0.4750000000000037526, 30.00000000000000000 ) ) ;
#263 = APPROVAL_STATUS ( 'not_yet_approved' ) ;
#264 = DIRECTION ( 'NONE',  ( 1.798245827342160317E-15, -0.8571673007021098911, 0.5150380749100582634 ) ) ;
#265 = AXIS2_PLACEMENT_3D ( 'NONE', #2, #321, #182 ) ;
#266 = CARTESIAN_POINT ( 'NONE',  ( 2.793185071074506684E-14, 0.6749999999999963807, 8.000000000000000000 ) ) ;
#267 = DIRECTION ( 'NONE',  ( 0.0000000000000000000, 1.000000000000000000, 0.0000000000000000000 ) ) ;
#268 = EDGE_CURVE ( 'NONE', #222, #70, #174, .T. ) ;
#269 = DIRECTION ( 'NONE',  ( 1.903218546456022717E-15, 0.8571673007021097801, 0.5150380749100585964 ) ) ;
#270 = ORIENTED_EDGE ( 'NONE', *, *, #276, .F. ) ;
#271 = VECTOR ( 'NONE', #264, 1000.000000000000000 ) ;
#272 = ORIENTED_EDGE ( 'NONE', *, *, #5, .F. ) ;
#273 = LOCAL_TIME ( 9, 48, 35.00000000000000000, #310 ) ;
#274 = CC_DESIGN_APPROVAL ( #223, ( #139 ) ) ;
#275 = ORIENTED_EDGE ( 'NONE', *, *, #155, .F. ) ;
#276 = EDGE_CURVE ( 'NONE', #138, #302, #187, .T. ) ;
#277 = CARTESIAN_POINT ( 'NONE',  ( 8.266365894244566541E-17, -0.6749999999999968248, -8.266365894244623240E-17 ) ) ;
#278 = VERTEX_POINT ( 'NONE', #72 ) ;
#279 = AXIS2_PLACEMENT_3D ( 'NONE', #206, #208, #188 ) ;
#280 = EDGE_CURVE ( 'NONE', #227, #87, #160, .T. ) ;
#281 = PERSON_AND_ORGANIZATION ( #186, #192 ) ;
#282 = LINE ( 'NONE', #233, #60 ) ;
#283 = PERSON_AND_ORGANIZATION_ROLE ( 'creator' ) ;
#284 = DIRECTION ( 'NONE',  ( -3.491481338843133355E-15, 1.224646799147353207E-16, -1.000000000000000000 ) ) ;
#285 = DATE_AND_TIME ( #1, #152 ) ;
#286 = APPLICATION_CONTEXT ( 'configuration controlled 3d designs of mechanical parts and assemblies' ) ;
#287 = CARTESIAN_POINT ( 'NONE',  ( 2.886186225980441673E-31, 0.6749999999999987121, 8.266365894244618310E-17 ) ) ;
#288 = EDGE_CURVE ( 'NONE', #87, #227, #61, .T. ) ;
#289 = PERSON_AND_ORGANIZATION ( #186, #192 ) ;
#290 = DIRECTION ( 'NONE',  ( -3.491481338843133355E-15, 1.224646799147353207E-16, -1.000000000000000000 ) ) ;
#291 = CARTESIAN_POINT ( 'NONE',  ( 2.793185071074506684E-14, -9.797174393178825657E-16, 8.000000000000000000 ) ) ;
#292 = PLANE ( 'NONE',  #220 ) ;
#293 = CC_DESIGN_APPROVAL ( #38, ( #19 ) ) ;
#294 = FACE_OUTER_BOUND ( 'NONE', #327, .T. ) ;
#295 = CARTESIAN_POINT ( 'NONE',  ( 0.0000000000000000000, 0.0000000000000000000, 0.0000000000000000000 ) ) ;
#296 = VERTEX_POINT ( 'NONE', #213 ) ;
#297 = EDGE_CURVE ( 'NONE', #278, #115, #231, .T. ) ;
#298 = CONICAL_SURFACE ( 'NONE', #40, 0.4750000000000000333, 0.7853981633974512766 ) ;
#299 = EDGE_LOOP ( 'NONE', ( #97, #254, #32 ) ) ;
#300 = APPROVAL_PERSON_ORGANIZATION ( #253, #260, #207 ) ;
#301 = EDGE_CURVE ( 'NONE', #296, #227, #319, .T. ) ;
#302 = VERTEX_POINT ( 'NONE', #323 ) ;
#303 = ORIENTED_EDGE ( 'NONE', *, *, #324, .T. ) ;
#304 = ORIENTED_EDGE ( 'NONE', *, *, #301, .F. ) ;
#305 = ADVANCED_FACE ( 'NONE', ( #82 ), #189, .T. ) ;
#306 = COORDINATED_UNIVERSAL_TIME_OFFSET ( 1, 0, .AHEAD. ) ;
#307 = DIRECTION ( 'NONE',  ( -3.491481338843133355E-15, 1.224646799147353207E-16, -1.000000000000000000 ) ) ;
#308 = AXIS2_PLACEMENT_3D ( 'NONE', #124, #50, #185 ) ;
#309 = ORIENTED_EDGE ( 'NONE', *, *, #297, .F. ) ;
#310 = COORDINATED_UNIVERSAL_TIME_OFFSET ( 1, 0, .AHEAD. ) ;
#311 = DIRECTION ( 'NONE',  ( 2.853229547240364820E-31, 1.000000000000000000, 1.606225440719274502E-16 ) ) ;
#312 = DATE_AND_TIME ( #66, #129 ) ;
#313 = DIRECTION ( 'NONE',  ( 0.0000000000000000000, 1.000000000000000000, 0.0000000000000000000 ) ) ;
#314 = EDGE_CURVE ( 'NONE', #164, #138, #134, .T. ) ;
#315 = ADVANCED_BREP_SHAPE_REPRESENTATION ( '54497', ( #10, #247, #238 ), #145 ) ;
#316 = AXIS2_PLACEMENT_3D ( 'NONE', #144, #307, #67 ) ;
#317 = DATE_TIME_ROLE ( 'classification_date' ) ;
#318 = DIRECTION ( 'NONE',  ( -3.491481338843133355E-15, 1.224646799147353207E-16, -1.000000000000000000 ) ) ;
#319 = LINE ( 'NONE', #287, #122 ) ;
#320 = CC_DESIGN_DATE_AND_TIME_ASSIGNMENT ( #147, #317, ( #322 ) ) ;
#321 = DIRECTION ( 'NONE',  ( -3.491481338843133355E-15, 1.224646799147353207E-16, -1.000000000000000000 ) ) ;
#322 = SECURITY_CLASSIFICATION ( '', '', #71 ) ;
#323 = CARTESIAN_POINT ( 'NONE',  ( 1.416078206041818281E-15, -0.6749999999999963807, 0.4055809178436053375 ) ) ;
#324 = EDGE_CURVE ( 'NONE', #302, #138, #8, .T. ) ;
#325 = CARTESIAN_POINT ( 'NONE',  ( 0.0000000000000000000, 0.0000000000000000000, 0.0000000000000000000 ) ) ;
#326 = LOCAL_TIME ( 9, 48, 35.00000000000000000, #16 ) ;
#327 = EDGE_LOOP ( 'NONE', ( #84, #250, #35, #332 ) ) ;
#328 = ORIENTED_EDGE ( 'NONE', *, *, #89, .T. ) ;
#329 = EDGE_CURVE ( 'NONE', #70, #222, #46, .T. ) ;
#330 = AXIS2_PLACEMENT_3D ( 'NONE', #131, #83, #167 ) ;
#331 = DIRECTION ( 'NONE',  ( 4.275831445896958607E-31, 1.000000000000000000, 1.224646799147353207E-16 ) ) ;
#332 = ORIENTED_EDGE ( 'NONE', *, *, #184, .F. ) ;
#333 = CARTESIAN_POINT ( 'NONE',  ( 0.0000000000000000000, 0.0000000000000000000, 0.0000000000000000000 ) ) ;
#334 = EDGE_LOOP ( 'NONE', ( #150, #204, #303 ) ) ;
#335 = AXIS2_PLACEMENT_3D ( 'NONE', #154, #259, #106 ) ;
#336 = DIRECTION ( 'NONE',  ( 4.275831445896958607E-31, 1.000000000000000000, 1.224646799147353207E-16 ) ) ;
#337 = CARTESIAN_POINT ( 'NONE',  ( 2.793185071074506684E-14, 0.6749999999999963807, 8.000000000000000000 ) ) ;
ENDSEC;
END-ISO-10303-21;
