ISO-10303-21;
HEADER;
FILE_DESCRIPTION (( 'STEP AP203' ),
    '1' );
FILE_NAME ('54496.step',
    '2021-09-03T07:48:34',
    ( '' ),
    ( '' ),
    'SwSTEP 2.0',
    'SolidWorks 2019',
    '' );
FILE_SCHEMA (( 'CONFIG_CONTROL_DESIGN' ));
ENDSEC;

DATA;
#1 = AXIS2_PLACEMENT_3D ( 'NONE', #16, #119, #228 ) ;
#2 = LINE ( 'NONE', #293, #53 ) ;
#3 = EDGE_CURVE ( 'NONE', #169, #106, #288, .T. ) ;
#4 = VERTEX_POINT ( 'NONE', #244 ) ;
#5 = ORIENTED_EDGE ( 'NONE', *, *, #93, .T. ) ;
#6 = MANIFOLD_SOLID_BREP ( 'Corps-Déplacer/Copier1[2]', #315 ) ;
#7 = EDGE_LOOP ( 'NONE', ( #28, #85, #135 ) ) ;
#8 = CARTESIAN_POINT ( 'NONE',  ( 1.363630865077306076E-15, -0.6499999999999962474, 0.3905594023679162530 ) ) ;
#9 = CARTESIAN_POINT ( 'NONE',  ( 2.793185071074506684E-14, -9.797174393178825657E-16, 8.000000000000000000 ) ) ;
#10 = EDGE_LOOP ( 'NONE', ( #26, #5, #136, #78 ) ) ;
#11 = CIRCLE ( 'NONE', #92, 0.6499999999999972466 ) ;
#12 = DIRECTION ( 'NONE',  ( -3.491481338843133355E-15, 1.224646799147353207E-16, -1.000000000000000000 ) ) ;
#13 = ORIENTED_EDGE ( 'NONE', *, *, #298, .F. ) ;
#14 = DIRECTION ( 'NONE',  ( 4.275831445896958607E-31, 1.000000000000000000, 1.224646799147353207E-16 ) ) ;
#15 = CIRCLE ( 'NONE', #99, 0.6500000000000000222 ) ;
#16 = CARTESIAN_POINT ( 'NONE',  ( 1.363630865077306273E-15, -4.782973219867718930E-17, 0.3905594023679163085 ) ) ;
#17 = CARTESIAN_POINT ( 'NONE',  ( 1.047444401652940007E-13, 0.4499999999999962919, 30.00000000000000000 ) ) ;
#18 = DIRECTION ( 'NONE',  ( -3.491481338843133355E-15, 1.224646799147353207E-16, -1.000000000000000000 ) ) ;
#19 = DIRECTION ( 'NONE',  ( 4.275831445896958607E-31, 1.000000000000000000, 1.224646799147353207E-16 ) ) ;
#20 = APPROVAL_STATUS ( 'not_yet_approved' ) ;
#21 = ORIENTED_EDGE ( 'NONE', *, *, #56, .T. ) ;
#22 = APPROVAL_STATUS ( 'not_yet_approved' ) ;
#23 = EDGE_LOOP ( 'NONE', ( #323, #318 ) ) ;
#24 = CIRCLE ( 'NONE', #138, 0.4500000000000000111 ) ;
#25 = CC_DESIGN_PERSON_AND_ORGANIZATION_ASSIGNMENT ( #204, #316, ( #280 ) ) ;
#26 = ORIENTED_EDGE ( 'NONE', *, *, #87, .F. ) ;
#27 = CARTESIAN_POINT ( 'NONE',  ( 0.0000000000000000000, 0.0000000000000000000, 0.0000000000000000000 ) ) ;
#28 = ORIENTED_EDGE ( 'NONE', *, *, #56, .F. ) ;
#29 = ORIENTED_EDGE ( 'NONE', *, *, #151, .F. ) ;
#30 = LINE ( 'NONE', #273, #297 ) ;
#31 = CARTESIAN_POINT ( 'NONE',  ( 2.793185071074506684E-14, -9.797174393178825657E-16, 8.000000000000000000 ) ) ;
#32 = FACE_OUTER_BOUND ( 'NONE', #50, .T. ) ;
#33 = APPLICATION_CONTEXT ( 'configuration controlled 3d designs of mechanical parts and assemblies' ) ;
#34 = CC_DESIGN_PERSON_AND_ORGANIZATION_ASSIGNMENT ( #313, #68, ( #216 ) ) ;
#35 = ORIENTED_EDGE ( 'NONE', *, *, #229, .F. ) ;
#36 = VECTOR ( 'NONE', #245, 1000.000000000000000 ) ;
#37 = PLANE ( 'NONE',  #227 ) ;
#38 = DIRECTION ( 'NONE',  ( 2.962969145211149362E-31, 1.000000000000000000, 8.340016711427005825E-17 ) ) ;
#39 = APPROVAL ( #20, 'UNSPECIFIED' ) ;
#40 = PLANE ( 'NONE',  #44 ) ;
#41 = DIRECTION ( 'NONE',  ( 0.0000000000000000000, 1.000000000000000000, 0.0000000000000000000 ) ) ;
#42 = CARTESIAN_POINT ( 'NONE',  ( 1.472734282985574050E-14, -0.6499999999999983569, 8.000000000000000000 ) ) ;
#43 = LINE ( 'NONE', #225, #143 ) ;
#44 = AXIS2_PLACEMENT_3D ( 'NONE', #257, #62, #19 ) ;
#45 = CALENDAR_DATE ( 2021, 3, 9 ) ;
#46 = ORIENTED_EDGE ( 'NONE', *, *, #314, .F. ) ;
#47 = APPROVAL_STATUS ( 'not_yet_approved' ) ;
#48 = AXIS2_PLACEMENT_3D ( 'NONE', #64, #279, #252 ) ;
#49 = APPROVAL_ROLE ( '' ) ;
#50 = EDGE_LOOP ( 'NONE', ( #159, #238, #158, #109 ) ) ;
#51 = DATE_AND_TIME ( #322, #172 ) ;
#52 = FACE_OUTER_BOUND ( 'NONE', #132, .T. ) ;
#53 = VECTOR ( 'NONE', #150, 1000.000000000000114 ) ;
#54 = DIRECTION ( 'NONE',  ( 4.275831445896958607E-31, 1.000000000000000000, 1.224646799147353207E-16 ) ) ;
#55 = CARTESIAN_POINT ( 'NONE',  ( 7.960204194457752336E-17, -0.6499999999999986899, -7.960204194457807803E-17 ) ) ;
#56 = EDGE_CURVE ( 'NONE', #100, #243, #218, .T. ) ;
#57 = DIRECTION ( 'NONE',  ( -2.382254525458708792E-15, -0.7071067811865495711, -0.7071067811865455743 ) ) ;
#58 = DIRECTION ( 'NONE',  ( -3.491481338843133355E-15, 1.224646799147353207E-16, -1.000000000000000000 ) ) ;
#59 = AXIS2_PLACEMENT_3D ( 'NONE', #310, #88, #194 ) ;
#60 = CARTESIAN_POINT ( 'NONE',  ( 2.793185071074506684E-14, 4.874219293651002330E-33, 8.000000000000000000 ) ) ;
#61 = FACE_OUTER_BOUND ( 'NONE', #7, .T. ) ;
#62 = DIRECTION ( 'NONE',  ( -3.491481338843133355E-15, 1.224646799147353207E-16, -1.000000000000000000 ) ) ;
#63 = AXIS2_PLACEMENT_3D ( 'NONE', #112, #83, #84 ) ;
#64 = CARTESIAN_POINT ( 'NONE',  ( 1.363630865077306273E-15, -4.782973219867718930E-17, 0.3905594023679163085 ) ) ;
#65 = DIRECTION ( 'NONE',  ( -3.491481338843133355E-15, 1.224646799147353207E-16, -1.000000000000000000 ) ) ;
#66 = PERSON_AND_ORGANIZATION ( #89, #184 ) ;
#67 = AXIS2_PLACEMENT_3D ( 'NONE', #60, #170, #309 ) ;
#68 = PERSON_AND_ORGANIZATION_ROLE ( 'design_supplier' ) ;
#69 = AXIS2_PLACEMENT_3D ( 'NONE', #31, #111, #214 ) ;
#70 = PERSON_AND_ORGANIZATION ( #89, #184 ) ;
#71 = ORIENTED_EDGE ( 'NONE', *, *, #93, .F. ) ;
#72 = DATE_AND_TIME ( #290, #303 ) ;
#73 = CIRCLE ( 'NONE', #59, 0.6499999999999972466 ) ;
#74 = COORDINATED_UNIVERSAL_TIME_OFFSET ( 1, 0, .AHEAD. ) ;
#75 = EDGE_LOOP ( 'NONE', ( #328, #206, #125, #71 ) ) ;
#76 = ADVANCED_FACE ( 'NONE', ( #269 ), #107, .T. ) ;
#77 = APPROVAL_DATE_TIME ( #51, #181 ) ;
#78 = ORIENTED_EDGE ( 'NONE', *, *, #104, .F. ) ;
#79 = CARTESIAN_POINT ( 'NONE',  ( 2.793185071074506684E-14, 4.874219293651002330E-33, 8.000000000000000000 ) ) ;
#80 = CC_DESIGN_APPROVAL ( #39, ( #216 ) ) ;
#81 = DIRECTION ( 'NONE',  ( 3.491481338843133355E-15, -1.224646799147353207E-16, 1.000000000000000000 ) ) ;
#82 = EDGE_CURVE ( 'NONE', #113, #4, #15, .T. ) ;
#83 = DIRECTION ( 'NONE',  ( -3.491481338843133355E-15, 1.224646799147353207E-16, -1.000000000000000000 ) ) ;
#84 = DIRECTION ( 'NONE',  ( 0.0000000000000000000, 1.000000000000000000, 0.0000000000000000000 ) ) ;
#85 = ORIENTED_EDGE ( 'NONE', *, *, #314, .T. ) ;
#86 = LOCAL_TIME ( 9, 48, 34.00000000000000000, #337 ) ;
#87 = EDGE_CURVE ( 'NONE', #4, #106, #217, .T. ) ;
#88 = DIRECTION ( 'NONE',  ( -3.491481338843133355E-15, 1.224646799147353207E-16, -1.000000000000000000 ) ) ;
#89 = PERSON ( 'UNSPECIFIED', 'UNSPECIFIED', 'UNSPECIFIED', ('UNSPECIFIED'), ('UNSPECIFIED'), ('UNSPECIFIED') ) ;
#90 = DIRECTION ( 'NONE',  ( -3.491481338843133355E-15, 1.224646799147353207E-16, -1.000000000000000000 ) ) ;
#91 = DIRECTION ( 'NONE',  ( -3.491481338843133355E-15, 1.224646799147353207E-16, -1.000000000000000000 ) ) ;
#92 = AXIS2_PLACEMENT_3D ( 'NONE', #9, #219, #215 ) ;
#93 = EDGE_CURVE ( 'NONE', #4, #113, #246, .T. ) ;
#94 = CYLINDRICAL_SURFACE ( 'NONE', #320, 0.6499999999999986899 ) ;
#95 =( NAMED_UNIT ( * ) PLANE_ANGLE_UNIT ( ) SI_UNIT ( $, .RADIAN. ) );
#96 = CC_DESIGN_DATE_AND_TIME_ASSIGNMENT ( #72, #182, ( #287 ) ) ;
#97 = PERSON_AND_ORGANIZATION ( #89, #184 ) ;
#98 = EDGE_LOOP ( 'NONE', ( #260, #203, #186, #321 ) ) ;
#99 = AXIS2_PLACEMENT_3D ( 'NONE', #300, #140, #295 ) ;
#100 = VERTEX_POINT ( 'NONE', #191 ) ;
#101 = PRODUCT_DEFINITION_SHAPE ( 'NONE', 'NONE',  #287 ) ;
#102 = PERSON_AND_ORGANIZATION ( #89, #184 ) ;
#103 = EDGE_LOOP ( 'NONE', ( #264, #235, #262, #29 ) ) ;
#104 = EDGE_CURVE ( 'NONE', #106, #169, #11, .T. ) ;
#105 = CC_DESIGN_APPROVAL ( #220, ( #287 ) ) ;
#106 = VERTEX_POINT ( 'NONE', #165 ) ;
#107 = CYLINDRICAL_SURFACE ( 'NONE', #248, 0.6499999999999966915 ) ;
#108 = CC_DESIGN_PERSON_AND_ORGANIZATION_ASSIGNMENT ( #97, #317, ( #216 ) ) ;
#109 = ORIENTED_EDGE ( 'NONE', *, *, #319, .F. ) ;
#110 = AXIS2_PLACEMENT_3D ( 'NONE', #27, #157, #127 ) ;
#111 = DIRECTION ( 'NONE',  ( -3.491481338843133355E-15, 1.224646799147353207E-16, -1.000000000000000000 ) ) ;
#112 = CARTESIAN_POINT ( 'NONE',  ( 1.040461438975253740E-13, -3.649447461459112464E-15, 29.80000000000000071 ) ) ;
#113 = VERTEX_POINT ( 'NONE', #325 ) ;
#114 = ADVANCED_FACE ( 'NONE', ( #52 ), #37, .T. ) ;
#115 = CARTESIAN_POINT ( 'NONE',  ( 1.363630865077306076E-15, -0.6499999999999962474, 0.3905594023679162530 ) ) ;
#116 = CIRCLE ( 'NONE', #197, 0.6499999999999962474 ) ;
#117 = LINE ( 'NONE', #224, #241 ) ;
#118 = DIRECTION ( 'NONE',  ( -3.491481338843133355E-15, 1.224646799147353207E-16, -1.000000000000000000 ) ) ;
#119 = DIRECTION ( 'NONE',  ( 3.491481338843133355E-15, -1.224646799147353207E-16, 1.000000000000000000 ) ) ;
#120 = AXIS2_PLACEMENT_3D ( 'NONE', #190, #301, #188 ) ;
#121 = CYLINDRICAL_SURFACE ( 'NONE', #308, 0.6499999999999986899 ) ;
#122 = APPROVAL_DATE_TIME ( #201, #39 ) ;
#123 = VERTEX_POINT ( 'NONE', #249 ) ;
#124 = DATE_TIME_ROLE ( 'classification_date' ) ;
#125 = ORIENTED_EDGE ( 'NONE', *, *, #319, .T. ) ;
#126 = CONICAL_SURFACE ( 'NONE', #120, 0.4500000000000000111, 0.7853981633974512766 ) ;
#127 = DIRECTION ( 'NONE',  ( 1.000000000000000000, 0.0000000000000000000, 0.0000000000000000000 ) ) ;
#128 = EDGE_CURVE ( 'NONE', #129, #4, #30, .T. ) ;
#129 = VERTEX_POINT ( 'NONE', #160 ) ;
#130 = PRODUCT ( '54496', '54496', '', ( #200 ) ) ;
#131 = APPLICATION_PROTOCOL_DEFINITION ( 'international standard', 'config_control_design', 1994, #208 ) ;
#132 = EDGE_LOOP ( 'NONE', ( #13, #327 ) ) ;
#133 = APPROVAL_PERSON_ORGANIZATION ( #265, #39, #176 ) ;
#134 = SHAPE_DEFINITION_REPRESENTATION ( #101, #232 ) ;
#135 = ORIENTED_EDGE ( 'NONE', *, *, #251, .T. ) ;
#136 = ORIENTED_EDGE ( 'NONE', *, *, #187, .T. ) ;
#137 = ORIENTED_EDGE ( 'NONE', *, *, #87, .T. ) ;
#138 = AXIS2_PLACEMENT_3D ( 'NONE', #331, #199, #198 ) ;
#139 = ORIENTED_EDGE ( 'NONE', *, *, #283, .F. ) ;
#140 = DIRECTION ( 'NONE',  ( -3.491481338843133355E-15, 1.224646799147353207E-16, -1.000000000000000000 ) ) ;
#141 = ADVANCED_FACE ( 'NONE', ( #32 ), #126, .T. ) ;
#142 = CARTESIAN_POINT ( 'NONE',  ( 1.047444401652940007E-13, -3.673940397442059178E-15, 30.00000000000000000 ) ) ;
#143 = VECTOR ( 'NONE', #90, 1000.000000000000000 ) ;
#144 = DIRECTION ( 'NONE',  ( 2.962969145211149362E-31, 1.000000000000000000, 8.340016711427005825E-17 ) ) ;
#145 = ADVANCED_FACE ( 'NONE', ( #302 ), #296, .T. ) ;
#146 = FACE_OUTER_BOUND ( 'NONE', #271, .T. ) ;
#147 = DESIGN_CONTEXT ( 'detailed design', #208, 'design' ) ;
#148 = PLANE ( 'NONE',  #67 ) ;
#149 = DIRECTION ( 'NONE',  ( -3.491481338843133355E-15, 1.224646799147353207E-16, -1.000000000000000000 ) ) ;
#150 = DIRECTION ( 'NONE',  ( -2.468850131082257455E-15, 0.7071067811865497932, -0.7071067811865453523 ) ) ;
#151 = EDGE_CURVE ( 'NONE', #209, #123, #247, .T. ) ;
#152 =( LENGTH_UNIT ( ) NAMED_UNIT ( * ) SI_UNIT ( .MILLI., .METRE. ) );
#153 = EDGE_LOOP ( 'NONE', ( #139, #35 ) ) ;
#154 =( NAMED_UNIT ( * ) SI_UNIT ( $, .STERADIAN. ) SOLID_ANGLE_UNIT ( ) );
#155 = AXIS2_PLACEMENT_3D ( 'NONE', #193, #18, #304 ) ;
#156 = EDGE_CURVE ( 'NONE', #237, #243, #43, .T. ) ;
#157 = DIRECTION ( 'NONE',  ( 0.0000000000000000000, 0.0000000000000000000, 1.000000000000000000 ) ) ;
#158 = ORIENTED_EDGE ( 'NONE', *, *, #82, .F. ) ;
#159 = ORIENTED_EDGE ( 'NONE', *, *, #283, .T. ) ;
#160 = CARTESIAN_POINT ( 'NONE',  ( 1.044626476053627967E-13, -0.4500000000000036748, 30.00000000000000000 ) ) ;
#161 = CC_DESIGN_PERSON_AND_ORGANIZATION_ASSIGNMENT ( #66, #207, ( #287 ) ) ;
#162 = VECTOR ( 'NONE', #329, 1000.000000000000000 ) ;
#163 = CIRCLE ( 'NONE', #270, 0.6499999999999962474 ) ;
#164 = CARTESIAN_POINT ( 'NONE',  ( 0.0000000000000000000, 0.0000000000000000000, 0.0000000000000000000 ) ) ;
#165 = CARTESIAN_POINT ( 'NONE',  ( 6.606859934607976292E-14, -0.6499999999999982458, 8.000000000000000000 ) ) ;
#166 = CARTESIAN_POINT ( 'NONE',  ( 0.0000000000000000000, 0.0000000000000000000, 0.0000000000000000000 ) ) ;
#167 = CONICAL_SURFACE ( 'NONE', #1, 0.6499999999999962474, 1.029744258676649649 ) ;
#168 = CC_DESIGN_PERSON_AND_ORGANIZATION_ASSIGNMENT ( #102, #266, ( #130 ) ) ;
#169 = VERTEX_POINT ( 'NONE', #306 ) ;
#170 = DIRECTION ( 'NONE',  ( 3.491481338843133355E-15, -1.224646799147353207E-16, 1.000000000000000000 ) ) ;
#171 = CARTESIAN_POINT ( 'NONE',  ( 1.363630865077306273E-15, -4.782973219867718930E-17, 0.3905594023679163085 ) ) ;
#172 = LOCAL_TIME ( 9, 48, 34.00000000000000000, #211 ) ;
#173 = FACE_OUTER_BOUND ( 'NONE', #10, .T. ) ;
#174 = CARTESIAN_POINT ( 'NONE',  ( 2.793185071074506684E-14, 0.6499999999999962474, 8.000000000000000000 ) ) ;
#175 = CARTESIAN_POINT ( 'NONE',  ( 2.793185071074506684E-14, -9.797174393178825657E-16, 8.000000000000000000 ) ) ;
#176 = APPROVAL_ROLE ( '' ) ;
#177 = VECTOR ( 'NONE', #58, 1000.000000000000000 ) ;
#178 = SECURITY_CLASSIFICATION_LEVEL ( 'unclassified' ) ;
#179 = APPROVAL_DATE_TIME ( #185, #220 ) ;
#180 = ORIENTED_EDGE ( 'NONE', *, *, #187, .F. ) ;
#181 = APPROVAL ( #47, 'UNSPECIFIED' ) ;
#182 = DATE_TIME_ROLE ( 'creation_date' ) ;
#183 = EDGE_LOOP ( 'NONE', ( #294, #137, #240, #180 ) ) ;
#184 = ORGANIZATION ( 'UNSPECIFIED', 'UNSPECIFIED', '' ) ;
#185 = DATE_AND_TIME ( #236, #256 ) ;
#186 = ORIENTED_EDGE ( 'NONE', *, *, #151, .T. ) ;
#187 = EDGE_CURVE ( 'NONE', #113, #169, #250, .T. ) ;
#188 = DIRECTION ( 'NONE',  ( 0.0000000000000000000, 1.000000000000000000, 0.0000000000000000000 ) ) ;
#189 = DIRECTION ( 'NONE',  ( -4.275831445896958607E-31, -1.000000000000000000, -1.224646799147353207E-16 ) ) ;
#190 = CARTESIAN_POINT ( 'NONE',  ( 1.047444401652940007E-13, -3.673940397442059178E-15, 30.00000000000000000 ) ) ;
#191 = CARTESIAN_POINT ( 'NONE',  ( 0.0000000000000000000, 0.0000000000000000000, 0.0000000000000000000 ) ) ;
#192 = VECTOR ( 'NONE', #149, 1000.000000000000000 ) ;
#193 = CARTESIAN_POINT ( 'NONE',  ( 1.047444401652940007E-13, -3.673940397442059178E-15, 30.00000000000000000 ) ) ;
#194 = DIRECTION ( 'NONE',  ( 0.0000000000000000000, 1.000000000000000000, 0.0000000000000000000 ) ) ;
#195 = ADVANCED_FACE ( 'NONE', ( #285 ), #40, .F. ) ;
#196 = CARTESIAN_POINT ( 'NONE',  ( 2.779290439833017226E-31, 0.6499999999999986899, 7.960204194457779453E-17 ) ) ;
#197 = AXIS2_PLACEMENT_3D ( 'NONE', #284, #65, #38 ) ;
#198 = DIRECTION ( 'NONE',  ( 0.0000000000000000000, 1.000000000000000000, 0.0000000000000000000 ) ) ;
#199 = DIRECTION ( 'NONE',  ( -3.491481338843133355E-15, 1.224646799147353207E-16, -1.000000000000000000 ) ) ;
#200 = MECHANICAL_CONTEXT ( 'NONE', #33, 'mechanical' ) ;
#201 = DATE_AND_TIME ( #231, #86 ) ;
#202 = CONICAL_SURFACE ( 'NONE', #48, 0.6499999999999962474, 1.029744258676649649 ) ;
#203 = ORIENTED_EDGE ( 'NONE', *, *, #292, .T. ) ;
#204 = PERSON_AND_ORGANIZATION ( #89, #184 ) ;
#205 = ADVANCED_FACE ( 'NONE', ( #173 ), #121, .T. ) ;
#206 = ORIENTED_EDGE ( 'NONE', *, *, #229, .T. ) ;
#207 = PERSON_AND_ORGANIZATION_ROLE ( 'creator' ) ;
#208 = APPLICATION_CONTEXT ( 'configuration controlled 3d designs of mechanical parts and assemblies' ) ;
#209 = VERTEX_POINT ( 'NONE', #174 ) ;
#210 = APPROVAL_PERSON_ORGANIZATION ( #239, #220, #311 ) ;
#211 = COORDINATED_UNIVERSAL_TIME_OFFSET ( 1, 0, .AHEAD. ) ;
#212 = ORIENTED_EDGE ( 'NONE', *, *, #278, .T. ) ;
#213 = ADVANCED_FACE ( 'NONE', ( #230 ), #221, .T. ) ;
#214 = DIRECTION ( 'NONE',  ( 0.0000000000000000000, 1.000000000000000000, 0.0000000000000000000 ) ) ;
#215 = DIRECTION ( 'NONE',  ( 0.0000000000000000000, 1.000000000000000000, 0.0000000000000000000 ) ) ;
#216 = PRODUCT_DEFINITION_FORMATION_WITH_SPECIFIED_SOURCE ( 'ANY', '', #130, .NOT_KNOWN. ) ;
#217 = LINE ( 'NONE', #55, #177 ) ;
#218 = LINE ( 'NONE', #8, #36 ) ;
#219 = DIRECTION ( 'NONE',  ( -3.491481338843133355E-15, 1.224646799147353207E-16, -1.000000000000000000 ) ) ;
#220 = APPROVAL ( #22, 'UNSPECIFIED' ) ;
#221 = CONICAL_SURFACE ( 'NONE', #275, 0.4500000000000000111, 0.7853981633974512766 ) ;
#222 = FACE_OUTER_BOUND ( 'NONE', #23, .T. ) ;
#223 = CLOSED_SHELL ( 'NONE', ( #141, #272, #267, #205, #213, #195 ) ) ;
#224 = CARTESIAN_POINT ( 'NONE',  ( 1.443232907021884080E-15, 0.6499999999999962474, 0.3905594023679163640 ) ) ;
#225 = CARTESIAN_POINT ( 'NONE',  ( 7.960204194457727684E-17, -0.6499999999999966915, -7.960204194457783151E-17 ) ) ;
#226 = MANIFOLD_SOLID_BREP ( 'Corps-Déplacer/Copier1[1]', #223 ) ;
#227 = AXIS2_PLACEMENT_3D ( 'NONE', #79, #81, #189 ) ;
#228 = DIRECTION ( 'NONE',  ( -2.962969145211149362E-31, -1.000000000000000000, -8.340016711427005825E-17 ) ) ;
#229 = EDGE_CURVE ( 'NONE', #129, #268, #291, .T. ) ;
#230 = FACE_OUTER_BOUND ( 'NONE', #75, .T. ) ;
#231 = CALENDAR_DATE ( 2021, 3, 9 ) ;
#232 = ADVANCED_BREP_SHAPE_REPRESENTATION ( '54496', ( #226, #6, #110 ), #234 ) ;
#233 = ADVANCED_FACE ( 'NONE', ( #146 ), #167, .T. ) ;
#234 =( GEOMETRIC_REPRESENTATION_CONTEXT ( 3 ) GLOBAL_UNCERTAINTY_ASSIGNED_CONTEXT ( ( #282 ) ) GLOBAL_UNIT_ASSIGNED_CONTEXT ( ( #152, #95, #154 ) ) REPRESENTATION_CONTEXT ( 'NONE', 'WORKASPACE' ) );
#235 = ORIENTED_EDGE ( 'NONE', *, *, #156, .T. ) ;
#236 = CALENDAR_DATE ( 2021, 3, 9 ) ;
#237 = VERTEX_POINT ( 'NONE', #42 ) ;
#238 = ORIENTED_EDGE ( 'NONE', *, *, #128, .T. ) ;
#239 = PERSON_AND_ORGANIZATION ( #89, #184 ) ;
#240 = ORIENTED_EDGE ( 'NONE', *, *, #3, .F. ) ;
#241 = VECTOR ( 'NONE', #332, 999.9999999999998863 ) ;
#242 = CC_DESIGN_DATE_AND_TIME_ASSIGNMENT ( #261, #124, ( #280 ) ) ;
#243 = VERTEX_POINT ( 'NONE', #115 ) ;
#244 = CARTESIAN_POINT ( 'NONE',  ( 6.606859934607966195E-14, -0.6500000000000036859, 29.80000000000000071 ) ) ;
#245 = DIRECTION ( 'NONE',  ( 1.798245827342160317E-15, -0.8571673007021098911, 0.5150380749100582634 ) ) ;
#246 = CIRCLE ( 'NONE', #63, 0.6500000000000000222 ) ;
#247 = LINE ( 'NONE', #276, #162 ) ;
#248 = AXIS2_PLACEMENT_3D ( 'NONE', #164, #12, #324 ) ;
#249 = CARTESIAN_POINT ( 'NONE',  ( 1.443232907021884080E-15, 0.6499999999999962474, 0.3905594023679163640 ) ) ;
#250 = LINE ( 'NONE', #196, #192 ) ;
#251 = EDGE_CURVE ( 'NONE', #123, #243, #116, .T. ) ;
#252 = DIRECTION ( 'NONE',  ( -2.962969145211149362E-31, -1.000000000000000000, -8.340016711427005825E-17 ) ) ;
#253 = DIRECTION ( 'NONE',  ( 4.275831445896958607E-31, 1.000000000000000000, 1.224646799147353207E-16 ) ) ;
#254 = DIRECTION ( 'NONE',  ( -3.491481338843133355E-15, 1.224646799147353207E-16, -1.000000000000000000 ) ) ;
#255 = PRODUCT_RELATED_PRODUCT_CATEGORY ( 'detail', '', ( #130 ) ) ;
#256 = LOCAL_TIME ( 9, 48, 34.00000000000000000, #74 ) ;
#257 = CARTESIAN_POINT ( 'NONE',  ( 1.047444401652940007E-13, 3.374459510989123511E-33, 30.00000000000000000 ) ) ;
#258 = CC_DESIGN_APPROVAL ( #181, ( #280 ) ) ;
#259 = COORDINATED_UNIVERSAL_TIME_OFFSET ( 1, 0, .AHEAD. ) ;
#260 = ORIENTED_EDGE ( 'NONE', *, *, #156, .F. ) ;
#261 = DATE_AND_TIME ( #45, #330 ) ;
#262 = ORIENTED_EDGE ( 'NONE', *, *, #251, .F. ) ;
#263 = AXIS2_PLACEMENT_3D ( 'NONE', #175, #254, #305 ) ;
#264 = ORIENTED_EDGE ( 'NONE', *, *, #298, .T. ) ;
#265 = PERSON_AND_ORGANIZATION ( #89, #184 ) ;
#266 = PERSON_AND_ORGANIZATION_ROLE ( 'design_owner' ) ;
#267 = ADVANCED_FACE ( 'NONE', ( #222 ), #148, .F. ) ;
#268 = VERTEX_POINT ( 'NONE', #17 ) ;
#269 = FACE_OUTER_BOUND ( 'NONE', #103, .T. ) ;
#270 = AXIS2_PLACEMENT_3D ( 'NONE', #171, #91, #144 ) ;
#271 = EDGE_LOOP ( 'NONE', ( #46, #21, #212 ) ) ;
#272 = ADVANCED_FACE ( 'NONE', ( #335 ), #94, .T. ) ;
#273 = CARTESIAN_POINT ( 'NONE',  ( 1.047995492712556201E-13, -0.4500000000000036748, 30.00000000000000000 ) ) ;
#274 = DIRECTION ( 'NONE',  ( -3.491481338843133355E-15, 1.224646799147353207E-16, -1.000000000000000000 ) ) ;
#275 = AXIS2_PLACEMENT_3D ( 'NONE', #142, #281, #41 ) ;
#276 = CARTESIAN_POINT ( 'NONE',  ( 2.779290439833008906E-31, 0.6499999999999966915, 7.960204194457756034E-17 ) ) ;
#277 = CARTESIAN_POINT ( 'NONE',  ( 0.0000000000000000000, 0.0000000000000000000, 0.0000000000000000000 ) ) ;
#278 = EDGE_CURVE ( 'NONE', #243, #123, #163, .T. ) ;
#279 = DIRECTION ( 'NONE',  ( 3.491481338843133355E-15, -1.224646799147353207E-16, 1.000000000000000000 ) ) ;
#280 = SECURITY_CLASSIFICATION ( '', '', #178 ) ;
#281 = DIRECTION ( 'NONE',  ( -3.491481338843133355E-15, 1.224646799147353207E-16, -1.000000000000000000 ) ) ;
#282 = UNCERTAINTY_MEASURE_WITH_UNIT (LENGTH_MEASURE( 1.000000000000000082E-05 ), #152, 'distance_accuracy_value', 'NONE');
#283 = EDGE_CURVE ( 'NONE', #268, #129, #24, .T. ) ;
#284 = CARTESIAN_POINT ( 'NONE',  ( 1.363630865077306273E-15, -4.782973219867718930E-17, 0.3905594023679163085 ) ) ;
#285 = FACE_OUTER_BOUND ( 'NONE', #153, .T. ) ;
#286 = APPLICATION_PROTOCOL_DEFINITION ( 'international standard', 'config_control_design', 1994, #33 ) ;
#287 = PRODUCT_DEFINITION ( 'UNKNOWN', '', #216, #147 ) ;
#288 = CIRCLE ( 'NONE', #69, 0.6499999999999972466 ) ;
#289 = COORDINATED_UNIVERSAL_TIME_OFFSET ( 1, 0, .AHEAD. ) ;
#290 = CALENDAR_DATE ( 2021, 3, 9 ) ;
#291 = CIRCLE ( 'NONE', #155, 0.4500000000000000111 ) ;
#292 = EDGE_CURVE ( 'NONE', #237, #209, #73, .T. ) ;
#293 = CARTESIAN_POINT ( 'NONE',  ( 1.047444401652940007E-13, 0.4499999999999962919, 30.00000000000000000 ) ) ;
#294 = ORIENTED_EDGE ( 'NONE', *, *, #82, .T. ) ;
#295 = DIRECTION ( 'NONE',  ( 0.0000000000000000000, 1.000000000000000000, 0.0000000000000000000 ) ) ;
#296 = CYLINDRICAL_SURFACE ( 'NONE', #312, 0.6499999999999966915 ) ;
#297 = VECTOR ( 'NONE', #57, 1000.000000000000114 ) ;
#298 = EDGE_CURVE ( 'NONE', #209, #237, #334, .T. ) ;
#299 = CC_DESIGN_SECURITY_CLASSIFICATION ( #280, ( #216 ) ) ;
#300 = CARTESIAN_POINT ( 'NONE',  ( 1.040461438975253740E-13, -3.649447461459112464E-15, 29.80000000000000071 ) ) ;
#301 = DIRECTION ( 'NONE',  ( -3.491481338843133355E-15, 1.224646799147353207E-16, -1.000000000000000000 ) ) ;
#302 = FACE_OUTER_BOUND ( 'NONE', #98, .T. ) ;
#303 = LOCAL_TIME ( 9, 48, 34.00000000000000000, #259 ) ;
#304 = DIRECTION ( 'NONE',  ( 0.0000000000000000000, 1.000000000000000000, 0.0000000000000000000 ) ) ;
#305 = DIRECTION ( 'NONE',  ( 0.0000000000000000000, 1.000000000000000000, 0.0000000000000000000 ) ) ;
#306 = CARTESIAN_POINT ( 'NONE',  ( 2.793185071074506684E-14, 0.6499999999999962474, 8.000000000000000000 ) ) ;
#307 = ADVANCED_FACE ( 'NONE', ( #61 ), #202, .T. ) ;
#308 = AXIS2_PLACEMENT_3D ( 'NONE', #336, #333, #253 ) ;
#309 = DIRECTION ( 'NONE',  ( -4.275831445896958607E-31, -1.000000000000000000, -1.224646799147353207E-16 ) ) ;
#310 = CARTESIAN_POINT ( 'NONE',  ( 2.793185071074506684E-14, -9.797174393178825657E-16, 8.000000000000000000 ) ) ;
#311 = APPROVAL_ROLE ( '' ) ;
#312 = AXIS2_PLACEMENT_3D ( 'NONE', #166, #274, #54 ) ;
#313 = PERSON_AND_ORGANIZATION ( #89, #184 ) ;
#314 = EDGE_CURVE ( 'NONE', #100, #123, #117, .T. ) ;
#315 = CLOSED_SHELL ( 'NONE', ( #76, #307, #233, #145, #114 ) ) ;
#316 = PERSON_AND_ORGANIZATION_ROLE ( 'classification_officer' ) ;
#317 = PERSON_AND_ORGANIZATION_ROLE ( 'creator' ) ;
#318 = ORIENTED_EDGE ( 'NONE', *, *, #104, .T. ) ;
#319 = EDGE_CURVE ( 'NONE', #268, #113, #2, .T. ) ;
#320 = AXIS2_PLACEMENT_3D ( 'NONE', #277, #118, #14 ) ;
#321 = ORIENTED_EDGE ( 'NONE', *, *, #278, .F. ) ;
#322 = CALENDAR_DATE ( 2021, 3, 9 ) ;
#323 = ORIENTED_EDGE ( 'NONE', *, *, #3, .T. ) ;
#324 = DIRECTION ( 'NONE',  ( 4.275831445896958607E-31, 1.000000000000000000, 1.224646799147353207E-16 ) ) ;
#325 = CARTESIAN_POINT ( 'NONE',  ( 1.040461438975253740E-13, 0.6499999999999962474, 29.80000000000000071 ) ) ;
#326 = APPROVAL_PERSON_ORGANIZATION ( #70, #181, #49 ) ;
#327 = ORIENTED_EDGE ( 'NONE', *, *, #292, .F. ) ;
#328 = ORIENTED_EDGE ( 'NONE', *, *, #128, .F. ) ;
#329 = DIRECTION ( 'NONE',  ( -3.491481338843133355E-15, 1.224646799147353207E-16, -1.000000000000000000 ) ) ;
#330 = LOCAL_TIME ( 9, 48, 34.00000000000000000, #289 ) ;
#331 = CARTESIAN_POINT ( 'NONE',  ( 1.047444401652940007E-13, -3.673940397442059178E-15, 30.00000000000000000 ) ) ;
#332 = DIRECTION ( 'NONE',  ( 1.903218546456022717E-15, 0.8571673007021097801, 0.5150380749100585964 ) ) ;
#333 = DIRECTION ( 'NONE',  ( -3.491481338843133355E-15, 1.224646799147353207E-16, -1.000000000000000000 ) ) ;
#334 = CIRCLE ( 'NONE', #263, 0.6499999999999972466 ) ;
#335 = FACE_OUTER_BOUND ( 'NONE', #183, .T. ) ;
#336 = CARTESIAN_POINT ( 'NONE',  ( 0.0000000000000000000, 0.0000000000000000000, 0.0000000000000000000 ) ) ;
#337 = COORDINATED_UNIVERSAL_TIME_OFFSET ( 1, 0, .AHEAD. ) ;
ENDSEC;
END-ISO-10303-21;
