ISO-10303-21;
HEADER;
FILE_DESCRIPTION (( 'STEP AP203' ),
    '1' );
FILE_NAME ('54495.step',
    '2021-09-03T07:48:32',
    ( '' ),
    ( '' ),
    'SwSTEP 2.0',
    'SolidWorks 2019',
    '' );
FILE_SCHEMA (( 'CONFIG_CONTROL_DESIGN' ));
ENDSEC;

DATA;
#1 = CIRCLE ( 'NONE', #270, 0.6249999999999963363 ) ;
#2 = DIRECTION ( 'NONE',  ( -3.491481338843133355E-15, 1.224646799147353207E-16, -1.000000000000000000 ) ) ;
#3 = LINE ( 'NONE', #5, #242 ) ;
#4 = CARTESIAN_POINT ( 'NONE',  ( 1.469805754237561922E-14, -0.6249999999999982236, 8.000000000000000000 ) ) ;
#5 = CARTESIAN_POINT ( 'NONE',  ( 1.047964876542577587E-13, -0.4250000000000037081, 30.00000000000000000 ) ) ;
#6 = AXIS2_PLACEMENT_3D ( 'NONE', #186, #51, #260 ) ;
#7 = ORIENTED_EDGE ( 'NONE', *, *, #35, .T. ) ;
#8 = EDGE_CURVE ( 'NONE', #279, #94, #24, .T. ) ;
#9 = CARTESIAN_POINT ( 'NONE',  ( 2.793185071074506684E-14, 0.6249999999999963363, 8.000000000000000000 ) ) ;
#10 = CONICAL_SURFACE ( 'NONE', #134, 0.6249999999999963363, 1.029744258676649649 ) ;
#11 = PERSON_AND_ORGANIZATION_ROLE ( 'design_owner' ) ;
#12 = ORIENTED_EDGE ( 'NONE', *, *, #138, .T. ) ;
#13 = CARTESIAN_POINT ( 'NONE',  ( 1.047444401652940007E-13, -3.673940397442059178E-15, 30.00000000000000000 ) ) ;
#14 = APPROVAL_DATE_TIME ( #64, #336 ) ;
#15 = EDGE_LOOP ( 'NONE', ( #225, #7, #229, #199 ) ) ;
#16 = AXIS2_PLACEMENT_3D ( 'NONE', #197, #334, #300 ) ;
#17 = SHAPE_DEFINITION_REPRESENTATION ( #220, #216 ) ;
#18 = ORIENTED_EDGE ( 'NONE', *, *, #226, .T. ) ;
#19 = APPROVAL_STATUS ( 'not_yet_approved' ) ;
#20 = ADVANCED_FACE ( 'NONE', ( #231 ), #65, .F. ) ;
#21 = VERTEX_POINT ( 'NONE', #171 ) ;
#22 = SECURITY_CLASSIFICATION_LEVEL ( 'unclassified' ) ;
#23 = ORIENTED_EDGE ( 'NONE', *, *, #304, .T. ) ;
#24 = CIRCLE ( 'NONE', #16, 0.6250000000000000000 ) ;
#25 = VERTEX_POINT ( 'NONE', #119 ) ;
#26 = DIRECTION ( 'NONE',  ( -3.491481338843133355E-15, 1.224646799147353207E-16, -1.000000000000000000 ) ) ;
#27 = CARTESIAN_POINT ( 'NONE',  ( 2.672394653685585773E-31, 0.6249999999999968914, 7.654042494670918410E-17 ) ) ;
#28 = LOCAL_TIME ( 9, 48, 32.00000000000000000, #230 ) ;
#29 = CARTESIAN_POINT ( 'NONE',  ( 1.387723949059503931E-15, 0.6249999999999963363, 0.3755378868922272240 ) ) ;
#30 = DIRECTION ( 'NONE',  ( 4.275831445896958607E-31, 1.000000000000000000, 1.224646799147352961E-16 ) ) ;
#31 = ADVANCED_FACE ( 'NONE', ( #328 ), #90, .F. ) ;
#32 = DIRECTION ( 'NONE',  ( -3.491481338843133355E-15, 1.224646799147353207E-16, -1.000000000000000000 ) ) ;
#33 = FACE_OUTER_BOUND ( 'NONE', #155, .T. ) ;
#34 = AXIS2_PLACEMENT_3D ( 'NONE', #287, #57, #30 ) ;
#35 = EDGE_CURVE ( 'NONE', #25, #21, #56, .T. ) ;
#36 = DIRECTION ( 'NONE',  ( 1.903218546456022717E-15, 0.8571673007021097801, 0.5150380749100585964 ) ) ;
#37 = DIRECTION ( 'NONE',  ( 0.0000000000000000000, 0.0000000000000000000, 1.000000000000000000 ) ) ;
#38 = PERSON_AND_ORGANIZATION ( #187, #318 ) ;
#39 = AXIS2_PLACEMENT_3D ( 'NONE', #107, #246, #62 ) ;
#40 = DATE_TIME_ROLE ( 'classification_date' ) ;
#41 = COORDINATED_UNIVERSAL_TIME_OFFSET ( 1, 0, .AHEAD. ) ;
#42 = EDGE_LOOP ( 'NONE', ( #156, #46 ) ) ;
#43 = ADVANCED_FACE ( 'NONE', ( #211 ), #157, .T. ) ;
#44 = ORIENTED_EDGE ( 'NONE', *, *, #49, .T. ) ;
#45 = PERSON_AND_ORGANIZATION ( #187, #318 ) ;
#46 = ORIENTED_EDGE ( 'NONE', *, *, #331, .F. ) ;
#47 = APPROVAL_DATE_TIME ( #253, #84 ) ;
#48 = VERTEX_POINT ( 'NONE', #4 ) ;
#49 = EDGE_CURVE ( 'NONE', #25, #94, #3, .T. ) ;
#50 = CONICAL_SURFACE ( 'NONE', #39, 0.6249999999999963363, 1.029744258676649649 ) ;
#51 = DIRECTION ( 'NONE',  ( -3.491481338843133355E-15, 1.224646799147353207E-16, -1.000000000000000000 ) ) ;
#52 = PLANE ( 'NONE',  #193 ) ;
#53 = DIRECTION ( 'NONE',  ( 0.0000000000000000000, 1.000000000000000000, 0.0000000000000000000 ) ) ;
#54 = APPLICATION_CONTEXT ( 'configuration controlled 3d designs of mechanical parts and assemblies' ) ;
#55 = APPROVAL ( #19, 'UNSPECIFIED' ) ;
#56 = CIRCLE ( 'NONE', #207, 0.4250000000000000444 ) ;
#57 = DIRECTION ( 'NONE',  ( -3.491481338843133355E-15, 1.224646799147353207E-16, -1.000000000000000000 ) ) ;
#58 = DIRECTION ( 'NONE',  ( -3.491481338843133355E-15, 1.224646799147353207E-16, -1.000000000000000000 ) ) ;
#59 = CARTESIAN_POINT ( 'NONE',  ( 0.0000000000000000000, 0.0000000000000000000, 0.0000000000000000000 ) ) ;
#60 = DIRECTION ( 'NONE',  ( -3.491481338843133355E-15, 1.224646799147353207E-16, -1.000000000000000000 ) ) ;
#61 = AXIS2_PLACEMENT_3D ( 'NONE', #313, #127, #131 ) ;
#62 = DIRECTION ( 'NONE',  ( -3.081487911019595319E-31, -1.000000000000000000, -8.673617379884086008E-17 ) ) ;
#63 = AXIS2_PLACEMENT_3D ( 'NONE', #13, #241, #222 ) ;
#64 = DATE_AND_TIME ( #299, #28 ) ;
#65 = PLANE ( 'NONE',  #92 ) ;
#66 = CARTESIAN_POINT ( 'NONE',  ( 2.793185071074506684E-14, 4.686749320818270129E-33, 8.000000000000000000 ) ) ;
#67 = CC_DESIGN_APPROVAL ( #336, ( #132 ) ) ;
#68 = CC_DESIGN_APPROVAL ( #55, ( #232 ) ) ;
#69 = EDGE_LOOP ( 'NONE', ( #203, #122, #215 ) ) ;
#70 = DATE_AND_TIME ( #273, #217 ) ;
#71 = ORIENTED_EDGE ( 'NONE', *, *, #165, .F. ) ;
#72 = ORIENTED_EDGE ( 'NONE', *, *, #331, .T. ) ;
#73 = AXIS2_PLACEMENT_3D ( 'NONE', #78, #315, #53 ) ;
#74 = DIRECTION ( 'NONE',  ( -3.491481338843133355E-15, 1.224646799147353207E-16, -1.000000000000000000 ) ) ;
#75 = DIRECTION ( 'NONE',  ( 0.0000000000000000000, 1.000000000000000000, 0.0000000000000000000 ) ) ;
#76 = ADVANCED_FACE ( 'NONE', ( #238 ), #10, .T. ) ;
#77 = CYLINDRICAL_SURFACE ( 'NONE', #34, 0.6249999999999968914 ) ;
#78 = CARTESIAN_POINT ( 'NONE',  ( 1.040461438975253740E-13, -3.649447461459112464E-15, 29.80000000000000071 ) ) ;
#79 = EDGE_CURVE ( 'NONE', #279, #301, #285, .T. ) ;
#80 = LINE ( 'NONE', #99, #324 ) ;
#81 =( LENGTH_UNIT ( ) NAMED_UNIT ( * ) SI_UNIT ( .MILLI., .METRE. ) );
#82 = DIRECTION ( 'NONE',  ( -3.491481338843133355E-15, 1.224646799147353207E-16, -1.000000000000000000 ) ) ;
#83 = EDGE_LOOP ( 'NONE', ( #201, #126, #269, #89 ) ) ;
#84 = APPROVAL ( #121, 'UNSPECIFIED' ) ;
#85 = CARTESIAN_POINT ( 'NONE',  ( 2.793185071074506684E-14, -9.797174393178825657E-16, 8.000000000000000000 ) ) ;
#86 = CARTESIAN_POINT ( 'NONE',  ( 6.606553772908188886E-14, -0.6249999999999982236, 8.000000000000000000 ) ) ;
#87 = CONICAL_SURFACE ( 'NONE', #308, 0.4250000000000000444, 0.7853981633974512766 ) ;
#88 = DATE_TIME_ROLE ( 'creation_date' ) ;
#89 = ORIENTED_EDGE ( 'NONE', *, *, #138, .F. ) ;
#90 = PLANE ( 'NONE',  #282 ) ;
#91 = EDGE_LOOP ( 'NONE', ( #175, #152, #149, #233 ) ) ;
#92 = AXIS2_PLACEMENT_3D ( 'NONE', #66, #254, #281 ) ;
#93 = PERSON_AND_ORGANIZATION ( #187, #318 ) ;
#94 = VERTEX_POINT ( 'NONE', #182 ) ;
#95 = VERTEX_POINT ( 'NONE', #29 ) ;
#96 = FACE_OUTER_BOUND ( 'NONE', #42, .T. ) ;
#97 = CARTESIAN_POINT ( 'NONE',  ( 0.0000000000000000000, 0.0000000000000000000, 0.0000000000000000000 ) ) ;
#98 = EDGE_CURVE ( 'NONE', #94, #279, #124, .T. ) ;
#99 = CARTESIAN_POINT ( 'NONE',  ( 7.654042494670892525E-17, -0.6249999999999968914, -7.654042494670945527E-17 ) ) ;
#100 = CARTESIAN_POINT ( 'NONE',  ( 1.311183524112794463E-15, -4.599012711411267491E-17, 0.3755378868922271685 ) ) ;
#101 = PRODUCT ( '54495', '54495', '', ( #190 ) ) ;
#102 = CIRCLE ( 'NONE', #63, 0.4250000000000000444 ) ;
#103 = CARTESIAN_POINT ( 'NONE',  ( 2.793185071074506684E-14, -9.797174393178825657E-16, 8.000000000000000000 ) ) ;
#104 = LINE ( 'NONE', #163, #258 ) ;
#105 = ORIENTED_EDGE ( 'NONE', *, *, #174, .T. ) ;
#106 = LINE ( 'NONE', #272, #223 ) ;
#107 = CARTESIAN_POINT ( 'NONE',  ( 1.311183524112794463E-15, -4.599012711411267491E-17, 0.3755378868922271685 ) ) ;
#108 = AXIS2_PLACEMENT_3D ( 'NONE', #161, #265, #294 ) ;
#109 = CC_DESIGN_PERSON_AND_ORGANIZATION_ASSIGNMENT ( #45, #194, ( #132 ) ) ;
#110 = CARTESIAN_POINT ( 'NONE',  ( 1.311183524112794463E-15, -4.599012711411267491E-17, 0.3755378868922271685 ) ) ;
#111 = DIRECTION ( 'NONE',  ( 3.081487911019595319E-31, 1.000000000000000000, 8.673617379884086008E-17 ) ) ;
#112 = MANIFOLD_SOLID_BREP ( 'Corps-Déplacer/Copier1[1]', #266 ) ;
#113 = EDGE_CURVE ( 'NONE', #48, #178, #80, .T. ) ;
#114 = APPROVAL_ROLE ( '' ) ;
#115 = ORIENTED_EDGE ( 'NONE', *, *, #200, .T. ) ;
#116 = AXIS2_PLACEMENT_3D ( 'NONE', #110, #291, #189 ) ;
#117 = SECURITY_CLASSIFICATION ( '', '', #22 ) ;
#118 = APPROVAL_STATUS ( 'not_yet_approved' ) ;
#119 = CARTESIAN_POINT ( 'NONE',  ( 1.044595859883649100E-13, -0.4250000000000037081, 30.00000000000000000 ) ) ;
#120 = DIRECTION ( 'NONE',  ( -3.491481338843133355E-15, 1.224646799147353207E-16, -1.000000000000000000 ) ) ;
#121 = APPROVAL_STATUS ( 'not_yet_approved' ) ;
#122 = ORIENTED_EDGE ( 'NONE', *, *, #210, .T. ) ;
#123 = CIRCLE ( 'NONE', #116, 0.6249999999999963363 ) ;
#124 = CIRCLE ( 'NONE', #73, 0.6250000000000000000 ) ;
#125 = APPROVAL_PERSON_ORGANIZATION ( #93, #55, #196 ) ;
#126 = ORIENTED_EDGE ( 'NONE', *, *, #113, .T. ) ;
#127 = DIRECTION ( 'NONE',  ( -3.491481338843133355E-15, 1.224646799147353207E-16, -1.000000000000000000 ) ) ;
#128 = ADVANCED_FACE ( 'NONE', ( #180 ), #206, .T. ) ;
#129 = DIRECTION ( 'NONE',  ( 3.491481338843133355E-15, -1.224646799147353207E-16, 1.000000000000000000 ) ) ;
#130 = DIRECTION ( 'NONE',  ( 0.0000000000000000000, 1.000000000000000000, 0.0000000000000000000 ) ) ;
#131 = DIRECTION ( 'NONE',  ( 0.0000000000000000000, 1.000000000000000000, 0.0000000000000000000 ) ) ;
#132 = PRODUCT_DEFINITION ( 'UNKNOWN', '', #232, #198 ) ;
#133 = LINE ( 'NONE', #239, #142 ) ;
#134 = AXIS2_PLACEMENT_3D ( 'NONE', #100, #158, #160 ) ;
#135 = LOCAL_TIME ( 9, 48, 32.00000000000000000, #298 ) ;
#136 = DIRECTION ( 'NONE',  ( 0.0000000000000000000, 1.000000000000000000, 0.0000000000000000000 ) ) ;
#137 = CARTESIAN_POINT ( 'NONE',  ( 1.047444401652940007E-13, -3.673940397442059178E-15, 30.00000000000000000 ) ) ;
#138 = EDGE_CURVE ( 'NONE', #330, #95, #185, .T. ) ;
#139 = DIRECTION ( 'NONE',  ( 4.275831445896958607E-31, 1.000000000000000000, 1.224646799147352961E-16 ) ) ;
#140 = EDGE_LOOP ( 'NONE', ( #105, #115 ) ) ;
#141 = CARTESIAN_POINT ( 'NONE',  ( 1.311183524112794463E-15, -4.599012711411267491E-17, 0.3755378868922271685 ) ) ;
#142 = VECTOR ( 'NONE', #208, 1000.000000000000114 ) ;
#143 = LOCAL_TIME ( 9, 48, 32.00000000000000000, #148 ) ;
#144 = CARTESIAN_POINT ( 'NONE',  ( 0.0000000000000000000, 0.0000000000000000000, 0.0000000000000000000 ) ) ;
#145 = ADVANCED_FACE ( 'NONE', ( #96 ), #52, .T. ) ;
#146 = APPLICATION_PROTOCOL_DEFINITION ( 'international standard', 'config_control_design', 1994, #54 ) ;
#147 = ORIENTED_EDGE ( 'NONE', *, *, #293, .F. ) ;
#148 = COORDINATED_UNIVERSAL_TIME_OFFSET ( 1, 0, .AHEAD. ) ;
#149 = ORIENTED_EDGE ( 'NONE', *, *, #174, .F. ) ;
#150 = VECTOR ( 'NONE', #289, 1000.000000000000000 ) ;
#151 = COORDINATED_UNIVERSAL_TIME_OFFSET ( 1, 0, .AHEAD. ) ;
#152 = ORIENTED_EDGE ( 'NONE', *, *, #154, .T. ) ;
#153 = PERSON_AND_ORGANIZATION_ROLE ( 'design_supplier' ) ;
#154 = EDGE_CURVE ( 'NONE', #94, #259, #311, .T. ) ;
#155 = EDGE_LOOP ( 'NONE', ( #18, #44, #283, #71 ) ) ;
#156 = ORIENTED_EDGE ( 'NONE', *, *, #184, .F. ) ;
#157 = CONICAL_SURFACE ( 'NONE', #61, 0.4250000000000000444, 0.7853981633974512766 ) ;
#158 = DIRECTION ( 'NONE',  ( 3.491481338843133355E-15, -1.224646799147353207E-16, 1.000000000000000000 ) ) ;
#159 = DIRECTION ( 'NONE',  ( 4.275831445896958607E-31, 1.000000000000000000, 1.224646799147353207E-16 ) ) ;
#160 = DIRECTION ( 'NONE',  ( -3.081487911019595319E-31, -1.000000000000000000, -8.673617379884086008E-17 ) ) ;
#161 = CARTESIAN_POINT ( 'NONE',  ( 2.793185071074506684E-14, -9.797174393178825657E-16, 8.000000000000000000 ) ) ;
#162 = CARTESIAN_POINT ( 'NONE',  ( 7.654042494670914712E-17, -0.6249999999999985567, -7.654042494670966481E-17 ) ) ;
#163 = CARTESIAN_POINT ( 'NONE',  ( 1.311183524112794266E-15, -0.6249999999999963363, 0.3755378868922271129 ) ) ;
#164 = AXIS2_PLACEMENT_3D ( 'NONE', #85, #60, #214 ) ;
#165 = EDGE_CURVE ( 'NONE', #21, #279, #133, .T. ) ;
#166 = CARTESIAN_POINT ( 'NONE',  ( 2.793185071074506684E-14, 0.6249999999999963363, 8.000000000000000000 ) ) ;
#167 = AXIS2_PLACEMENT_3D ( 'NONE', #323, #316, #139 ) ;
#168 = ADVANCED_FACE ( 'NONE', ( #309 ), #209, .T. ) ;
#169 = DATE_AND_TIME ( #280, #135 ) ;
#170 = CALENDAR_DATE ( 2021, 3, 9 ) ;
#171 = CARTESIAN_POINT ( 'NONE',  ( 1.047444401652940007E-13, 0.4249999999999963252, 30.00000000000000000 ) ) ;
#172 = ORIENTED_EDGE ( 'NONE', *, *, #154, .F. ) ;
#173 = APPROVAL_PERSON_ORGANIZATION ( #224, #336, #114 ) ;
#174 = EDGE_CURVE ( 'NONE', #301, #259, #332, .T. ) ;
#175 = ORIENTED_EDGE ( 'NONE', *, *, #8, .T. ) ;
#176 = PERSON_AND_ORGANIZATION ( #187, #318 ) ;
#177 = EDGE_LOOP ( 'NONE', ( #227, #23, #335 ) ) ;
#178 = VERTEX_POINT ( 'NONE', #235 ) ;
#179 = AXIS2_PLACEMENT_3D ( 'NONE', #103, #74, #130 ) ;
#180 = FACE_OUTER_BOUND ( 'NONE', #91, .T. ) ;
#181 = DIRECTION ( 'NONE',  ( 0.0000000000000000000, 1.000000000000000000, 0.0000000000000000000 ) ) ;
#182 = CARTESIAN_POINT ( 'NONE',  ( 6.606553772908175002E-14, -0.6250000000000037748, 29.80000000000000071 ) ) ;
#183 = CIRCLE ( 'NONE', #108, 0.6249999999999973355 ) ;
#184 = EDGE_CURVE ( 'NONE', #330, #48, #250, .T. ) ;
#185 = LINE ( 'NONE', #27, #302 ) ;
#186 = CARTESIAN_POINT ( 'NONE',  ( 0.0000000000000000000, 0.0000000000000000000, 0.0000000000000000000 ) ) ;
#187 = PERSON ( 'UNSPECIFIED', 'UNSPECIFIED', 'UNSPECIFIED', ('UNSPECIFIED'), ('UNSPECIFIED'), ('UNSPECIFIED') ) ;
#188 = PRODUCT_RELATED_PRODUCT_CATEGORY ( 'detail', '', ( #101 ) ) ;
#189 = DIRECTION ( 'NONE',  ( 3.081487911019595319E-31, 1.000000000000000000, 8.673617379884086008E-17 ) ) ;
#190 = MECHANICAL_CONTEXT ( 'NONE', #290, 'mechanical' ) ;
#191 = ADVANCED_FACE ( 'NONE', ( #312 ), #77, .T. ) ;
#192 = CYLINDRICAL_SURFACE ( 'NONE', #167, 0.6249999999999968914 ) ;
#193 = AXIS2_PLACEMENT_3D ( 'NONE', #234, #129, #337 ) ;
#194 = PERSON_AND_ORGANIZATION_ROLE ( 'creator' ) ;
#195 = CC_DESIGN_SECURITY_CLASSIFICATION ( #117, ( #232 ) ) ;
#196 = APPROVAL_ROLE ( '' ) ;
#197 = CARTESIAN_POINT ( 'NONE',  ( 1.040461438975253740E-13, -3.649447461459112464E-15, 29.80000000000000071 ) ) ;
#198 = DESIGN_CONTEXT ( 'detailed design', #54, 'design' ) ;
#199 = ORIENTED_EDGE ( 'NONE', *, *, #98, .F. ) ;
#200 = EDGE_CURVE ( 'NONE', #259, #301, #183, .T. ) ;
#201 = ORIENTED_EDGE ( 'NONE', *, *, #184, .T. ) ;
#202 = APPROVAL_DATE_TIME ( #169, #55 ) ;
#203 = ORIENTED_EDGE ( 'NONE', *, *, #304, .F. ) ;
#204 = CC_DESIGN_DATE_AND_TIME_ASSIGNMENT ( #70, #40, ( #117 ) ) ;
#205 = ORIENTED_EDGE ( 'NONE', *, *, #226, .F. ) ;
#206 = CYLINDRICAL_SURFACE ( 'NONE', #6, 0.6249999999999985567 ) ;
#207 = AXIS2_PLACEMENT_3D ( 'NONE', #237, #286, #75 ) ;
#208 = DIRECTION ( 'NONE',  ( -2.468850131082257455E-15, 0.7071067811865497932, -0.7071067811865453523 ) ) ;
#209 = CYLINDRICAL_SURFACE ( 'NONE', #212, 0.6249999999999985567 ) ;
#210 = EDGE_CURVE ( 'NONE', #248, #95, #106, .T. ) ;
#211 = FACE_OUTER_BOUND ( 'NONE', #15, .T. ) ;
#212 = AXIS2_PLACEMENT_3D ( 'NONE', #97, #263, #261 ) ;
#213 = CARTESIAN_POINT ( 'NONE',  ( 2.793185071074506684E-14, -9.797174393178825657E-16, 8.000000000000000000 ) ) ;
#214 = DIRECTION ( 'NONE',  ( 0.0000000000000000000, 1.000000000000000000, 0.0000000000000000000 ) ) ;
#215 = ORIENTED_EDGE ( 'NONE', *, *, #245, .T. ) ;
#216 = ADVANCED_BREP_SHAPE_REPRESENTATION ( '54495', ( #112, #228, #277 ), #236 ) ;
#217 = LOCAL_TIME ( 9, 48, 32.00000000000000000, #41 ) ;
#218 = DIRECTION ( 'NONE',  ( 1.000000000000000000, 0.0000000000000000000, 0.0000000000000000000 ) ) ;
#219 = DIRECTION ( 'NONE',  ( 1.798245827342160317E-15, -0.8571673007021098911, 0.5150380749100582634 ) ) ;
#220 = PRODUCT_DEFINITION_SHAPE ( 'NONE', 'NONE',  #132 ) ;
#221 = CC_DESIGN_DATE_AND_TIME_ASSIGNMENT ( #325, #88, ( #132 ) ) ;
#222 = DIRECTION ( 'NONE',  ( 0.0000000000000000000, 1.000000000000000000, 0.0000000000000000000 ) ) ;
#223 = VECTOR ( 'NONE', #36, 999.9999999999998863 ) ;
#224 = PERSON_AND_ORGANIZATION ( #187, #318 ) ;
#225 = ORIENTED_EDGE ( 'NONE', *, *, #49, .F. ) ;
#226 = EDGE_CURVE ( 'NONE', #21, #25, #102, .T. ) ;
#227 = ORIENTED_EDGE ( 'NONE', *, *, #210, .F. ) ;
#228 = MANIFOLD_SOLID_BREP ( 'Corps-Déplacer/Copier1[2]', #288 ) ;
#229 = ORIENTED_EDGE ( 'NONE', *, *, #165, .T. ) ;
#230 = COORDINATED_UNIVERSAL_TIME_OFFSET ( 1, 0, .AHEAD. ) ;
#231 = FACE_OUTER_BOUND ( 'NONE', #140, .T. ) ;
#232 = PRODUCT_DEFINITION_FORMATION_WITH_SPECIFIED_SOURCE ( 'ANY', '', #101, .NOT_KNOWN. ) ;
#233 = ORIENTED_EDGE ( 'NONE', *, *, #79, .F. ) ;
#234 = CARTESIAN_POINT ( 'NONE',  ( 2.793185071074506684E-14, 4.686749320818270129E-33, 8.000000000000000000 ) ) ;
#235 = CARTESIAN_POINT ( 'NONE',  ( 1.311183524112794266E-15, -0.6249999999999963363, 0.3755378868922271129 ) ) ;
#236 =( GEOMETRIC_REPRESENTATION_CONTEXT ( 3 ) GLOBAL_UNCERTAINTY_ASSIGNED_CONTEXT ( ( #327 ) ) GLOBAL_UNIT_ASSIGNED_CONTEXT ( ( #81, #292, #267 ) ) REPRESENTATION_CONTEXT ( 'NONE', 'WORKASPACE' ) );
#237 = CARTESIAN_POINT ( 'NONE',  ( 1.047444401652940007E-13, -3.673940397442059178E-15, 30.00000000000000000 ) ) ;
#238 = FACE_OUTER_BOUND ( 'NONE', #177, .T. ) ;
#239 = CARTESIAN_POINT ( 'NONE',  ( 1.047444401652940007E-13, 0.4249999999999963252, 30.00000000000000000 ) ) ;
#240 = ADVANCED_FACE ( 'NONE', ( #295 ), #50, .T. ) ;
#241 = DIRECTION ( 'NONE',  ( -3.491481338843133355E-15, 1.224646799147353207E-16, -1.000000000000000000 ) ) ;
#242 = VECTOR ( 'NONE', #262, 1000.000000000000114 ) ;
#243 = CC_DESIGN_APPROVAL ( #84, ( #117 ) ) ;
#244 = DIRECTION ( 'NONE',  ( -3.491481338843133355E-15, 1.224646799147353207E-16, -1.000000000000000000 ) ) ;
#245 = EDGE_CURVE ( 'NONE', #95, #178, #1, .T. ) ;
#246 = DIRECTION ( 'NONE',  ( 3.491481338843133355E-15, -1.224646799147353207E-16, 1.000000000000000000 ) ) ;
#247 = APPROVAL_ROLE ( '' ) ;
#248 = VERTEX_POINT ( 'NONE', #59 ) ;
#249 = CC_DESIGN_PERSON_AND_ORGANIZATION_ASSIGNMENT ( #305, #333, ( #117 ) ) ;
#250 = CIRCLE ( 'NONE', #314, 0.6249999999999973355 ) ;
#251 = CALENDAR_DATE ( 2021, 3, 9 ) ;
#252 = ORIENTED_EDGE ( 'NONE', *, *, #113, .F. ) ;
#253 = DATE_AND_TIME ( #251, #143 ) ;
#254 = DIRECTION ( 'NONE',  ( 3.491481338843133355E-15, -1.224646799147353207E-16, 1.000000000000000000 ) ) ;
#255 = PERSON_AND_ORGANIZATION_ROLE ( 'creator' ) ;
#256 = ORIENTED_EDGE ( 'NONE', *, *, #79, .T. ) ;
#257 = ADVANCED_FACE ( 'NONE', ( #321 ), #192, .T. ) ;
#258 = VECTOR ( 'NONE', #219, 1000.000000000000000 ) ;
#259 = VERTEX_POINT ( 'NONE', #86 ) ;
#260 = DIRECTION ( 'NONE',  ( 4.275831445896958607E-31, 1.000000000000000000, 1.224646799147353207E-16 ) ) ;
#261 = DIRECTION ( 'NONE',  ( 4.275831445896958607E-31, 1.000000000000000000, 1.224646799147353207E-16 ) ) ;
#262 = DIRECTION ( 'NONE',  ( -2.382254525458708792E-15, -0.7071067811865495711, -0.7071067811865455743 ) ) ;
#263 = DIRECTION ( 'NONE',  ( -3.491481338843133355E-15, 1.224646799147353207E-16, -1.000000000000000000 ) ) ;
#264 = CARTESIAN_POINT ( 'NONE',  ( 2.672394653685593217E-31, 0.6249999999999985567, 7.654042494670940597E-17 ) ) ;
#265 = DIRECTION ( 'NONE',  ( -3.491481338843133355E-15, 1.224646799147353207E-16, -1.000000000000000000 ) ) ;
#266 = CLOSED_SHELL ( 'NONE', ( #322, #128, #20, #168, #43, #31 ) ) ;
#267 =( NAMED_UNIT ( * ) SI_UNIT ( $, .STERADIAN. ) SOLID_ANGLE_UNIT ( ) );
#268 = CC_DESIGN_PERSON_AND_ORGANIZATION_ASSIGNMENT ( #275, #153, ( #232 ) ) ;
#269 = ORIENTED_EDGE ( 'NONE', *, *, #245, .F. ) ;
#270 = AXIS2_PLACEMENT_3D ( 'NONE', #141, #82, #111 ) ;
#271 = VECTOR ( 'NONE', #32, 1000.000000000000000 ) ;
#272 = CARTESIAN_POINT ( 'NONE',  ( 1.387723949059503931E-15, 0.6249999999999963363, 0.3755378868922272240 ) ) ;
#273 = CALENDAR_DATE ( 2021, 3, 9 ) ;
#274 = CC_DESIGN_PERSON_AND_ORGANIZATION_ASSIGNMENT ( #329, #255, ( #232 ) ) ;
#275 = PERSON_AND_ORGANIZATION ( #187, #318 ) ;
#276 = ORIENTED_EDGE ( 'NONE', *, *, #35, .F. ) ;
#277 = AXIS2_PLACEMENT_3D ( 'NONE', #144, #37, #218 ) ;
#278 = CARTESIAN_POINT ( 'NONE',  ( 1.047444401652940007E-13, 3.186989538156391994E-33, 30.00000000000000000 ) ) ;
#279 = VERTEX_POINT ( 'NONE', #317 ) ;
#280 = CALENDAR_DATE ( 2021, 3, 9 ) ;
#281 = DIRECTION ( 'NONE',  ( -4.275831445896958607E-31, -1.000000000000000000, -1.224646799147353207E-16 ) ) ;
#282 = AXIS2_PLACEMENT_3D ( 'NONE', #278, #120, #159 ) ;
#283 = ORIENTED_EDGE ( 'NONE', *, *, #8, .F. ) ;
#284 = LOCAL_TIME ( 9, 48, 32.00000000000000000, #151 ) ;
#285 = LINE ( 'NONE', #264, #150 ) ;
#286 = DIRECTION ( 'NONE',  ( -3.491481338843133355E-15, 1.224646799147353207E-16, -1.000000000000000000 ) ) ;
#287 = CARTESIAN_POINT ( 'NONE',  ( 0.0000000000000000000, 0.0000000000000000000, 0.0000000000000000000 ) ) ;
#288 = CLOSED_SHELL ( 'NONE', ( #257, #240, #76, #191, #145 ) ) ;
#289 = DIRECTION ( 'NONE',  ( -3.491481338843133355E-15, 1.224646799147353207E-16, -1.000000000000000000 ) ) ;
#290 = APPLICATION_CONTEXT ( 'configuration controlled 3d designs of mechanical parts and assemblies' ) ;
#291 = DIRECTION ( 'NONE',  ( -3.491481338843133355E-15, 1.224646799147353207E-16, -1.000000000000000000 ) ) ;
#292 =( NAMED_UNIT ( * ) PLANE_ANGLE_UNIT ( ) SI_UNIT ( $, .RADIAN. ) );
#293 = EDGE_CURVE ( 'NONE', #178, #95, #123, .T. ) ;
#294 = DIRECTION ( 'NONE',  ( 0.0000000000000000000, 1.000000000000000000, 0.0000000000000000000 ) ) ;
#295 = FACE_OUTER_BOUND ( 'NONE', #69, .T. ) ;
#296 = CIRCLE ( 'NONE', #164, 0.6249999999999973355 ) ;
#297 = APPROVAL_PERSON_ORGANIZATION ( #176, #84, #247 ) ;
#298 = COORDINATED_UNIVERSAL_TIME_OFFSET ( 1, 0, .AHEAD. ) ;
#299 = CALENDAR_DATE ( 2021, 3, 9 ) ;
#300 = DIRECTION ( 'NONE',  ( 0.0000000000000000000, 1.000000000000000000, 0.0000000000000000000 ) ) ;
#301 = VERTEX_POINT ( 'NONE', #9 ) ;
#302 = VECTOR ( 'NONE', #26, 1000.000000000000000 ) ;
#303 = ORIENTED_EDGE ( 'NONE', *, *, #98, .T. ) ;
#304 = EDGE_CURVE ( 'NONE', #248, #178, #104, .T. ) ;
#305 = PERSON_AND_ORGANIZATION ( #187, #318 ) ;
#306 = EDGE_LOOP ( 'NONE', ( #172, #303, #256, #320 ) ) ;
#307 = EDGE_LOOP ( 'NONE', ( #252, #72, #12, #147 ) ) ;
#308 = AXIS2_PLACEMENT_3D ( 'NONE', #137, #244, #136 ) ;
#309 = FACE_OUTER_BOUND ( 'NONE', #306, .T. ) ;
#310 = CC_DESIGN_PERSON_AND_ORGANIZATION_ASSIGNMENT ( #38, #11, ( #101 ) ) ;
#311 = LINE ( 'NONE', #162, #271 ) ;
#312 = FACE_OUTER_BOUND ( 'NONE', #307, .T. ) ;
#313 = CARTESIAN_POINT ( 'NONE',  ( 1.047444401652940007E-13, -3.673940397442059178E-15, 30.00000000000000000 ) ) ;
#314 = AXIS2_PLACEMENT_3D ( 'NONE', #213, #2, #181 ) ;
#315 = DIRECTION ( 'NONE',  ( -3.491481338843133355E-15, 1.224646799147353207E-16, -1.000000000000000000 ) ) ;
#316 = DIRECTION ( 'NONE',  ( -3.491481338843133355E-15, 1.224646799147353207E-16, -1.000000000000000000 ) ) ;
#317 = CARTESIAN_POINT ( 'NONE',  ( 1.040461438975253740E-13, 0.6249999999999963363, 29.80000000000000071 ) ) ;
#318 = ORGANIZATION ( 'UNSPECIFIED', 'UNSPECIFIED', '' ) ;
#319 = APPLICATION_PROTOCOL_DEFINITION ( 'international standard', 'config_control_design', 1994, #290 ) ;
#320 = ORIENTED_EDGE ( 'NONE', *, *, #200, .F. ) ;
#321 = FACE_OUTER_BOUND ( 'NONE', #83, .T. ) ;
#322 = ADVANCED_FACE ( 'NONE', ( #33 ), #87, .T. ) ;
#323 = CARTESIAN_POINT ( 'NONE',  ( 0.0000000000000000000, 0.0000000000000000000, 0.0000000000000000000 ) ) ;
#324 = VECTOR ( 'NONE', #58, 1000.000000000000000 ) ;
#325 = DATE_AND_TIME ( #170, #284 ) ;
#326 = EDGE_LOOP ( 'NONE', ( #205, #276 ) ) ;
#327 = UNCERTAINTY_MEASURE_WITH_UNIT (LENGTH_MEASURE( 1.000000000000000082E-05 ), #81, 'distance_accuracy_value', 'NONE');
#328 = FACE_OUTER_BOUND ( 'NONE', #326, .T. ) ;
#329 = PERSON_AND_ORGANIZATION ( #187, #318 ) ;
#330 = VERTEX_POINT ( 'NONE', #166 ) ;
#331 = EDGE_CURVE ( 'NONE', #48, #330, #296, .T. ) ;
#332 = CIRCLE ( 'NONE', #179, 0.6249999999999973355 ) ;
#333 = PERSON_AND_ORGANIZATION_ROLE ( 'classification_officer' ) ;
#334 = DIRECTION ( 'NONE',  ( -3.491481338843133355E-15, 1.224646799147353207E-16, -1.000000000000000000 ) ) ;
#335 = ORIENTED_EDGE ( 'NONE', *, *, #293, .T. ) ;
#336 = APPROVAL ( #118, 'UNSPECIFIED' ) ;
#337 = DIRECTION ( 'NONE',  ( -4.275831445896958607E-31, -1.000000000000000000, -1.224646799147353207E-16 ) ) ;
ENDSEC;
END-ISO-10303-21;
