ISO-10303-21;
HEADER;
FILE_DESCRIPTION (( 'STEP AP203' ),
    '1' );
FILE_NAME ('54494.step',
    '2021-09-03T07:48:31',
    ( '' ),
    ( '' ),
    'SwSTEP 2.0',
    'SolidWorks 2019',
    '' );
FILE_SCHEMA (( 'CONFIG_CONTROL_DESIGN' ));
ENDSEC;

DATA;
#1 = CIRCLE ( 'NONE', #187, 0.5999999999999963141 ) ;
#2 = MECHANICAL_CONTEXT ( 'NONE', #218, 'mechanical' ) ;
#3 = EDGE_CURVE ( 'NONE', #9, #323, #265, .T. ) ;
#4 = DATE_AND_TIME ( #53, #56 ) ;
#5 = EDGE_LOOP ( 'NONE', ( #319, #273, #219, #49 ) ) ;
#6 = PERSON_AND_ORGANIZATION ( #263, #172 ) ;
#7 = ORIENTED_EDGE ( 'NONE', *, *, #194, .T. ) ;
#8 = CC_DESIGN_APPROVAL ( #148, ( #214 ) ) ;
#9 = VERTEX_POINT ( 'NONE', #142 ) ;
#10 = DIRECTION ( 'NONE',  ( -3.209883240645412940E-31, -1.000000000000000000, -9.035018104045926161E-17 ) ) ;
#11 = DIRECTION ( 'NONE',  ( -3.491481338843133355E-15, 1.224646799147353207E-16, -1.000000000000000000 ) ) ;
#12 = AXIS2_PLACEMENT_3D ( 'NONE', #88, #188, #300 ) ;
#13 = CARTESIAN_POINT ( 'NONE',  ( 0.0000000000000000000, 0.0000000000000000000, 0.0000000000000000000 ) ) ;
#14 = FACE_OUTER_BOUND ( 'NONE', #5, .T. ) ;
#15 = CALENDAR_DATE ( 2021, 3, 9 ) ;
#16 = DIRECTION ( 'NONE',  ( -3.491481338843133355E-15, 1.224646799147353207E-16, -1.000000000000000000 ) ) ;
#17 = CARTESIAN_POINT ( 'NONE',  ( 1.332214991097122993E-15, 0.5999999999999963141, 0.3605163714165379729 ) ) ;
#18 = AXIS2_PLACEMENT_3D ( 'NONE', #164, #11, #117 ) ;
#19 = CARTESIAN_POINT ( 'NONE',  ( 2.565498867538161326E-31, 0.5999999999999967581, 7.347880794884079553E-17 ) ) ;
#20 = DIRECTION ( 'NONE',  ( -3.491481338843133355E-15, 1.224646799147353207E-16, -1.000000000000000000 ) ) ;
#21 = DIRECTION ( 'NONE',  ( -3.491481338843133355E-15, 1.224646799147353207E-16, -1.000000000000000000 ) ) ;
#22 = CC_DESIGN_APPROVAL ( #320, ( #43 ) ) ;
#23 = CARTESIAN_POINT ( 'NONE',  ( 0.0000000000000000000, 0.0000000000000000000, 0.0000000000000000000 ) ) ;
#24 = PRODUCT_DEFINITION ( 'UNKNOWN', '', #43, #197 ) ;
#25 = PERSON_AND_ORGANIZATION ( #263, #172 ) ;
#26 = COORDINATED_UNIVERSAL_TIME_OFFSET ( 1, 0, .AHEAD. ) ;
#27 = LOCAL_TIME ( 9, 48, 31.00000000000000000, #184 ) ;
#28 = APPROVAL_ROLE ( '' ) ;
#29 = PERSON_AND_ORGANIZATION ( #263, #172 ) ;
#30 = ORIENTED_EDGE ( 'NONE', *, *, #138, .T. ) ;
#31 = CIRCLE ( 'NONE', #261, 0.3999999999999999667 ) ;
#32 = ORIENTED_EDGE ( 'NONE', *, *, #288, .F. ) ;
#33 = ORIENTED_EDGE ( 'NONE', *, *, #115, .F. ) ;
#34 = CARTESIAN_POINT ( 'NONE',  ( 1.258736183148282062E-15, -4.415052202954814819E-17, 0.3605163714165379174 ) ) ;
#35 = CC_DESIGN_PERSON_AND_ORGANIZATION_ASSIGNMENT ( #25, #158, ( #175 ) ) ;
#36 = CIRCLE ( 'NONE', #334, 0.5999999999999972022 ) ;
#37 = CYLINDRICAL_SURFACE ( 'NONE', #97, 0.5999999999999967581 ) ;
#38 = DIRECTION ( 'NONE',  ( 4.275831445896958607E-31, 1.000000000000000000, 1.224646799147353207E-16 ) ) ;
#39 = FACE_OUTER_BOUND ( 'NONE', #189, .T. ) ;
#40 = EDGE_CURVE ( 'NONE', #120, #302, #63, .T. ) ;
#41 = UNCERTAINTY_MEASURE_WITH_UNIT (LENGTH_MEASURE( 1.000000000000000082E-05 ), #337, 'distance_accuracy_value', 'NONE');
#42 = CARTESIAN_POINT ( 'NONE',  ( 1.332214991097122993E-15, 0.5999999999999963141, 0.3605163714165379729 ) ) ;
#43 = PRODUCT_DEFINITION_FORMATION_WITH_SPECIFIED_SOURCE ( 'ANY', '', #175, .NOT_KNOWN. ) ;
#44 = LINE ( 'NONE', #150, #205 ) ;
#45 = DIRECTION ( 'NONE',  ( -3.491481338843133355E-15, 1.224646799147353207E-16, -1.000000000000000000 ) ) ;
#46 = DIRECTION ( 'NONE',  ( 1.798245827342160317E-15, -0.8571673007021098911, 0.5150380749100582634 ) ) ;
#47 = APPROVAL_PERSON_ORGANIZATION ( #155, #320, #28 ) ;
#48 = CALENDAR_DATE ( 2021, 3, 9 ) ;
#49 = ORIENTED_EDGE ( 'NONE', *, *, #40, .F. ) ;
#50 = CIRCLE ( 'NONE', #192, 0.5999999999999972022 ) ;
#51 = DIRECTION ( 'NONE',  ( 1.000000000000000000, 0.0000000000000000000, 0.0000000000000000000 ) ) ;
#52 = ORIENTED_EDGE ( 'NONE', *, *, #251, .T. ) ;
#53 = CALENDAR_DATE ( 2021, 3, 9 ) ;
#54 = VERTEX_POINT ( 'NONE', #327 ) ;
#55 = ORIENTED_EDGE ( 'NONE', *, *, #138, .F. ) ;
#56 = LOCAL_TIME ( 9, 48, 31.00000000000000000, #26 ) ;
#57 = CIRCLE ( 'NONE', #227, 0.5999999999999972022 ) ;
#58 = DIRECTION ( 'NONE',  ( 4.275831445896959482E-31, 1.000000000000000000, 1.224646799147353207E-16 ) ) ;
#59 = DIRECTION ( 'NONE',  ( 4.275831445896958607E-31, 1.000000000000000000, 1.224646799147353207E-16 ) ) ;
#60 = ADVANCED_FACE ( 'NONE', ( #118 ), #244, .F. ) ;
#61 = ORIENTED_EDGE ( 'NONE', *, *, #185, .T. ) ;
#62 = CONICAL_SURFACE ( 'NONE', #12, 0.5999999999999963141, 1.029744258676649649 ) ;
#63 = LINE ( 'NONE', #139, #102 ) ;
#64 = CLOSED_SHELL ( 'NONE', ( #82, #121, #95, #255, #314 ) ) ;
#65 = DIRECTION ( 'NONE',  ( -3.491481338843133355E-15, 1.224646799147353207E-16, -1.000000000000000000 ) ) ;
#66 = FACE_OUTER_BOUND ( 'NONE', #133, .T. ) ;
#67 = CARTESIAN_POINT ( 'NONE',  ( 1.047444401652940007E-13, -3.673940397442059178E-15, 30.00000000000000000 ) ) ;
#68 = CONICAL_SURFACE ( 'NONE', #283, 0.3999999999999999667, 0.7853981633974512766 ) ;
#69 = DIRECTION ( 'NONE',  ( 0.0000000000000000000, 1.000000000000000000, 0.0000000000000000000 ) ) ;
#70 = CC_DESIGN_PERSON_AND_ORGANIZATION_ASSIGNMENT ( #110, #322, ( #214 ) ) ;
#71 = DIRECTION ( 'NONE',  ( -3.491481338843133355E-15, 1.224646799147353207E-16, -1.000000000000000000 ) ) ;
#72 = CARTESIAN_POINT ( 'NONE',  ( 1.047444401652940007E-13, -3.673940397442059178E-15, 30.00000000000000000 ) ) ;
#73 = VECTOR ( 'NONE', #96, 1000.000000000000114 ) ;
#74 = ADVANCED_FACE ( 'NONE', ( #39 ), #243, .T. ) ;
#75 = ORIENTED_EDGE ( 'NONE', *, *, #251, .F. ) ;
#76 = PRODUCT_DEFINITION_SHAPE ( 'NONE', 'NONE',  #24 ) ;
#77 = DATE_AND_TIME ( #48, #146 ) ;
#78 = ORIENTED_EDGE ( 'NONE', *, *, #131, .F. ) ;
#79 = FACE_OUTER_BOUND ( 'NONE', #165, .T. ) ;
#80 = CALENDAR_DATE ( 2021, 3, 9 ) ;
#81 = VERTEX_POINT ( 'NONE', #276 ) ;
#82 = ADVANCED_FACE ( 'NONE', ( #169 ), #37, .T. ) ;
#83 = CARTESIAN_POINT ( 'NONE',  ( 6.606247611208401480E-14, -0.5999999999999982014, 8.000000000000000000 ) ) ;
#84 = VERTEX_POINT ( 'NONE', #144 ) ;
#85 = SHAPE_DEFINITION_REPRESENTATION ( #76, #299 ) ;
#86 = DIRECTION ( 'NONE',  ( -2.468850131082257455E-15, 0.7071067811865497932, -0.7071067811865453523 ) ) ;
#87 = CIRCLE ( 'NONE', #199, 0.5999999999999999778 ) ;
#88 = CARTESIAN_POINT ( 'NONE',  ( 1.258736183148282062E-15, -4.415052202954814819E-17, 0.3605163714165379174 ) ) ;
#89 = APPROVAL_STATUS ( 'not_yet_approved' ) ;
#90 = ORIENTED_EDGE ( 'NONE', *, *, #279, .F. ) ;
#91 = CARTESIAN_POINT ( 'NONE',  ( 1.258736183148282062E-15, -4.415052202954814819E-17, 0.3605163714165379174 ) ) ;
#92 = APPROVAL_ROLE ( '' ) ;
#93 = CC_DESIGN_SECURITY_CLASSIFICATION ( #214, ( #43 ) ) ;
#94 = DIRECTION ( 'NONE',  ( -3.491481338843133355E-15, 1.224646799147353207E-16, -1.000000000000000000 ) ) ;
#95 = ADVANCED_FACE ( 'NONE', ( #119 ), #196, .T. ) ;
#96 = DIRECTION ( 'NONE',  ( -2.382254525458708792E-15, -0.7071067811865495711, -0.7071067811865455743 ) ) ;
#97 = AXIS2_PLACEMENT_3D ( 'NONE', #13, #94, #38 ) ;
#98 = FACE_OUTER_BOUND ( 'NONE', #193, .T. ) ;
#99 = DIRECTION ( 'NONE',  ( -3.491481338843133355E-15, 1.224646799147353207E-16, -1.000000000000000000 ) ) ;
#100 = ADVANCED_FACE ( 'NONE', ( #14 ), #252, .T. ) ;
#101 = AXIS2_PLACEMENT_3D ( 'NONE', #215, #234, #154 ) ;
#102 = VECTOR ( 'NONE', #86, 1000.000000000000114 ) ;
#103 = DIRECTION ( 'NONE',  ( -3.491481338843133355E-15, 1.224646799147353207E-16, -1.000000000000000000 ) ) ;
#104 = DIRECTION ( 'NONE',  ( -3.491481338843133355E-15, 1.224646799147353207E-16, -1.000000000000000000 ) ) ;
#105 = APPROVAL ( #108, 'UNSPECIFIED' ) ;
#106 = ORIENTED_EDGE ( 'NONE', *, *, #207, .F. ) ;
#107 = AXIS2_PLACEMENT_3D ( 'NONE', #72, #200, #228 ) ;
#108 = APPROVAL_STATUS ( 'not_yet_approved' ) ;
#109 = APPROVAL_DATE_TIME ( #269, #320 ) ;
#110 = PERSON_AND_ORGANIZATION ( #263, #172 ) ;
#111 = EDGE_CURVE ( 'NONE', #302, #9, #140, .T. ) ;
#112 = AXIS2_PLACEMENT_3D ( 'NONE', #23, #174, #309 ) ;
#113 = DIRECTION ( 'NONE',  ( 0.0000000000000000000, 0.0000000000000000000, 1.000000000000000000 ) ) ;
#114 = DIRECTION ( 'NONE',  ( 0.0000000000000000000, 1.000000000000000000, 0.0000000000000000000 ) ) ;
#115 = EDGE_CURVE ( 'NONE', #245, #81, #156, .T. ) ;
#116 = COORDINATED_UNIVERSAL_TIME_OFFSET ( 1, 0, .AHEAD. ) ;
#117 = DIRECTION ( 'NONE',  ( 0.0000000000000000000, 1.000000000000000000, 0.0000000000000000000 ) ) ;
#118 = FACE_OUTER_BOUND ( 'NONE', #291, .T. ) ;
#119 = FACE_OUTER_BOUND ( 'NONE', #206, .T. ) ;
#120 = VERTEX_POINT ( 'NONE', #326 ) ;
#121 = ADVANCED_FACE ( 'NONE', ( #330 ), #62, .T. ) ;
#122 = VECTOR ( 'NONE', #46, 1000.000000000000000 ) ;
#123 = DIRECTION ( 'NONE',  ( 0.0000000000000000000, 1.000000000000000000, 0.0000000000000000000 ) ) ;
#124 = DIRECTION ( 'NONE',  ( 1.903218546456022717E-15, 0.8571673007021097801, 0.5150380749100585964 ) ) ;
#125 = DIRECTION ( 'NONE',  ( -3.491481338843133355E-15, 1.224646799147353207E-16, -1.000000000000000000 ) ) ;
#126 = CARTESIAN_POINT ( 'NONE',  ( 2.793185071074506684E-14, -9.797174393178825657E-16, 8.000000000000000000 ) ) ;
#127 = CLOSED_SHELL ( 'NONE', ( #100, #157, #161, #74, #285, #60 ) ) ;
#128 = CARTESIAN_POINT ( 'NONE',  ( 1.047934260372598846E-13, -0.4000000000000036304, 30.00000000000000000 ) ) ;
#129 = CARTESIAN_POINT ( 'NONE',  ( 1.040461438975253740E-13, 0.5999999999999963141, 29.80000000000000071 ) ) ;
#130 = COORDINATED_UNIVERSAL_TIME_OFFSET ( 1, 0, .AHEAD. ) ;
#131 = EDGE_CURVE ( 'NONE', #120, #54, #183, .T. ) ;
#132 = APPLICATION_PROTOCOL_DEFINITION ( 'international standard', 'config_control_design', 1994, #211 ) ;
#133 = EDGE_LOOP ( 'NONE', ( #106, #275, #298, #55 ) ) ;
#134 = PERSON_AND_ORGANIZATION_ROLE ( 'creator' ) ;
#135 = ORIENTED_EDGE ( 'NONE', *, *, #111, .T. ) ;
#136 = DATE_AND_TIME ( #80, #27 ) ;
#137 = ORIENTED_EDGE ( 'NONE', *, *, #268, .T. ) ;
#138 = EDGE_CURVE ( 'NONE', #325, #302, #141, .T. ) ;
#139 = CARTESIAN_POINT ( 'NONE',  ( 1.047444401652940007E-13, 0.3999999999999963030, 30.00000000000000000 ) ) ;
#140 = LINE ( 'NONE', #224, #246 ) ;
#141 = CIRCLE ( 'NONE', #163, 0.5999999999999999778 ) ;
#142 = CARTESIAN_POINT ( 'NONE',  ( 2.793185071074506684E-14, 0.5999999999999963141, 8.000000000000000000 ) ) ;
#143 = AXIS2_PLACEMENT_3D ( 'NONE', #222, #186, #59 ) ;
#144 = CARTESIAN_POINT ( 'NONE',  ( 2.793185071074506684E-14, 0.5999999999999963141, 8.000000000000000000 ) ) ;
#145 = DIRECTION ( 'NONE',  ( 3.491481338843133355E-15, -1.224646799147353207E-16, 1.000000000000000000 ) ) ;
#146 = LOCAL_TIME ( 9, 48, 31.00000000000000000, #181 ) ;
#147 = CARTESIAN_POINT ( 'NONE',  ( 2.793185071074506684E-14, -9.797174393178825657E-16, 8.000000000000000000 ) ) ;
#148 = APPROVAL ( #89, 'UNSPECIFIED' ) ;
#149 = CARTESIAN_POINT ( 'NONE',  ( 1.047444401652940007E-13, -3.673940397442059178E-15, 30.00000000000000000 ) ) ;
#150 = CARTESIAN_POINT ( 'NONE',  ( 7.347880794884075856E-17, -0.5999999999999985345, -7.347880794884126392E-17 ) ) ;
#151 = CARTESIAN_POINT ( 'NONE',  ( 1.040461438975253740E-13, -3.649447461459112464E-15, 29.80000000000000071 ) ) ;
#152 = AXIS2_PLACEMENT_3D ( 'NONE', #177, #253, #336 ) ;
#153 = EDGE_CURVE ( 'NONE', #325, #323, #44, .T. ) ;
#154 = DIRECTION ( 'NONE',  ( -4.275831445896958607E-31, -1.000000000000000000, -1.224646799147353207E-16 ) ) ;
#155 = PERSON_AND_ORGANIZATION ( #263, #172 ) ;
#156 = CIRCLE ( 'NONE', #277, 0.5999999999999963141 ) ;
#157 = ADVANCED_FACE ( 'NONE', ( #98 ), #331, .T. ) ;
#158 = PERSON_AND_ORGANIZATION_ROLE ( 'design_owner' ) ;
#159 = EDGE_LOOP ( 'NONE', ( #307, #7, #137, #75 ) ) ;
#160 = PERSON_AND_ORGANIZATION ( #263, #172 ) ;
#161 = ADVANCED_FACE ( 'NONE', ( #176 ), #282, .F. ) ;
#162 = EDGE_LOOP ( 'NONE', ( #264, #278, #315 ) ) ;
#163 = AXIS2_PLACEMENT_3D ( 'NONE', #195, #171, #202 ) ;
#164 = CARTESIAN_POINT ( 'NONE',  ( 1.047444401652940007E-13, -3.673940397442059178E-15, 30.00000000000000000 ) ) ;
#165 = EDGE_LOOP ( 'NONE', ( #90, #324 ) ) ;
#166 = CARTESIAN_POINT ( 'NONE',  ( 0.0000000000000000000, 0.0000000000000000000, 0.0000000000000000000 ) ) ;
#167 = APPROVAL_PERSON_ORGANIZATION ( #160, #105, #260 ) ;
#168 = APPROVAL_DATE_TIME ( #303, #148 ) ;
#169 = FACE_OUTER_BOUND ( 'NONE', #328, .T. ) ;
#170 = ORIENTED_EDGE ( 'NONE', *, *, #111, .F. ) ;
#171 = DIRECTION ( 'NONE',  ( -3.491481338843133355E-15, 1.224646799147353207E-16, -1.000000000000000000 ) ) ;
#172 = ORGANIZATION ( 'UNSPECIFIED', 'UNSPECIFIED', '' ) ;
#173 = DIRECTION ( 'NONE',  ( 0.0000000000000000000, 1.000000000000000000, 0.0000000000000000000 ) ) ;
#174 = DIRECTION ( 'NONE',  ( -3.491481338843133355E-15, 1.224646799147353207E-16, -1.000000000000000000 ) ) ;
#175 = PRODUCT ( '54494', '54494', '', ( #2 ) ) ;
#176 = FACE_OUTER_BOUND ( 'NONE', #240, .T. ) ;
#177 = CARTESIAN_POINT ( 'NONE',  ( 0.0000000000000000000, 0.0000000000000000000, 0.0000000000000000000 ) ) ;
#178 = ORIENTED_EDGE ( 'NONE', *, *, #226, .T. ) ;
#179 = ORIENTED_EDGE ( 'NONE', *, *, #274, .F. ) ;
#180 = EDGE_CURVE ( 'NONE', #267, #81, #256, .T. ) ;
#181 = COORDINATED_UNIVERSAL_TIME_OFFSET ( 1, 0, .AHEAD. ) ;
#182 = ORIENTED_EDGE ( 'NONE', *, *, #279, .T. ) ;
#183 = CIRCLE ( 'NONE', #107, 0.3999999999999999667 ) ;
#184 = COORDINATED_UNIVERSAL_TIME_OFFSET ( 1, 0, .AHEAD. ) ;
#185 = EDGE_CURVE ( 'NONE', #302, #325, #87, .T. ) ;
#186 = DIRECTION ( 'NONE',  ( -3.491481338843133355E-15, 1.224646799147353207E-16, -1.000000000000000000 ) ) ;
#187 = AXIS2_PLACEMENT_3D ( 'NONE', #313, #20, #254 ) ;
#188 = DIRECTION ( 'NONE',  ( 3.491481338843133355E-15, -1.224646799147353207E-16, 1.000000000000000000 ) ) ;
#189 = EDGE_LOOP ( 'NONE', ( #317, #30, #135, #209 ) ) ;
#190 = DATE_TIME_ROLE ( 'classification_date' ) ;
#191 = DIRECTION ( 'NONE',  ( -3.491481338843133355E-15, 1.224646799147353207E-16, -1.000000000000000000 ) ) ;
#192 = AXIS2_PLACEMENT_3D ( 'NONE', #332, #125, #123 ) ;
#193 = EDGE_LOOP ( 'NONE', ( #61, #212, #271, #170 ) ) ;
#194 = EDGE_CURVE ( 'NONE', #280, #84, #57, .T. ) ;
#195 = CARTESIAN_POINT ( 'NONE',  ( 1.040461438975253740E-13, -3.649447461459112464E-15, 29.80000000000000071 ) ) ;
#196 = CONICAL_SURFACE ( 'NONE', #281, 0.5999999999999963141, 1.029744258676649649 ) ;
#197 = DESIGN_CONTEXT ( 'detailed design', #211, 'design' ) ;
#198 = LINE ( 'NONE', #17, #310 ) ;
#199 = AXIS2_PLACEMENT_3D ( 'NONE', #151, #258, #312 ) ;
#200 = DIRECTION ( 'NONE',  ( -3.491481338843133355E-15, 1.224646799147353207E-16, -1.000000000000000000 ) ) ;
#201 = DIRECTION ( 'NONE',  ( -4.275831445896958607E-31, -1.000000000000000000, -1.224646799147353207E-16 ) ) ;
#202 = DIRECTION ( 'NONE',  ( 0.0000000000000000000, 1.000000000000000000, 0.0000000000000000000 ) ) ;
#203 = VECTOR ( 'NONE', #71, 1000.000000000000000 ) ;
#204 =( NAMED_UNIT ( * ) SI_UNIT ( $, .STERADIAN. ) SOLID_ANGLE_UNIT ( ) );
#205 = VECTOR ( 'NONE', #103, 1000.000000000000000 ) ;
#206 = EDGE_LOOP ( 'NONE', ( #179, #293, #52 ) ) ;
#207 = EDGE_CURVE ( 'NONE', #54, #325, #231, .T. ) ;
#208 = CARTESIAN_POINT ( 'NONE',  ( 0.0000000000000000000, 0.0000000000000000000, 0.0000000000000000000 ) ) ;
#209 = ORIENTED_EDGE ( 'NONE', *, *, #217, .F. ) ;
#210 = PERSON_AND_ORGANIZATION ( #263, #172 ) ;
#211 = APPLICATION_CONTEXT ( 'configuration controlled 3d designs of mechanical parts and assemblies' ) ;
#212 = ORIENTED_EDGE ( 'NONE', *, *, #153, .T. ) ;
#213 =( NAMED_UNIT ( * ) PLANE_ANGLE_UNIT ( ) SI_UNIT ( $, .RADIAN. ) );
#214 = SECURITY_CLASSIFICATION ( '', '', #239 ) ;
#215 = CARTESIAN_POINT ( 'NONE',  ( 2.793185071074506684E-14, 4.499279347985537244E-33, 8.000000000000000000 ) ) ;
#216 = ORIENTED_EDGE ( 'NONE', *, *, #3, .T. ) ;
#217 = EDGE_CURVE ( 'NONE', #323, #9, #36, .T. ) ;
#218 = APPLICATION_CONTEXT ( 'configuration controlled 3d designs of mechanical parts and assemblies' ) ;
#219 = ORIENTED_EDGE ( 'NONE', *, *, #185, .F. ) ;
#220 = DIRECTION ( 'NONE',  ( -3.491481338843133355E-15, 1.224646799147353207E-16, -1.000000000000000000 ) ) ;
#221 = APPROVAL_PERSON_ORGANIZATION ( #301, #148, #92 ) ;
#222 = CARTESIAN_POINT ( 'NONE',  ( 1.047444401652940007E-13, 2.999519565323659793E-33, 30.00000000000000000 ) ) ;
#223 = MANIFOLD_SOLID_BREP ( 'Corps-Déplacer/Copier1[2]', #64 ) ;
#224 = CARTESIAN_POINT ( 'NONE',  ( 2.565498867538169208E-31, 0.5999999999999985345, 7.347880794884101740E-17 ) ) ;
#225 = DIRECTION ( 'NONE',  ( 3.209883240645412940E-31, 1.000000000000000000, 9.035018104045926161E-17 ) ) ;
#226 = EDGE_CURVE ( 'NONE', #280, #81, #335, .T. ) ;
#227 = AXIS2_PLACEMENT_3D ( 'NONE', #147, #45, #229 ) ;
#228 = DIRECTION ( 'NONE',  ( 0.0000000000000000000, 1.000000000000000000, 0.0000000000000000000 ) ) ;
#229 = DIRECTION ( 'NONE',  ( 0.0000000000000000000, 1.000000000000000000, 0.0000000000000000000 ) ) ;
#230 = LINE ( 'NONE', #19, #257 ) ;
#231 = LINE ( 'NONE', #128, #73 ) ;
#232 = AXIS2_PLACEMENT_3D ( 'NONE', #166, #191, #58 ) ;
#233 = CYLINDRICAL_SURFACE ( 'NONE', #152, 0.5999999999999967581 ) ;
#234 = DIRECTION ( 'NONE',  ( 3.491481338843133355E-15, -1.224646799147353207E-16, 1.000000000000000000 ) ) ;
#235 = CC_DESIGN_PERSON_AND_ORGANIZATION_ASSIGNMENT ( #210, #318, ( #43 ) ) ;
#236 = AXIS2_PLACEMENT_3D ( 'NONE', #208, #113, #51 ) ;
#237 = CALENDAR_DATE ( 2021, 3, 9 ) ;
#238 = PERSON_AND_ORGANIZATION_ROLE ( 'design_supplier' ) ;
#239 = SECURITY_CLASSIFICATION_LEVEL ( 'unclassified' ) ;
#240 = EDGE_LOOP ( 'NONE', ( #216, #270 ) ) ;
#241 = CC_DESIGN_DATE_AND_TIME_ASSIGNMENT ( #136, #190, ( #214 ) ) ;
#242 = LOCAL_TIME ( 9, 48, 31.00000000000000000, #116 ) ;
#243 = CYLINDRICAL_SURFACE ( 'NONE', #232, 0.5999999999999985345 ) ;
#244 = PLANE ( 'NONE',  #143 ) ;
#245 = VERTEX_POINT ( 'NONE', #42 ) ;
#246 = VECTOR ( 'NONE', #220, 1000.000000000000000 ) ;
#247 = CARTESIAN_POINT ( 'NONE',  ( 2.793185071074506684E-14, -9.797174393178825657E-16, 8.000000000000000000 ) ) ;
#248 = AXIS2_PLACEMENT_3D ( 'NONE', #247, #65, #114 ) ;
#249 = DIRECTION ( 'NONE',  ( 3.491481338843133355E-15, -1.224646799147353207E-16, 1.000000000000000000 ) ) ;
#250 = CARTESIAN_POINT ( 'NONE',  ( 0.0000000000000000000, 0.0000000000000000000, 0.0000000000000000000 ) ) ;
#251 = EDGE_CURVE ( 'NONE', #81, #245, #1, .T. ) ;
#252 = CONICAL_SURFACE ( 'NONE', #18, 0.3999999999999999667, 0.7853981633974512766 ) ;
#253 = DIRECTION ( 'NONE',  ( -3.491481338843133355E-15, 1.224646799147353207E-16, -1.000000000000000000 ) ) ;
#254 = DIRECTION ( 'NONE',  ( 3.209883240645412940E-31, 1.000000000000000000, 9.035018104045926161E-17 ) ) ;
#255 = ADVANCED_FACE ( 'NONE', ( #284 ), #233, .T. ) ;
#256 = LINE ( 'NONE', #286, #122 ) ;
#257 = VECTOR ( 'NONE', #104, 1000.000000000000000 ) ;
#258 = DIRECTION ( 'NONE',  ( -3.491481338843133355E-15, 1.224646799147353207E-16, -1.000000000000000000 ) ) ;
#259 = CC_DESIGN_PERSON_AND_ORGANIZATION_ASSIGNMENT ( #6, #134, ( #24 ) ) ;
#260 = APPROVAL_ROLE ( '' ) ;
#261 = AXIS2_PLACEMENT_3D ( 'NONE', #149, #333, #69 ) ;
#262 = APPROVAL_STATUS ( 'not_yet_approved' ) ;
#263 = PERSON ( 'UNSPECIFIED', 'UNSPECIFIED', 'UNSPECIFIED', ('UNSPECIFIED'), ('UNSPECIFIED'), ('UNSPECIFIED') ) ;
#264 = ORIENTED_EDGE ( 'NONE', *, *, #180, .F. ) ;
#265 = CIRCLE ( 'NONE', #248, 0.5999999999999972022 ) ;
#266 = DATE_TIME_ROLE ( 'creation_date' ) ;
#267 = VERTEX_POINT ( 'NONE', #250 ) ;
#268 = EDGE_CURVE ( 'NONE', #84, #245, #230, .T. ) ;
#269 = DATE_AND_TIME ( #237, #305 ) ;
#270 = ORIENTED_EDGE ( 'NONE', *, *, #217, .T. ) ;
#271 = ORIENTED_EDGE ( 'NONE', *, *, #3, .F. ) ;
#272 = AXIS2_PLACEMENT_3D ( 'NONE', #311, #145, #201 ) ;
#273 = ORIENTED_EDGE ( 'NONE', *, *, #207, .T. ) ;
#274 = EDGE_CURVE ( 'NONE', #267, #245, #198, .T. ) ;
#275 = ORIENTED_EDGE ( 'NONE', *, *, #288, .T. ) ;
#276 = CARTESIAN_POINT ( 'NONE',  ( 1.258736183148281864E-15, -0.5999999999999963141, 0.3605163714165378619 ) ) ;
#277 = AXIS2_PLACEMENT_3D ( 'NONE', #91, #16, #225 ) ;
#278 = ORIENTED_EDGE ( 'NONE', *, *, #274, .T. ) ;
#279 = EDGE_CURVE ( 'NONE', #84, #280, #50, .T. ) ;
#280 = VERTEX_POINT ( 'NONE', #308 ) ;
#281 = AXIS2_PLACEMENT_3D ( 'NONE', #34, #249, #10 ) ;
#282 = PLANE ( 'NONE',  #272 ) ;
#283 = AXIS2_PLACEMENT_3D ( 'NONE', #67, #99, #173 ) ;
#284 = FACE_OUTER_BOUND ( 'NONE', #159, .T. ) ;
#285 = ADVANCED_FACE ( 'NONE', ( #66 ), #68, .T. ) ;
#286 = CARTESIAN_POINT ( 'NONE',  ( 1.258736183148281864E-15, -0.5999999999999963141, 0.3605163714165378619 ) ) ;
#287 = CARTESIAN_POINT ( 'NONE',  ( 7.347880794884054902E-17, -0.5999999999999967581, -7.347880794884105438E-17 ) ) ;
#288 = EDGE_CURVE ( 'NONE', #54, #120, #31, .T. ) ;
#289 = DIRECTION ( 'NONE',  ( 0.0000000000000000000, 1.000000000000000000, 0.0000000000000000000 ) ) ;
#290 = APPLICATION_PROTOCOL_DEFINITION ( 'international standard', 'config_control_design', 1994, #218 ) ;
#291 = EDGE_LOOP ( 'NONE', ( #78, #32 ) ) ;
#292 = PLANE ( 'NONE',  #101 ) ;
#293 = ORIENTED_EDGE ( 'NONE', *, *, #180, .T. ) ;
#294 = PRODUCT_RELATED_PRODUCT_CATEGORY ( 'detail', '', ( #175 ) ) ;
#295 = CARTESIAN_POINT ( 'NONE',  ( 6.606247611208390121E-14, -0.6000000000000036415, 29.80000000000000071 ) ) ;
#296 = CC_DESIGN_DATE_AND_TIME_ASSIGNMENT ( #77, #266, ( #24 ) ) ;
#297 = CC_DESIGN_APPROVAL ( #105, ( #24 ) ) ;
#298 = ORIENTED_EDGE ( 'NONE', *, *, #40, .T. ) ;
#299 = ADVANCED_BREP_SHAPE_REPRESENTATION ( '54494', ( #329, #223, #236 ), #321 ) ;
#300 = DIRECTION ( 'NONE',  ( -3.209883240645412940E-31, -1.000000000000000000, -9.035018104045926161E-17 ) ) ;
#301 = PERSON_AND_ORGANIZATION ( #263, #172 ) ;
#302 = VERTEX_POINT ( 'NONE', #129 ) ;
#303 = DATE_AND_TIME ( #15, #242 ) ;
#304 = ORIENTED_EDGE ( 'NONE', *, *, #268, .F. ) ;
#305 = LOCAL_TIME ( 9, 48, 31.00000000000000000, #130 ) ;
#306 = CC_DESIGN_PERSON_AND_ORGANIZATION_ASSIGNMENT ( #29, #238, ( #43 ) ) ;
#307 = ORIENTED_EDGE ( 'NONE', *, *, #226, .F. ) ;
#308 = CARTESIAN_POINT ( 'NONE',  ( 1.466877225489549793E-14, -0.5999999999999982014, 8.000000000000000000 ) ) ;
#309 = DIRECTION ( 'NONE',  ( 4.275831445896959482E-31, 1.000000000000000000, 1.224646799147353207E-16 ) ) ;
#310 = VECTOR ( 'NONE', #124, 999.9999999999998863 ) ;
#311 = CARTESIAN_POINT ( 'NONE',  ( 2.793185071074506684E-14, 4.499279347985537244E-33, 8.000000000000000000 ) ) ;
#312 = DIRECTION ( 'NONE',  ( 0.0000000000000000000, 1.000000000000000000, 0.0000000000000000000 ) ) ;
#313 = CARTESIAN_POINT ( 'NONE',  ( 1.258736183148282062E-15, -4.415052202954814819E-17, 0.3605163714165379174 ) ) ;
#314 = ADVANCED_FACE ( 'NONE', ( #79 ), #292, .T. ) ;
#315 = ORIENTED_EDGE ( 'NONE', *, *, #115, .T. ) ;
#316 = APPROVAL_DATE_TIME ( #4, #105 ) ;
#317 = ORIENTED_EDGE ( 'NONE', *, *, #153, .F. ) ;
#318 = PERSON_AND_ORGANIZATION_ROLE ( 'creator' ) ;
#319 = ORIENTED_EDGE ( 'NONE', *, *, #131, .T. ) ;
#320 = APPROVAL ( #262, 'UNSPECIFIED' ) ;
#321 =( GEOMETRIC_REPRESENTATION_CONTEXT ( 3 ) GLOBAL_UNCERTAINTY_ASSIGNED_CONTEXT ( ( #41 ) ) GLOBAL_UNIT_ASSIGNED_CONTEXT ( ( #337, #213, #204 ) ) REPRESENTATION_CONTEXT ( 'NONE', 'WORKASPACE' ) );
#322 = PERSON_AND_ORGANIZATION_ROLE ( 'classification_officer' ) ;
#323 = VERTEX_POINT ( 'NONE', #83 ) ;
#324 = ORIENTED_EDGE ( 'NONE', *, *, #194, .F. ) ;
#325 = VERTEX_POINT ( 'NONE', #295 ) ;
#326 = CARTESIAN_POINT ( 'NONE',  ( 1.047444401652940007E-13, 0.3999999999999963030, 30.00000000000000000 ) ) ;
#327 = CARTESIAN_POINT ( 'NONE',  ( 1.044565243713670612E-13, -0.4000000000000036304, 30.00000000000000000 ) ) ;
#328 = EDGE_LOOP ( 'NONE', ( #182, #178, #33, #304 ) ) ;
#329 = MANIFOLD_SOLID_BREP ( 'Corps-Déplacer/Copier1[1]', #127 ) ;
#330 = FACE_OUTER_BOUND ( 'NONE', #162, .T. ) ;
#331 = CYLINDRICAL_SURFACE ( 'NONE', #112, 0.5999999999999985345 ) ;
#332 = CARTESIAN_POINT ( 'NONE',  ( 2.793185071074506684E-14, -9.797174393178825657E-16, 8.000000000000000000 ) ) ;
#333 = DIRECTION ( 'NONE',  ( -3.491481338843133355E-15, 1.224646799147353207E-16, -1.000000000000000000 ) ) ;
#334 = AXIS2_PLACEMENT_3D ( 'NONE', #126, #21, #289 ) ;
#335 = LINE ( 'NONE', #287, #203 ) ;
#336 = DIRECTION ( 'NONE',  ( 4.275831445896958607E-31, 1.000000000000000000, 1.224646799147353207E-16 ) ) ;
#337 =( LENGTH_UNIT ( ) NAMED_UNIT ( * ) SI_UNIT ( .MILLI., .METRE. ) );
ENDSEC;
END-ISO-10303-21;
