ISO-10303-21;
HEADER;
FILE_DESCRIPTION (( 'STEP AP203' ),
    '1' );
FILE_NAME ('54492.step',
    '2021-09-03T07:48:29',
    ( '' ),
    ( '' ),
    'SwSTEP 2.0',
    'SolidWorks 2019',
    '' );
FILE_SCHEMA (( 'CONFIG_CONTROL_DESIGN' ));
ENDSEC;

DATA;
#1 = DIRECTION ( 'NONE',  ( 3.491481338843133355E-15, -1.224646799147353207E-16, 1.000000000000000000 ) ) ;
#2 = CONICAL_SURFACE ( 'NONE', #74, 0.5499999999999963807, 1.029744258676649649 ) ;
#3 = AXIS2_PLACEMENT_3D ( 'NONE', #244, #333, #242 ) ;
#4 = ORIENTED_EDGE ( 'NONE', *, *, #240, .F. ) ;
#5 = DATE_AND_TIME ( #183, #123 ) ;
#6 = COORDINATED_UNIVERSAL_TIME_OFFSET ( 1, 0, .AHEAD. ) ;
#7 = CC_DESIGN_APPROVAL ( #27, ( #319 ) ) ;
#8 = VECTOR ( 'NONE', #154, 1000.000000000000000 ) ;
#9 = EDGE_CURVE ( 'NONE', #39, #28, #194, .T. ) ;
#10 = APPROVAL_STATUS ( 'not_yet_approved' ) ;
#11 = DIRECTION ( 'NONE',  ( -3.491481338843133355E-15, 1.224646799147353207E-16, -1.000000000000000000 ) ) ;
#12 = APPROVAL_PERSON_ORGANIZATION ( #112, #27, #113 ) ;
#13 = DIRECTION ( 'NONE',  ( 0.0000000000000000000, 1.000000000000000000, 0.0000000000000000000 ) ) ;
#14 = CIRCLE ( 'NONE', #108, 0.5499999999999972689 ) ;
#15 = ORIENTED_EDGE ( 'NONE', *, *, #152, .F. ) ;
#16 = VERTEX_POINT ( 'NONE', #300 ) ;
#17 = CC_DESIGN_PERSON_AND_ORGANIZATION_ASSIGNMENT ( #166, #314, ( #248 ) ) ;
#18 = CYLINDRICAL_SURFACE ( 'NONE', #207, 0.5499999999999986011 ) ;
#19 = LOCAL_TIME ( 9, 48, 29.00000000000000000, #320 ) ;
#20 = CIRCLE ( 'NONE', #114, 0.5500000000000000444 ) ;
#21 = CARTESIAN_POINT ( 'NONE',  ( 1.047444401652940007E-13, -3.673940397442059178E-15, 30.00000000000000000 ) ) ;
#22 = CARTESIAN_POINT ( 'NONE',  ( 0.0000000000000000000, 0.0000000000000000000, 0.0000000000000000000 ) ) ;
#23 = ADVANCED_FACE ( 'NONE', ( #147 ), #119, .F. ) ;
#24 = CARTESIAN_POINT ( 'NONE',  ( 1.153841501219258047E-15, -4.047131186041911941E-17, 0.3304733404651596373 ) ) ;
#25 = DIRECTION ( 'NONE',  ( 0.0000000000000000000, 1.000000000000000000, 0.0000000000000000000 ) ) ;
#26 = CARTESIAN_POINT ( 'NONE',  ( 2.351707295243321191E-31, 0.5499999999999986011, 6.735557395310425260E-17 ) ) ;
#27 = APPROVAL ( #317, 'UNSPECIFIED' ) ;
#28 = VERTEX_POINT ( 'NONE', #173 ) ;
#29 = VECTOR ( 'NONE', #276, 1000.000000000000000 ) ;
#30 = MECHANICAL_CONTEXT ( 'NONE', #104, 'mechanical' ) ;
#31 = EDGE_CURVE ( 'NONE', #324, #16, #321, .T. ) ;
#32 = APPROVAL_STATUS ( 'not_yet_approved' ) ;
#33 = MANIFOLD_SOLID_BREP ( 'Corps-Déplacer/Copier1[1]', #131 ) ;
#34 = CYLINDRICAL_SURFACE ( 'NONE', #193, 0.5499999999999986011 ) ;
#35 = ORIENTED_EDGE ( 'NONE', *, *, #49, .T. ) ;
#36 = PERSON_AND_ORGANIZATION_ROLE ( 'classification_officer' ) ;
#37 = CARTESIAN_POINT ( 'NONE',  ( 1.153841501219258047E-15, -4.047131186041911941E-17, 0.3304733404651596373 ) ) ;
#38 = EDGE_CURVE ( 'NONE', #286, #293, #68, .T. ) ;
#39 = VERTEX_POINT ( 'NONE', #121 ) ;
#40 = DIRECTION ( 'NONE',  ( -3.491481338843133355E-15, 1.224646799147353207E-16, -1.000000000000000000 ) ) ;
#41 = EDGE_CURVE ( 'NONE', #28, #39, #14, .T. ) ;
#42 = PERSON_AND_ORGANIZATION ( #315, #96 ) ;
#43 = VERTEX_POINT ( 'NONE', #149 ) ;
#44 = SHAPE_DEFINITION_REPRESENTATION ( #56, #54 ) ;
#45 = ORIENTED_EDGE ( 'NONE', *, *, #41, .T. ) ;
#46 = LOCAL_TIME ( 9, 48, 29.00000000000000000, #268 ) ;
#47 = CARTESIAN_POINT ( 'NONE',  ( 2.793185071074506684E-14, -9.797174393178825657E-16, 8.000000000000000000 ) ) ;
#48 = LINE ( 'NONE', #26, #8 ) ;
#49 = EDGE_CURVE ( 'NONE', #16, #324, #58, .T. ) ;
#50 = CARTESIAN_POINT ( 'NONE',  ( 1.040461438975253740E-13, -3.649447461459112464E-15, 29.80000000000000071 ) ) ;
#51 = DIRECTION ( 'NONE',  ( 0.0000000000000000000, 1.000000000000000000, 0.0000000000000000000 ) ) ;
#52 = EDGE_CURVE ( 'NONE', #199, #286, #272, .T. ) ;
#53 = CARTESIAN_POINT ( 'NONE',  ( 1.047444401652940007E-13, -3.673940397442059178E-15, 30.00000000000000000 ) ) ;
#54 = ADVANCED_BREP_SHAPE_REPRESENTATION ( '54492', ( #33, #142, #57 ), #277 ) ;
#55 = CARTESIAN_POINT ( 'NONE',  ( 1.047444401652940007E-13, 0.3499999999999963696, 30.00000000000000000 ) ) ;
#56 = PRODUCT_DEFINITION_SHAPE ( 'NONE', 'NONE',  #291 ) ;
#57 = AXIS2_PLACEMENT_3D ( 'NONE', #232, #210, #292 ) ;
#58 = CIRCLE ( 'NONE', #304, 0.5499999999999963807 ) ;
#59 = DIRECTION ( 'NONE',  ( -4.275831445896958607E-31, -1.000000000000000000, -1.224646799147353207E-16 ) ) ;
#60 = CC_DESIGN_PERSON_AND_ORGANIZATION_ASSIGNMENT ( #294, #36, ( #282 ) ) ;
#61 = EDGE_LOOP ( 'NONE', ( #95, #91, #15, #218 ) ) ;
#62 = APPLICATION_PROTOCOL_DEFINITION ( 'international standard', 'config_control_design', 1994, #104 ) ;
#63 = ORIENTED_EDGE ( 'NONE', *, *, #214, .F. ) ;
#64 = AXIS2_PLACEMENT_3D ( 'NONE', #285, #1, #59 ) ;
#65 = ADVANCED_FACE ( 'NONE', ( #97 ), #18, .T. ) ;
#66 = EDGE_LOOP ( 'NONE', ( #184, #162, #69 ) ) ;
#67 = EDGE_LOOP ( 'NONE', ( #197, #94, #172, #139 ) ) ;
#68 = LINE ( 'NONE', #170, #70 ) ;
#69 = ORIENTED_EDGE ( 'NONE', *, *, #31, .T. ) ;
#70 = VECTOR ( 'NONE', #270, 1000.000000000000114 ) ;
#71 = EDGE_CURVE ( 'NONE', #247, #16, #296, .T. ) ;
#72 = ORIENTED_EDGE ( 'NONE', *, *, #52, .F. ) ;
#73 = CARTESIAN_POINT ( 'NONE',  ( 1.044504011373713257E-13, -0.3500000000000037526, 30.00000000000000000 ) ) ;
#74 = AXIS2_PLACEMENT_3D ( 'NONE', #24, #99, #202 ) ;
#75 = FACE_OUTER_BOUND ( 'NONE', #84, .T. ) ;
#76 = CC_DESIGN_DATE_AND_TIME_ASSIGNMENT ( #325, #241, ( #282 ) ) ;
#77 = DIRECTION ( 'NONE',  ( 4.275831445896958607E-31, 1.000000000000000000, 1.224646799147353207E-16 ) ) ;
#78 = CYLINDRICAL_SURFACE ( 'NONE', #101, 0.5499999999999969358 ) ;
#79 = EDGE_CURVE ( 'NONE', #293, #198, #48, .T. ) ;
#80 = DIRECTION ( 'NONE',  ( -3.491481338843133355E-15, 1.224646799147353207E-16, -1.000000000000000000 ) ) ;
#81 = VECTOR ( 'NONE', #336, 1000.000000000000000 ) ;
#82 = AXIS2_PLACEMENT_3D ( 'NONE', #50, #201, #251 ) ;
#83 = COORDINATED_UNIVERSAL_TIME_OFFSET ( 1, 0, .AHEAD. ) ;
#84 = EDGE_LOOP ( 'NONE', ( #45, #263, #290, #318 ) ) ;
#85 = CALENDAR_DATE ( 2021, 3, 9 ) ;
#86 = EDGE_CURVE ( 'NONE', #199, #43, #257, .T. ) ;
#87 = CIRCLE ( 'NONE', #82, 0.5500000000000000444 ) ;
#88 = CARTESIAN_POINT ( 'NONE',  ( 0.0000000000000000000, 0.0000000000000000000, 0.0000000000000000000 ) ) ;
#89 = ORIENTED_EDGE ( 'NONE', *, *, #79, .T. ) ;
#90 = CC_DESIGN_DATE_AND_TIME_ASSIGNMENT ( #5, #323, ( #291 ) ) ;
#91 = ORIENTED_EDGE ( 'NONE', *, *, #133, .T. ) ;
#92 = CC_DESIGN_APPROVAL ( #181, ( #282 ) ) ;
#93 = EDGE_LOOP ( 'NONE', ( #4, #299, #35 ) ) ;
#94 = ORIENTED_EDGE ( 'NONE', *, *, #9, .T. ) ;
#95 = ORIENTED_EDGE ( 'NONE', *, *, #141, .T. ) ;
#96 = ORGANIZATION ( 'UNSPECIFIED', 'UNSPECIFIED', '' ) ;
#97 = FACE_OUTER_BOUND ( 'NONE', #61, .T. ) ;
#98 = DIRECTION ( 'NONE',  ( 1.903218546456022717E-15, 0.8571673007021097801, 0.5150380749100585964 ) ) ;
#99 = DIRECTION ( 'NONE',  ( 3.491481338843133355E-15, -1.224646799147353207E-16, 1.000000000000000000 ) ) ;
#100 = PLANE ( 'NONE',  #143 ) ;
#101 = AXIS2_PLACEMENT_3D ( 'NONE', #179, #230, #226 ) ;
#102 = LINE ( 'NONE', #174, #29 ) ;
#103 = EDGE_CURVE ( 'NONE', #43, #293, #20, .T. ) ;
#104 = APPLICATION_CONTEXT ( 'configuration controlled 3d designs of mechanical parts and assemblies' ) ;
#105 = CARTESIAN_POINT ( 'NONE',  ( 0.0000000000000000000, 0.0000000000000000000, 0.0000000000000000000 ) ) ;
#106 =( NAMED_UNIT ( * ) SI_UNIT ( $, .STERADIAN. ) SOLID_ANGLE_UNIT ( ) );
#107 = LOCAL_TIME ( 9, 48, 29.00000000000000000, #83 ) ;
#108 = AXIS2_PLACEMENT_3D ( 'NONE', #221, #267, #220 ) ;
#109 = PERSON_AND_ORGANIZATION_ROLE ( 'creator' ) ;
#110 = ORIENTED_EDGE ( 'NONE', *, *, #189, .T. ) ;
#111 = ADVANCED_FACE ( 'NONE', ( #309 ), #78, .T. ) ;
#112 = PERSON_AND_ORGANIZATION ( #315, #96 ) ;
#113 = APPROVAL_ROLE ( '' ) ;
#114 = AXIS2_PLACEMENT_3D ( 'NONE', #337, #228, #310 ) ;
#115 = ORIENTED_EDGE ( 'NONE', *, *, #38, .T. ) ;
#116 = DIRECTION ( 'NONE',  ( 3.501690807976815351E-31, 1.000000000000000000, 9.856383386231922922E-17 ) ) ;
#117 = APPROVAL_DATE_TIME ( #289, #27 ) ;
#118 = ORIENTED_EDGE ( 'NONE', *, *, #103, .T. ) ;
#119 = PLANE ( 'NONE',  #3 ) ;
#120 = PERSON_AND_ORGANIZATION ( #315, #96 ) ;
#121 = CARTESIAN_POINT ( 'NONE',  ( 1.461020167993524589E-14, -0.5499999999999982681, 8.000000000000000000 ) ) ;
#122 = APPLICATION_CONTEXT ( 'configuration controlled 3d designs of mechanical parts and assemblies' ) ;
#123 = LOCAL_TIME ( 9, 48, 29.00000000000000000, #6 ) ;
#124 = DIRECTION ( 'NONE',  ( -3.491481338843133355E-15, 1.224646799147353207E-16, -1.000000000000000000 ) ) ;
#125 = CIRCLE ( 'NONE', #297, 0.5499999999999972689 ) ;
#126 = PRODUCT_RELATED_PRODUCT_CATEGORY ( 'detail', '', ( #248 ) ) ;
#127 = DIRECTION ( 'NONE',  ( 0.0000000000000000000, 1.000000000000000000, 0.0000000000000000000 ) ) ;
#128 = FACE_OUTER_BOUND ( 'NONE', #208, .T. ) ;
#129 = VECTOR ( 'NONE', #227, 1000.000000000000000 ) ;
#130 = CYLINDRICAL_SURFACE ( 'NONE', #255, 0.5499999999999969358 ) ;
#131 = CLOSED_SHELL ( 'NONE', ( #225, #65, #23, #301, #148, #252 ) ) ;
#132 = LINE ( 'NONE', #312, #144 ) ;
#133 = EDGE_CURVE ( 'NONE', #43, #273, #132, .T. ) ;
#134 = CARTESIAN_POINT ( 'NONE',  ( 1.047873028032641491E-13, -0.3500000000000037526, 30.00000000000000000 ) ) ;
#135 = CC_DESIGN_SECURITY_CLASSIFICATION ( #282, ( #319 ) ) ;
#136 = ORIENTED_EDGE ( 'NONE', *, *, #52, .T. ) ;
#137 = ADVANCED_FACE ( 'NONE', ( #75 ), #130, .T. ) ;
#138 = APPROVAL_ROLE ( '' ) ;
#139 = ORIENTED_EDGE ( 'NONE', *, *, #31, .F. ) ;
#140 = FACE_OUTER_BOUND ( 'NONE', #93, .T. ) ;
#141 = EDGE_CURVE ( 'NONE', #293, #43, #87, .T. ) ;
#142 = MANIFOLD_SOLID_BREP ( 'Corps-Déplacer/Copier1[2]', #187 ) ;
#143 = AXIS2_PLACEMENT_3D ( 'NONE', #256, #203, #77 ) ;
#144 = VECTOR ( 'NONE', #176, 1000.000000000000000 ) ;
#145 = DIRECTION ( 'NONE',  ( 4.275831445896958607E-31, 1.000000000000000000, 1.224646799147353207E-16 ) ) ;
#146 = CARTESIAN_POINT ( 'NONE',  ( 1.221197075172362102E-15, 0.5499999999999963807, 0.3304733404651596373 ) ) ;
#147 = FACE_OUTER_BOUND ( 'NONE', #288, .T. ) ;
#148 = ADVANCED_FACE ( 'NONE', ( #155 ), #313, .T. ) ;
#149 = CARTESIAN_POINT ( 'NONE',  ( 6.605635287808814047E-14, -0.5500000000000037081, 29.80000000000000071 ) ) ;
#150 = EDGE_LOOP ( 'NONE', ( #302, #136, #115, #233 ) ) ;
#151 = CARTESIAN_POINT ( 'NONE',  ( 0.0000000000000000000, 0.0000000000000000000, 0.0000000000000000000 ) ) ;
#152 = EDGE_CURVE ( 'NONE', #198, #273, #125, .T. ) ;
#153 = CC_DESIGN_APPROVAL ( #236, ( #291 ) ) ;
#154 = DIRECTION ( 'NONE',  ( -3.491481338843133355E-15, 1.224646799147353207E-16, -1.000000000000000000 ) ) ;
#155 = FACE_OUTER_BOUND ( 'NONE', #150, .T. ) ;
#156 = DIRECTION ( 'NONE',  ( -2.382254525458708792E-15, -0.7071067811865495711, -0.7071067811865455743 ) ) ;
#157 = APPROVAL_PERSON_ORGANIZATION ( #163, #236, #138 ) ;
#158 = FACE_OUTER_BOUND ( 'NONE', #322, .T. ) ;
#159 = CARTESIAN_POINT ( 'NONE',  ( 1.153841501219257850E-15, -0.5499999999999963807, 0.3304733404651595818 ) ) ;
#160 = FACE_OUTER_BOUND ( 'NONE', #169, .T. ) ;
#161 = DIRECTION ( 'NONE',  ( -3.491481338843133355E-15, 1.224646799147353207E-16, -1.000000000000000000 ) ) ;
#162 = ORIENTED_EDGE ( 'NONE', *, *, #240, .T. ) ;
#163 = PERSON_AND_ORGANIZATION ( #315, #96 ) ;
#164 = ORIENTED_EDGE ( 'NONE', *, *, #141, .F. ) ;
#165 = PLANE ( 'NONE',  #64 ) ;
#166 = PERSON_AND_ORGANIZATION ( #315, #96 ) ;
#167 = ORIENTED_EDGE ( 'NONE', *, *, #86, .T. ) ;
#168 = ORIENTED_EDGE ( 'NONE', *, *, #38, .F. ) ;
#169 = EDGE_LOOP ( 'NONE', ( #328, #326 ) ) ;
#170 = CARTESIAN_POINT ( 'NONE',  ( 1.047444401652940007E-13, 0.3499999999999963696, 30.00000000000000000 ) ) ;
#171 = CALENDAR_DATE ( 2021, 3, 9 ) ;
#172 = ORIENTED_EDGE ( 'NONE', *, *, #265, .T. ) ;
#173 = CARTESIAN_POINT ( 'NONE',  ( 2.793185071074506684E-14, 0.5499999999999963807, 8.000000000000000000 ) ) ;
#174 = CARTESIAN_POINT ( 'NONE',  ( 6.735557395310380886E-17, -0.5499999999999969358, -6.735557395310426492E-17 ) ) ;
#175 = AXIS2_PLACEMENT_3D ( 'NONE', #190, #287, #238 ) ;
#176 = DIRECTION ( 'NONE',  ( -3.491481338843133355E-15, 1.224646799147353207E-16, -1.000000000000000000 ) ) ;
#177 = AXIS2_PLACEMENT_3D ( 'NONE', #53, #335, #51 ) ;
#178 = LINE ( 'NONE', #280, #81 ) ;
#179 = CARTESIAN_POINT ( 'NONE',  ( 0.0000000000000000000, 0.0000000000000000000, 0.0000000000000000000 ) ) ;
#180 = DIRECTION ( 'NONE',  ( 0.0000000000000000000, 1.000000000000000000, 0.0000000000000000000 ) ) ;
#181 = APPROVAL ( #10, 'UNSPECIFIED' ) ;
#182 = PERSON_AND_ORGANIZATION ( #315, #96 ) ;
#183 = CALENDAR_DATE ( 2021, 3, 9 ) ;
#184 = ORIENTED_EDGE ( 'NONE', *, *, #71, .F. ) ;
#185 =( NAMED_UNIT ( * ) PLANE_ANGLE_UNIT ( ) SI_UNIT ( $, .RADIAN. ) );
#186 = ORIENTED_EDGE ( 'NONE', *, *, #133, .F. ) ;
#187 = CLOSED_SHELL ( 'NONE', ( #137, #316, #246, #111, #332 ) ) ;
#188 = CALENDAR_DATE ( 2021, 3, 9 ) ;
#189 = EDGE_CURVE ( 'NONE', #286, #199, #327, .T. ) ;
#190 = CARTESIAN_POINT ( 'NONE',  ( 1.153841501219258047E-15, -4.047131186041911941E-17, 0.3304733404651596373 ) ) ;
#191 = APPROVAL_DATE_TIME ( #298, #181 ) ;
#192 = DIRECTION ( 'NONE',  ( -3.491481338843133355E-15, 1.224646799147353207E-16, -1.000000000000000000 ) ) ;
#193 = AXIS2_PLACEMENT_3D ( 'NONE', #88, #161, #145 ) ;
#194 = CIRCLE ( 'NONE', #239, 0.5499999999999972689 ) ;
#195 = PERSON_AND_ORGANIZATION_ROLE ( 'creator' ) ;
#196 = CC_DESIGN_PERSON_AND_ORGANIZATION_ASSIGNMENT ( #219, #195, ( #319 ) ) ;
#197 = ORIENTED_EDGE ( 'NONE', *, *, #204, .F. ) ;
#198 = VERTEX_POINT ( 'NONE', #253 ) ;
#199 = VERTEX_POINT ( 'NONE', #73 ) ;
#200 = EDGE_LOOP ( 'NONE', ( #186, #118, #89, #63 ) ) ;
#201 = DIRECTION ( 'NONE',  ( -3.491481338843133355E-15, 1.224646799147353207E-16, -1.000000000000000000 ) ) ;
#202 = DIRECTION ( 'NONE',  ( -3.501690807976815351E-31, -1.000000000000000000, -9.856383386231922922E-17 ) ) ;
#203 = DIRECTION ( 'NONE',  ( -3.491481338843133355E-15, 1.224646799147353207E-16, -1.000000000000000000 ) ) ;
#204 = EDGE_CURVE ( 'NONE', #39, #324, #102, .T. ) ;
#205 = DIRECTION ( 'NONE',  ( -3.491481338843133355E-15, 1.224646799147353207E-16, -1.000000000000000000 ) ) ;
#206 = CARTESIAN_POINT ( 'NONE',  ( 2.793185071074506684E-14, -9.797174393178825657E-16, 8.000000000000000000 ) ) ;
#207 = AXIS2_PLACEMENT_3D ( 'NONE', #151, #124, #223 ) ;
#208 = EDGE_LOOP ( 'NONE', ( #215, #72 ) ) ;
#209 = DESIGN_CONTEXT ( 'detailed design', #122, 'design' ) ;
#210 = DIRECTION ( 'NONE',  ( 0.0000000000000000000, 0.0000000000000000000, 1.000000000000000000 ) ) ;
#211 = APPLICATION_PROTOCOL_DEFINITION ( 'international standard', 'config_control_design', 1994, #122 ) ;
#212 = AXIS2_PLACEMENT_3D ( 'NONE', #249, #40, #116 ) ;
#213 = DATE_AND_TIME ( #85, #107 ) ;
#214 = EDGE_CURVE ( 'NONE', #273, #198, #216, .T. ) ;
#215 = ORIENTED_EDGE ( 'NONE', *, *, #189, .F. ) ;
#216 = CIRCLE ( 'NONE', #261, 0.5499999999999972689 ) ;
#217 = APPROVAL_ROLE ( '' ) ;
#218 = ORIENTED_EDGE ( 'NONE', *, *, #79, .F. ) ;
#219 = PERSON_AND_ORGANIZATION ( #315, #96 ) ;
#220 = DIRECTION ( 'NONE',  ( 0.0000000000000000000, 1.000000000000000000, 0.0000000000000000000 ) ) ;
#221 = CARTESIAN_POINT ( 'NONE',  ( 2.793185071074506684E-14, -9.797174393178825657E-16, 8.000000000000000000 ) ) ;
#222 = LOCAL_TIME ( 9, 48, 29.00000000000000000, #305 ) ;
#223 = DIRECTION ( 'NONE',  ( 4.275831445896958607E-31, 1.000000000000000000, 1.224646799147353207E-16 ) ) ;
#224 = CARTESIAN_POINT ( 'NONE',  ( 1.047444401652940007E-13, -3.673940397442059178E-15, 30.00000000000000000 ) ) ;
#225 = ADVANCED_FACE ( 'NONE', ( #158 ), #266, .T. ) ;
#226 = DIRECTION ( 'NONE',  ( 4.275831445896958607E-31, 1.000000000000000000, 1.224646799147352961E-16 ) ) ;
#227 = DIRECTION ( 'NONE',  ( 1.798245827342160317E-15, -0.8571673007021098911, 0.5150380749100582634 ) ) ;
#228 = DIRECTION ( 'NONE',  ( -3.491481338843133355E-15, 1.224646799147353207E-16, -1.000000000000000000 ) ) ;
#229 = CC_DESIGN_PERSON_AND_ORGANIZATION_ASSIGNMENT ( #182, #109, ( #291 ) ) ;
#230 = DIRECTION ( 'NONE',  ( -3.491481338843133355E-15, 1.224646799147353207E-16, -1.000000000000000000 ) ) ;
#231 = APPROVAL_PERSON_ORGANIZATION ( #120, #181, #217 ) ;
#232 = CARTESIAN_POINT ( 'NONE',  ( 0.0000000000000000000, 0.0000000000000000000, 0.0000000000000000000 ) ) ;
#233 = ORIENTED_EDGE ( 'NONE', *, *, #103, .F. ) ;
#234 = VECTOR ( 'NONE', #98, 999.9999999999998863 ) ;
#235 = UNCERTAINTY_MEASURE_WITH_UNIT (LENGTH_MEASURE( 1.000000000000000082E-05 ), #258, 'distance_accuracy_value', 'NONE');
#236 = APPROVAL ( #32, 'UNSPECIFIED' ) ;
#237 = APPROVAL_DATE_TIME ( #213, #236 ) ;
#238 = DIRECTION ( 'NONE',  ( -3.501690807976815351E-31, -1.000000000000000000, -9.856383386231922922E-17 ) ) ;
#239 = AXIS2_PLACEMENT_3D ( 'NONE', #245, #306, #13 ) ;
#240 = EDGE_CURVE ( 'NONE', #247, #324, #283, .T. ) ;
#241 = DATE_TIME_ROLE ( 'classification_date' ) ;
#242 = DIRECTION ( 'NONE',  ( -4.275831445896958607E-31, -1.000000000000000000, -1.224646799147353207E-16 ) ) ;
#243 = SECURITY_CLASSIFICATION_LEVEL ( 'unclassified' ) ;
#244 = CARTESIAN_POINT ( 'NONE',  ( 2.793185071074506684E-14, 4.124339402320074210E-33, 8.000000000000000000 ) ) ;
#245 = CARTESIAN_POINT ( 'NONE',  ( 2.793185071074506684E-14, -9.797174393178825657E-16, 8.000000000000000000 ) ) ;
#246 = ADVANCED_FACE ( 'NONE', ( #334 ), #2, .T. ) ;
#247 = VERTEX_POINT ( 'NONE', #22 ) ;
#248 = PRODUCT ( '54492', '54492', '', ( #30 ) ) ;
#249 = CARTESIAN_POINT ( 'NONE',  ( 1.153841501219258047E-15, -4.047131186041911941E-17, 0.3304733404651596373 ) ) ;
#250 = AXIS2_PLACEMENT_3D ( 'NONE', #224, #80, #180 ) ;
#251 = DIRECTION ( 'NONE',  ( 0.0000000000000000000, 1.000000000000000000, 0.0000000000000000000 ) ) ;
#252 = ADVANCED_FACE ( 'NONE', ( #128 ), #100, .F. ) ;
#253 = CARTESIAN_POINT ( 'NONE',  ( 2.793185071074506684E-14, 0.5499999999999963807, 8.000000000000000000 ) ) ;
#254 = DIRECTION ( 'NONE',  ( -3.491481338843133355E-15, 1.224646799147353207E-16, -1.000000000000000000 ) ) ;
#255 = AXIS2_PLACEMENT_3D ( 'NONE', #105, #205, #279 ) ;
#256 = CARTESIAN_POINT ( 'NONE',  ( 1.047444401652940007E-13, 2.624579619658196075E-33, 30.00000000000000000 ) ) ;
#257 = LINE ( 'NONE', #134, #278 ) ;
#258 =( LENGTH_UNIT ( ) NAMED_UNIT ( * ) SI_UNIT ( .MILLI., .METRE. ) );
#259 = ORIENTED_EDGE ( 'NONE', *, *, #214, .T. ) ;
#260 = CARTESIAN_POINT ( 'NONE',  ( 1.040461438975253740E-13, 0.5499999999999963807, 29.80000000000000071 ) ) ;
#261 = AXIS2_PLACEMENT_3D ( 'NONE', #47, #311, #25 ) ;
#262 = FACE_OUTER_BOUND ( 'NONE', #200, .T. ) ;
#263 = ORIENTED_EDGE ( 'NONE', *, *, #204, .T. ) ;
#264 = CARTESIAN_POINT ( 'NONE',  ( 6.605635287808827931E-14, -0.5499999999999982681, 8.000000000000000000 ) ) ;
#265 = EDGE_CURVE ( 'NONE', #28, #16, #178, .T. ) ;
#266 = CONICAL_SURFACE ( 'NONE', #303, 0.3500000000000000333, 0.7853981633974512766 ) ;
#267 = DIRECTION ( 'NONE',  ( -3.491481338843133355E-15, 1.224646799147353207E-16, -1.000000000000000000 ) ) ;
#268 = COORDINATED_UNIVERSAL_TIME_OFFSET ( 1, 0, .AHEAD. ) ;
#269 = ORIENTED_EDGE ( 'NONE', *, *, #152, .T. ) ;
#270 = DIRECTION ( 'NONE',  ( -2.468850131082257455E-15, 0.7071067811865497932, -0.7071067811865453523 ) ) ;
#271 = CONICAL_SURFACE ( 'NONE', #175, 0.5499999999999963807, 1.029744258676649649 ) ;
#272 = CIRCLE ( 'NONE', #295, 0.3500000000000000333 ) ;
#273 = VERTEX_POINT ( 'NONE', #264 ) ;
#274 = PERSON_AND_ORGANIZATION_ROLE ( 'design_supplier' ) ;
#275 = DIRECTION ( 'NONE',  ( 3.501690807976815351E-31, 1.000000000000000000, 9.856383386231922922E-17 ) ) ;
#276 = DIRECTION ( 'NONE',  ( -3.491481338843133355E-15, 1.224646799147353207E-16, -1.000000000000000000 ) ) ;
#277 =( GEOMETRIC_REPRESENTATION_CONTEXT ( 3 ) GLOBAL_UNCERTAINTY_ASSIGNED_CONTEXT ( ( #235 ) ) GLOBAL_UNIT_ASSIGNED_CONTEXT ( ( #258, #185, #106 ) ) REPRESENTATION_CONTEXT ( 'NONE', 'WORKASPACE' ) );
#278 = VECTOR ( 'NONE', #156, 1000.000000000000114 ) ;
#279 = DIRECTION ( 'NONE',  ( 4.275831445896958607E-31, 1.000000000000000000, 1.224646799147352961E-16 ) ) ;
#280 = CARTESIAN_POINT ( 'NONE',  ( 2.351707295243314184E-31, 0.5499999999999969358, 6.735557395310404306E-17 ) ) ;
#281 = DIRECTION ( 'NONE',  ( -3.491481338843133355E-15, 1.224646799147353207E-16, -1.000000000000000000 ) ) ;
#282 = SECURITY_CLASSIFICATION ( '', '', #243 ) ;
#283 = LINE ( 'NONE', #159, #129 ) ;
#284 = CARTESIAN_POINT ( 'NONE',  ( 1.153841501219257850E-15, -0.5499999999999963807, 0.3304733404651595818 ) ) ;
#285 = CARTESIAN_POINT ( 'NONE',  ( 2.793185071074506684E-14, 4.124339402320074210E-33, 8.000000000000000000 ) ) ;
#286 = VERTEX_POINT ( 'NONE', #55 ) ;
#287 = DIRECTION ( 'NONE',  ( 3.491481338843133355E-15, -1.224646799147353207E-16, 1.000000000000000000 ) ) ;
#288 = EDGE_LOOP ( 'NONE', ( #269, #259 ) ) ;
#289 = DATE_AND_TIME ( #188, #19 ) ;
#290 = ORIENTED_EDGE ( 'NONE', *, *, #49, .F. ) ;
#291 = PRODUCT_DEFINITION ( 'UNKNOWN', '', #319, #209 ) ;
#292 = DIRECTION ( 'NONE',  ( 1.000000000000000000, 0.0000000000000000000, 0.0000000000000000000 ) ) ;
#293 = VERTEX_POINT ( 'NONE', #260 ) ;
#294 = PERSON_AND_ORGANIZATION ( #315, #96 ) ;
#295 = AXIS2_PLACEMENT_3D ( 'NONE', #329, #11, #331 ) ;
#296 = LINE ( 'NONE', #146, #234 ) ;
#297 = AXIS2_PLACEMENT_3D ( 'NONE', #206, #281, #308 ) ;
#298 = DATE_AND_TIME ( #330, #222 ) ;
#299 = ORIENTED_EDGE ( 'NONE', *, *, #71, .T. ) ;
#300 = CARTESIAN_POINT ( 'NONE',  ( 1.221197075172362102E-15, 0.5499999999999963807, 0.3304733404651596373 ) ) ;
#301 = ADVANCED_FACE ( 'NONE', ( #262 ), #34, .T. ) ;
#302 = ORIENTED_EDGE ( 'NONE', *, *, #86, .F. ) ;
#303 = AXIS2_PLACEMENT_3D ( 'NONE', #21, #254, #127 ) ;
#304 = AXIS2_PLACEMENT_3D ( 'NONE', #37, #192, #275 ) ;
#305 = COORDINATED_UNIVERSAL_TIME_OFFSET ( 1, 0, .AHEAD. ) ;
#306 = DIRECTION ( 'NONE',  ( -3.491481338843133355E-15, 1.224646799147353207E-16, -1.000000000000000000 ) ) ;
#307 = CC_DESIGN_PERSON_AND_ORGANIZATION_ASSIGNMENT ( #42, #274, ( #319 ) ) ;
#308 = DIRECTION ( 'NONE',  ( 0.0000000000000000000, 1.000000000000000000, 0.0000000000000000000 ) ) ;
#309 = FACE_OUTER_BOUND ( 'NONE', #67, .T. ) ;
#310 = DIRECTION ( 'NONE',  ( 0.0000000000000000000, 1.000000000000000000, 0.0000000000000000000 ) ) ;
#311 = DIRECTION ( 'NONE',  ( -3.491481338843133355E-15, 1.224646799147353207E-16, -1.000000000000000000 ) ) ;
#312 = CARTESIAN_POINT ( 'NONE',  ( 6.735557395310403073E-17, -0.5499999999999986011, -6.735557395310448679E-17 ) ) ;
#313 = CONICAL_SURFACE ( 'NONE', #250, 0.3500000000000000333, 0.7853981633974512766 ) ;
#314 = PERSON_AND_ORGANIZATION_ROLE ( 'design_owner' ) ;
#315 = PERSON ( 'UNSPECIFIED', 'UNSPECIFIED', 'UNSPECIFIED', ('UNSPECIFIED'), ('UNSPECIFIED'), ('UNSPECIFIED') ) ;
#316 = ADVANCED_FACE ( 'NONE', ( #140 ), #271, .T. ) ;
#317 = APPROVAL_STATUS ( 'not_yet_approved' ) ;
#318 = ORIENTED_EDGE ( 'NONE', *, *, #265, .F. ) ;
#319 = PRODUCT_DEFINITION_FORMATION_WITH_SPECIFIED_SOURCE ( 'ANY', '', #248, .NOT_KNOWN. ) ;
#320 = COORDINATED_UNIVERSAL_TIME_OFFSET ( 1, 0, .AHEAD. ) ;
#321 = CIRCLE ( 'NONE', #212, 0.5499999999999963807 ) ;
#322 = EDGE_LOOP ( 'NONE', ( #110, #167, #164, #168 ) ) ;
#323 = DATE_TIME_ROLE ( 'creation_date' ) ;
#324 = VERTEX_POINT ( 'NONE', #284 ) ;
#325 = DATE_AND_TIME ( #171, #46 ) ;
#326 = ORIENTED_EDGE ( 'NONE', *, *, #9, .F. ) ;
#327 = CIRCLE ( 'NONE', #177, 0.3500000000000000333 ) ;
#328 = ORIENTED_EDGE ( 'NONE', *, *, #41, .F. ) ;
#329 = CARTESIAN_POINT ( 'NONE',  ( 1.047444401652940007E-13, -3.673940397442059178E-15, 30.00000000000000000 ) ) ;
#330 = CALENDAR_DATE ( 2021, 3, 9 ) ;
#331 = DIRECTION ( 'NONE',  ( 0.0000000000000000000, 1.000000000000000000, 0.0000000000000000000 ) ) ;
#332 = ADVANCED_FACE ( 'NONE', ( #160 ), #165, .T. ) ;
#333 = DIRECTION ( 'NONE',  ( 3.491481338843133355E-15, -1.224646799147353207E-16, 1.000000000000000000 ) ) ;
#334 = FACE_OUTER_BOUND ( 'NONE', #66, .T. ) ;
#335 = DIRECTION ( 'NONE',  ( -3.491481338843133355E-15, 1.224646799147353207E-16, -1.000000000000000000 ) ) ;
#336 = DIRECTION ( 'NONE',  ( -3.491481338843133355E-15, 1.224646799147353207E-16, -1.000000000000000000 ) ) ;
#337 = CARTESIAN_POINT ( 'NONE',  ( 1.040461438975253740E-13, -3.649447461459112464E-15, 29.80000000000000071 ) ) ;
ENDSEC;
END-ISO-10303-21;
