ISO-10303-21;
HEADER;
FILE_DESCRIPTION (( 'STEP AP203' ),
    '1' );
FILE_NAME ('54491.step',
    '2021-09-03T07:48:28',
    ( '' ),
    ( '' ),
    'SwSTEP 2.0',
    'SolidWorks 2019',
    '' );
FILE_SCHEMA (( 'CONFIG_CONTROL_DESIGN' ));
ENDSEC;

DATA;
#1 = ORIENTED_EDGE ( 'NONE', *, *, #118, .T. ) ;
#2 = UNCERTAINTY_MEASURE_WITH_UNIT (LENGTH_MEASURE( 1.000000000000000082E-05 ), #93, 'distance_accuracy_value', 'NONE');
#3 = DIRECTION ( 'NONE',  ( 0.0000000000000000000, 1.000000000000000000, 0.0000000000000000000 ) ) ;
#4 = CARTESIAN_POINT ( 'NONE',  ( 1.165688117209981953E-15, 0.5249999999999963585, 0.3154518249894704973 ) ) ;
#5 = CARTESIAN_POINT ( 'NONE',  ( 6.605329126109040525E-14, -0.5249999999999983569, 8.000000000000000000 ) ) ;
#6 = LINE ( 'NONE', #268, #249 ) ;
#7 = CYLINDRICAL_SURFACE ( 'NONE', #13, 0.5249999999999968026 ) ;
#8 = EDGE_CURVE ( 'NONE', #22, #56, #234, .T. ) ;
#9 = VECTOR ( 'NONE', #42, 1000.000000000000114 ) ;
#10 = FACE_OUTER_BOUND ( 'NONE', #183, .T. ) ;
#11 = CARTESIAN_POINT ( 'NONE',  ( 2.793185071074506684E-14, 0.5249999999999963585, 8.000000000000000000 ) ) ;
#12 = FACE_OUTER_BOUND ( 'NONE', #316, .T. ) ;
#13 = AXIS2_PLACEMENT_3D ( 'NONE', #269, #239, #58 ) ;
#14 = DIRECTION ( 'NONE',  ( -3.668437989309046175E-31, -1.000000000000000000, -1.032573497605249497E-16 ) ) ;
#15 = DIRECTION ( 'NONE',  ( -3.491481338843133355E-15, 1.224646799147353207E-16, -1.000000000000000000 ) ) ;
#16 = CALENDAR_DATE ( 2021, 3, 9 ) ;
#17 = ORIENTED_EDGE ( 'NONE', *, *, #326, .T. ) ;
#18 = EDGE_CURVE ( 'NONE', #309, #56, #167, .T. ) ;
#19 = APPLICATION_PROTOCOL_DEFINITION ( 'international standard', 'config_control_design', 1994, #290 ) ;
#20 = ORIENTED_EDGE ( 'NONE', *, *, #35, .F. ) ;
#21 = CONICAL_SURFACE ( 'NONE', #222, 0.3250000000000000666, 0.7853981633974512766 ) ;
#22 = VERTEX_POINT ( 'NONE', #292 ) ;
#23 = PERSON_AND_ORGANIZATION ( #139, #116 ) ;
#24 = ORIENTED_EDGE ( 'NONE', *, *, #143, .T. ) ;
#25 = APPLICATION_CONTEXT ( 'configuration controlled 3d designs of mechanical parts and assemblies' ) ;
#26 = COORDINATED_UNIVERSAL_TIME_OFFSET ( 1, 0, .AHEAD. ) ;
#27 = MANIFOLD_SOLID_BREP ( 'Corps-Déplacer/Copier1[1]', #267 ) ;
#28 = CARTESIAN_POINT ( 'NONE',  ( 1.040461438975253740E-13, -3.649447461459112464E-15, 29.80000000000000071 ) ) ;
#29 = DIRECTION ( 'NONE',  ( 3.491481338843133355E-15, -1.224646799147353207E-16, 1.000000000000000000 ) ) ;
#30 = CC_DESIGN_DATE_AND_TIME_ASSIGNMENT ( #255, #55, ( #263 ) ) ;
#31 = DIRECTION ( 'NONE',  ( 3.491481338843133355E-15, -1.224646799147353207E-16, 1.000000000000000000 ) ) ;
#32 = CIRCLE ( 'NONE', #149, 0.3250000000000000666 ) ;
#33 = LINE ( 'NONE', #240, #291 ) ;
#34 = CARTESIAN_POINT ( 'NONE',  ( 2.793185071074506684E-14, -9.797174393178825657E-16, 8.000000000000000000 ) ) ;
#35 = EDGE_CURVE ( 'NONE', #258, #22, #313, .T. ) ;
#36 = CARTESIAN_POINT ( 'NONE',  ( 6.605329126109026641E-14, -0.5250000000000037970, 29.80000000000000071 ) ) ;
#37 = PRODUCT_DEFINITION_FORMATION_WITH_SPECIFIED_SOURCE ( 'ANY', '', #221, .NOT_KNOWN. ) ;
#38 = LOCAL_TIME ( 9, 48, 28.00000000000000000, #120 ) ;
#39 = DIRECTION ( 'NONE',  ( 0.0000000000000000000, 1.000000000000000000, 0.0000000000000000000 ) ) ;
#40 = CARTESIAN_POINT ( 'NONE',  ( 1.101394160254746237E-15, -3.863170677585460501E-17, 0.3154518249894704418 ) ) ;
#41 = ADVANCED_BREP_SHAPE_REPRESENTATION ( '54491', ( #27, #247, #198 ), #187 ) ;
#42 = DIRECTION ( 'NONE',  ( -2.382254525458708792E-15, -0.7071067811865495711, -0.7071067811865455743 ) ) ;
#43 = CONICAL_SURFACE ( 'NONE', #318, 0.5249999999999963585, 1.029744258676649649 ) ;
#44 = CYLINDRICAL_SURFACE ( 'NONE', #279, 0.5249999999999968026 ) ;
#45 = APPROVAL_DATE_TIME ( #201, #284 ) ;
#46 = EDGE_LOOP ( 'NONE', ( #209, #127 ) ) ;
#47 = EDGE_CURVE ( 'NONE', #252, #186, #6, .T. ) ;
#48 = COORDINATED_UNIVERSAL_TIME_OFFSET ( 1, 0, .AHEAD. ) ;
#49 = ORIENTED_EDGE ( 'NONE', *, *, #135, .F. ) ;
#50 = ORIENTED_EDGE ( 'NONE', *, *, #68, .F. ) ;
#51 = CIRCLE ( 'NONE', #78, 0.5249999999999973577 ) ;
#52 = ADVANCED_FACE ( 'NONE', ( #136 ), #43, .T. ) ;
#53 = MECHANICAL_CONTEXT ( 'NONE', #290, 'mechanical' ) ;
#54 = ORIENTED_EDGE ( 'NONE', *, *, #125, .T. ) ;
#55 = DATE_TIME_ROLE ( 'creation_date' ) ;
#56 = VERTEX_POINT ( 'NONE', #238 ) ;
#57 = DIRECTION ( 'NONE',  ( 0.0000000000000000000, 1.000000000000000000, 0.0000000000000000000 ) ) ;
#58 = DIRECTION ( 'NONE',  ( 4.275831445896958607E-31, 1.000000000000000000, 1.224646799147353207E-16 ) ) ;
#59 = CC_DESIGN_PERSON_AND_ORGANIZATION_ASSIGNMENT ( #230, #207, ( #104 ) ) ;
#60 = CARTESIAN_POINT ( 'NONE',  ( 1.458091639245511829E-14, -0.5249999999999983569, 8.000000000000000000 ) ) ;
#61 = DIRECTION ( 'NONE',  ( 1.798245827342160317E-15, -0.8571673007021098911, 0.5150380749100582634 ) ) ;
#62 = VECTOR ( 'NONE', #250, 1000.000000000000000 ) ;
#63 = DIRECTION ( 'NONE',  ( -4.275831445896958607E-31, -1.000000000000000000, -1.224646799147353207E-16 ) ) ;
#64 = CARTESIAN_POINT ( 'NONE',  ( 1.044473395203734390E-13, -0.3250000000000037859, 30.00000000000000000 ) ) ;
#65 = CARTESIAN_POINT ( 'NONE',  ( 0.0000000000000000000, 0.0000000000000000000, 0.0000000000000000000 ) ) ;
#66 = AXIS2_PLACEMENT_3D ( 'NONE', #210, #215, #237 ) ;
#67 = CARTESIAN_POINT ( 'NONE',  ( 1.047842411862662877E-13, -0.3250000000000037859, 30.00000000000000000 ) ) ;
#68 = EDGE_CURVE ( 'NONE', #202, #181, #51, .T. ) ;
#69 = CARTESIAN_POINT ( 'NONE',  ( 0.0000000000000000000, 0.0000000000000000000, 0.0000000000000000000 ) ) ;
#70 = CC_DESIGN_PERSON_AND_ORGANIZATION_ASSIGNMENT ( #257, #203, ( #221 ) ) ;
#71 = CLOSED_SHELL ( 'NONE', ( #231, #52, #294, #88, #179 ) ) ;
#72 = COORDINATED_UNIVERSAL_TIME_OFFSET ( 1, 0, .AHEAD. ) ;
#73 = ORIENTED_EDGE ( 'NONE', *, *, #205, .T. ) ;
#74 = DATE_AND_TIME ( #154, #274 ) ;
#75 = VERTEX_POINT ( 'NONE', #4 ) ;
#76 = PERSON_AND_ORGANIZATION ( #139, #116 ) ;
#77 = ORIENTED_EDGE ( 'NONE', *, *, #118, .F. ) ;
#78 = AXIS2_PLACEMENT_3D ( 'NONE', #34, #107, #57 ) ;
#79 = EDGE_LOOP ( 'NONE', ( #232, #20 ) ) ;
#80 = VERTEX_POINT ( 'NONE', #60 ) ;
#81 = DESIGN_CONTEXT ( 'detailed design', #25, 'design' ) ;
#82 = CC_DESIGN_PERSON_AND_ORGANIZATION_ASSIGNMENT ( #23, #177, ( #37 ) ) ;
#83 = DIRECTION ( 'NONE',  ( -3.491481338843133355E-15, 1.224646799147353207E-16, -1.000000000000000000 ) ) ;
#84 = VECTOR ( 'NONE', #106, 999.9999999999998863 ) ;
#85 = APPROVAL_PERSON_ORGANIZATION ( #158, #170, #101 ) ;
#86 = PLANE ( 'NONE',  #182 ) ;
#87 = CARTESIAN_POINT ( 'NONE',  ( 1.047444401652940007E-13, 2.437109646825463875E-33, 30.00000000000000000 ) ) ;
#88 = ADVANCED_FACE ( 'NONE', ( #165 ), #7, .T. ) ;
#89 = DIRECTION ( 'NONE',  ( -3.491481338843133355E-15, 1.224646799147353207E-16, -1.000000000000000000 ) ) ;
#90 = CIRCLE ( 'NONE', #137, 0.5249999999999963585 ) ;
#91 = CARTESIAN_POINT ( 'NONE',  ( 1.047444401652940007E-13, 0.3249999999999964029, 30.00000000000000000 ) ) ;
#92 = DIRECTION ( 'NONE',  ( -3.491481338843133355E-15, 1.224646799147353207E-16, -1.000000000000000000 ) ) ;
#93 =( LENGTH_UNIT ( ) NAMED_UNIT ( * ) SI_UNIT ( .MILLI., .METRE. ) );
#94 = AXIS2_PLACEMENT_3D ( 'NONE', #278, #248, #171 ) ;
#95 = DIRECTION ( 'NONE',  ( 4.275831445896958607E-31, 1.000000000000000000, 1.224646799147353207E-16 ) ) ;
#96 = CARTESIAN_POINT ( 'NONE',  ( 0.0000000000000000000, 0.0000000000000000000, 0.0000000000000000000 ) ) ;
#97 = APPROVAL_ROLE ( '' ) ;
#98 = EDGE_LOOP ( 'NONE', ( #307, #131, #259, #208 ) ) ;
#99 = DIRECTION ( 'NONE',  ( 1.000000000000000000, 0.0000000000000000000, 0.0000000000000000000 ) ) ;
#100 = ORIENTED_EDGE ( 'NONE', *, *, #68, .T. ) ;
#101 = APPROVAL_ROLE ( '' ) ;
#102 = VECTOR ( 'NONE', #199, 1000.000000000000000 ) ;
#103 = ORIENTED_EDGE ( 'NONE', *, *, #246, .T. ) ;
#104 = SECURITY_CLASSIFICATION ( '', '', #306 ) ;
#105 = CC_DESIGN_PERSON_AND_ORGANIZATION_ASSIGNMENT ( #76, #233, ( #37 ) ) ;
#106 = DIRECTION ( 'NONE',  ( 1.903218546456022717E-15, 0.8571673007021097801, 0.5150380749100585964 ) ) ;
#107 = DIRECTION ( 'NONE',  ( -3.491481338843133355E-15, 1.224646799147353207E-16, -1.000000000000000000 ) ) ;
#108 = CARTESIAN_POINT ( 'NONE',  ( 1.101394160254746040E-15, -0.5249999999999963585, 0.3154518249894704418 ) ) ;
#109 = APPROVAL ( #126, 'UNSPECIFIED' ) ;
#110 = DIRECTION ( 'NONE',  ( -3.491481338843133355E-15, 1.224646799147353207E-16, -1.000000000000000000 ) ) ;
#111 = FACE_OUTER_BOUND ( 'NONE', #153, .T. ) ;
#112 = AXIS2_PLACEMENT_3D ( 'NONE', #245, #303, #196 ) ;
#113 = DIRECTION ( 'NONE',  ( -3.491481338843133355E-15, 1.224646799147353207E-16, -1.000000000000000000 ) ) ;
#114 = EDGE_CURVE ( 'NONE', #80, #186, #33, .T. ) ;
#115 = AXIS2_PLACEMENT_3D ( 'NONE', #265, #83, #163 ) ;
#116 = ORGANIZATION ( 'UNSPECIFIED', 'UNSPECIFIED', '' ) ;
#117 = FACE_OUTER_BOUND ( 'NONE', #286, .T. ) ;
#118 = EDGE_CURVE ( 'NONE', #181, #202, #144, .T. ) ;
#119 = CARTESIAN_POINT ( 'NONE',  ( 1.101394160254746237E-15, -3.863170677585460501E-17, 0.3154518249894704418 ) ) ;
#120 = COORDINATED_UNIVERSAL_TIME_OFFSET ( 1, 0, .AHEAD. ) ;
#121 = ORIENTED_EDGE ( 'NONE', *, *, #114, .T. ) ;
#122 = CC_DESIGN_APPROVAL ( #284, ( #104 ) ) ;
#123 = CC_DESIGN_SECURITY_CLASSIFICATION ( #104, ( #37 ) ) ;
#124 = EDGE_LOOP ( 'NONE', ( #315, #229, #103, #77 ) ) ;
#125 = EDGE_CURVE ( 'NONE', #252, #75, #134, .T. ) ;
#126 = APPROVAL_STATUS ( 'not_yet_approved' ) ;
#127 = ORIENTED_EDGE ( 'NONE', *, *, #277, .F. ) ;
#128 = PERSON_AND_ORGANIZATION ( #139, #116 ) ;
#129 = ORIENTED_EDGE ( 'NONE', *, *, #143, .F. ) ;
#130 = DATE_TIME_ROLE ( 'classification_date' ) ;
#131 = ORIENTED_EDGE ( 'NONE', *, *, #35, .T. ) ;
#132 = ADVANCED_FACE ( 'NONE', ( #111 ), #296, .T. ) ;
#133 = DIRECTION ( 'NONE',  ( -3.491481338843133355E-15, 1.224646799147353207E-16, -1.000000000000000000 ) ) ;
#134 = LINE ( 'NONE', #191, #84 ) ;
#135 = EDGE_CURVE ( 'NONE', #186, #75, #90, .T. ) ;
#136 = FACE_OUTER_BOUND ( 'NONE', #159, .T. ) ;
#137 = AXIS2_PLACEMENT_3D ( 'NONE', #319, #293, #323 ) ;
#138 = DIRECTION ( 'NONE',  ( 0.0000000000000000000, 1.000000000000000000, 0.0000000000000000000 ) ) ;
#139 = PERSON ( 'UNSPECIFIED', 'UNSPECIFIED', 'UNSPECIFIED', ('UNSPECIFIED'), ('UNSPECIFIED'), ('UNSPECIFIED') ) ;
#140 = CARTESIAN_POINT ( 'NONE',  ( 2.793185071074506684E-14, -9.797174393178825657E-16, 8.000000000000000000 ) ) ;
#141 = CYLINDRICAL_SURFACE ( 'NONE', #162, 0.5249999999999988010 ) ;
#142 = LOCAL_TIME ( 9, 48, 28.00000000000000000, #48 ) ;
#143 = EDGE_CURVE ( 'NONE', #56, #309, #227, .T. ) ;
#144 = CIRCLE ( 'NONE', #254, 0.5249999999999973577 ) ;
#145 = DIRECTION ( 'NONE',  ( -3.491481338843133355E-15, 1.224646799147353207E-16, -1.000000000000000000 ) ) ;
#146 =( NAMED_UNIT ( * ) PLANE_ANGLE_UNIT ( ) SI_UNIT ( $, .RADIAN. ) );
#147 = ADVANCED_FACE ( 'NONE', ( #214 ), #21, .T. ) ;
#148 = DIRECTION ( 'NONE',  ( 4.275831445896958607E-31, 1.000000000000000000, 1.224646799147353207E-16 ) ) ;
#149 = AXIS2_PLACEMENT_3D ( 'NONE', #302, #300, #39 ) ;
#150 = LOCAL_TIME ( 9, 48, 28.00000000000000000, #72 ) ;
#151 = LINE ( 'NONE', #223, #62 ) ;
#152 = SHAPE_DEFINITION_REPRESENTATION ( #174, #41 ) ;
#153 = EDGE_LOOP ( 'NONE', ( #185, #157, #129, #330 ) ) ;
#154 = CALENDAR_DATE ( 2021, 3, 9 ) ;
#155 = ORIENTED_EDGE ( 'NONE', *, *, #277, .T. ) ;
#156 = CALENDAR_DATE ( 2021, 3, 9 ) ;
#157 = ORIENTED_EDGE ( 'NONE', *, *, #310, .T. ) ;
#158 = PERSON_AND_ORGANIZATION ( #139, #116 ) ;
#159 = EDGE_LOOP ( 'NONE', ( #253, #54, #282 ) ) ;
#160 = APPROVAL_ROLE ( '' ) ;
#161 = ORIENTED_EDGE ( 'NONE', *, *, #241, .F. ) ;
#162 = AXIS2_PLACEMENT_3D ( 'NONE', #69, #327, #243 ) ;
#163 = DIRECTION ( 'NONE',  ( 0.0000000000000000000, 1.000000000000000000, 0.0000000000000000000 ) ) ;
#164 = CARTESIAN_POINT ( 'NONE',  ( 2.793185071074506684E-14, 0.5249999999999963585, 8.000000000000000000 ) ) ;
#165 = FACE_OUTER_BOUND ( 'NONE', #335, .T. ) ;
#166 = DIRECTION ( 'NONE',  ( -3.668437989309046175E-31, -1.000000000000000000, -1.032573497605249497E-16 ) ) ;
#167 = CIRCLE ( 'NONE', #244, 0.5250000000000000222 ) ;
#168 = DIRECTION ( 'NONE',  ( -2.468850131082257455E-15, 0.7071067811865497932, -0.7071067811865453523 ) ) ;
#169 = CARTESIAN_POINT ( 'NONE',  ( 2.793185071074506684E-14, -9.797174393178825657E-16, 8.000000000000000000 ) ) ;
#170 = APPROVAL ( #287, 'UNSPECIFIED' ) ;
#171 = DIRECTION ( 'NONE',  ( -4.275831445896958607E-31, -1.000000000000000000, -1.224646799147353207E-16 ) ) ;
#172 = CIRCLE ( 'NONE', #112, 0.5249999999999973577 ) ;
#173 = EDGE_CURVE ( 'NONE', #309, #181, #298, .T. ) ;
#174 = PRODUCT_DEFINITION_SHAPE ( 'NONE', 'NONE',  #263 ) ;
#175 = FACE_OUTER_BOUND ( 'NONE', #333, .T. ) ;
#176 = AXIS2_PLACEMENT_3D ( 'NONE', #40, #270, #14 ) ;
#177 = PERSON_AND_ORGANIZATION_ROLE ( 'design_supplier' ) ;
#178 = VERTEX_POINT ( 'NONE', #164 ) ;
#179 = ADVANCED_FACE ( 'NONE', ( #264 ), #86, .T. ) ;
#180 = APPROVAL_DATE_TIME ( #285, #109 ) ;
#181 = VERTEX_POINT ( 'NONE', #5 ) ;
#182 = AXIS2_PLACEMENT_3D ( 'NONE', #189, #31, #63 ) ;
#183 = EDGE_LOOP ( 'NONE', ( #17, #121, #161, #288 ) ) ;
#184 = APPLICATION_PROTOCOL_DEFINITION ( 'international standard', 'config_control_design', 1994, #25 ) ;
#185 = ORIENTED_EDGE ( 'NONE', *, *, #225, .T. ) ;
#186 = VERTEX_POINT ( 'NONE', #108 ) ;
#187 =( GEOMETRIC_REPRESENTATION_CONTEXT ( 3 ) GLOBAL_UNCERTAINTY_ASSIGNED_CONTEXT ( ( #2 ) ) GLOBAL_UNIT_ASSIGNED_CONTEXT ( ( #93, #146, #219 ) ) REPRESENTATION_CONTEXT ( 'NONE', 'WORKASPACE' ) );
#188 = DIRECTION ( 'NONE',  ( -3.491481338843133355E-15, 1.224646799147353207E-16, -1.000000000000000000 ) ) ;
#189 = CARTESIAN_POINT ( 'NONE',  ( 2.793185071074506684E-14, 3.936869429487342009E-33, 8.000000000000000000 ) ) ;
#190 = CC_DESIGN_DATE_AND_TIME_ASSIGNMENT ( #74, #130, ( #104 ) ) ;
#191 = CARTESIAN_POINT ( 'NONE',  ( 1.165688117209981953E-15, 0.5249999999999963585, 0.3154518249894704973 ) ) ;
#192 = DIRECTION ( 'NONE',  ( 0.0000000000000000000, 1.000000000000000000, 0.0000000000000000000 ) ) ;
#193 = AXIS2_PLACEMENT_3D ( 'NONE', #169, #92, #217 ) ;
#194 = ADVANCED_FACE ( 'NONE', ( #213 ), #320, .F. ) ;
#195 = DIRECTION ( 'NONE',  ( 4.275831445896958607E-31, 1.000000000000000000, 1.224646799147352961E-16 ) ) ;
#196 = DIRECTION ( 'NONE',  ( 0.0000000000000000000, 1.000000000000000000, 0.0000000000000000000 ) ) ;
#197 = ADVANCED_FACE ( 'NONE', ( #12 ), #275, .F. ) ;
#198 = AXIS2_PLACEMENT_3D ( 'NONE', #334, #281, #99 ) ;
#199 = DIRECTION ( 'NONE',  ( -3.491481338843133355E-15, 1.224646799147353207E-16, -1.000000000000000000 ) ) ;
#200 = PERSON_AND_ORGANIZATION ( #139, #116 ) ;
#201 = DATE_AND_TIME ( #280, #150 ) ;
#202 = VERTEX_POINT ( 'NONE', #11 ) ;
#203 = PERSON_AND_ORGANIZATION_ROLE ( 'design_owner' ) ;
#204 = ORIENTED_EDGE ( 'NONE', *, *, #125, .F. ) ;
#205 = EDGE_CURVE ( 'NONE', #178, #75, #151, .T. ) ;
#206 = VECTOR ( 'NONE', #317, 1000.000000000000000 ) ;
#207 = PERSON_AND_ORGANIZATION_ROLE ( 'classification_officer' ) ;
#208 = ORIENTED_EDGE ( 'NONE', *, *, #18, .F. ) ;
#209 = ORIENTED_EDGE ( 'NONE', *, *, #326, .F. ) ;
#210 = CARTESIAN_POINT ( 'NONE',  ( 1.047444401652940007E-13, -3.673940397442059178E-15, 30.00000000000000000 ) ) ;
#211 = AXIS2_PLACEMENT_3D ( 'NONE', #289, #242, #138 ) ;
#212 = DIRECTION ( 'NONE',  ( 0.0000000000000000000, 1.000000000000000000, 0.0000000000000000000 ) ) ;
#213 = FACE_OUTER_BOUND ( 'NONE', #79, .T. ) ;
#214 = FACE_OUTER_BOUND ( 'NONE', #98, .T. ) ;
#215 = DIRECTION ( 'NONE',  ( -3.491481338843133355E-15, 1.224646799147353207E-16, -1.000000000000000000 ) ) ;
#216 = CIRCLE ( 'NONE', #337, 0.5249999999999963585 ) ;
#217 = DIRECTION ( 'NONE',  ( 0.0000000000000000000, 1.000000000000000000, 0.0000000000000000000 ) ) ;
#218 = FACE_OUTER_BOUND ( 'NONE', #124, .T. ) ;
#219 =( NAMED_UNIT ( * ) SI_UNIT ( $, .STERADIAN. ) SOLID_ANGLE_UNIT ( ) );
#220 = PRODUCT_RELATED_PRODUCT_CATEGORY ( 'detail', '', ( #221 ) ) ;
#221 = PRODUCT ( '54491', '54491', '', ( #53 ) ) ;
#222 = AXIS2_PLACEMENT_3D ( 'NONE', #295, #89, #192 ) ;
#223 = CARTESIAN_POINT ( 'NONE',  ( 2.244811509095889737E-31, 0.5249999999999968026, 6.429395695523565449E-17 ) ) ;
#224 = DIRECTION ( 'NONE',  ( 3.668437989309046175E-31, 1.000000000000000000, 1.032573497605249497E-16 ) ) ;
#225 = EDGE_CURVE ( 'NONE', #22, #258, #32, .T. ) ;
#226 = CC_DESIGN_APPROVAL ( #109, ( #37 ) ) ;
#227 = CIRCLE ( 'NONE', #115, 0.5250000000000000222 ) ;
#228 = PERSON_AND_ORGANIZATION ( #139, #116 ) ;
#229 = ORIENTED_EDGE ( 'NONE', *, *, #18, .T. ) ;
#230 = PERSON_AND_ORGANIZATION ( #139, #116 ) ;
#231 = ADVANCED_FACE ( 'NONE', ( #10 ), #44, .T. ) ;
#232 = ORIENTED_EDGE ( 'NONE', *, *, #225, .F. ) ;
#233 = PERSON_AND_ORGANIZATION_ROLE ( 'creator' ) ;
#234 = LINE ( 'NONE', #91, #266 ) ;
#235 = APPROVAL_STATUS ( 'not_yet_approved' ) ;
#236 = ORIENTED_EDGE ( 'NONE', *, *, #114, .F. ) ;
#237 = DIRECTION ( 'NONE',  ( 0.0000000000000000000, 1.000000000000000000, 0.0000000000000000000 ) ) ;
#238 = CARTESIAN_POINT ( 'NONE',  ( 1.040461438975253740E-13, 0.5249999999999963585, 29.80000000000000071 ) ) ;
#239 = DIRECTION ( 'NONE',  ( -3.491481338843133355E-15, 1.224646799147353207E-16, -1.000000000000000000 ) ) ;
#240 = CARTESIAN_POINT ( 'NONE',  ( 6.429395695523543263E-17, -0.5249999999999968026, -6.429395695523587636E-17 ) ) ;
#241 = EDGE_CURVE ( 'NONE', #75, #186, #216, .T. ) ;
#242 = DIRECTION ( 'NONE',  ( -3.491481338843133355E-15, 1.224646799147353207E-16, -1.000000000000000000 ) ) ;
#243 = DIRECTION ( 'NONE',  ( 4.275831445896958607E-31, 1.000000000000000000, 1.224646799147352961E-16 ) ) ;
#244 = AXIS2_PLACEMENT_3D ( 'NONE', #28, #188, #3 ) ;
#245 = CARTESIAN_POINT ( 'NONE',  ( 2.793185071074506684E-14, -9.797174393178825657E-16, 8.000000000000000000 ) ) ;
#246 = EDGE_CURVE ( 'NONE', #56, #202, #328, .T. ) ;
#247 = MANIFOLD_SOLID_BREP ( 'Corps-Déplacer/Copier1[2]', #71 ) ;
#248 = DIRECTION ( 'NONE',  ( 3.491481338843133355E-15, -1.224646799147353207E-16, 1.000000000000000000 ) ) ;
#249 = VECTOR ( 'NONE', #61, 1000.000000000000000 ) ;
#250 = DIRECTION ( 'NONE',  ( -3.491481338843133355E-15, 1.224646799147353207E-16, -1.000000000000000000 ) ) ;
#251 = ADVANCED_FACE ( 'NONE', ( #218 ), #272, .T. ) ;
#252 = VERTEX_POINT ( 'NONE', #299 ) ;
#253 = ORIENTED_EDGE ( 'NONE', *, *, #47, .F. ) ;
#254 = AXIS2_PLACEMENT_3D ( 'NONE', #140, #110, #212 ) ;
#255 = DATE_AND_TIME ( #156, #38 ) ;
#256 = ORIENTED_EDGE ( 'NONE', *, *, #47, .T. ) ;
#257 = PERSON_AND_ORGANIZATION ( #139, #116 ) ;
#258 = VERTEX_POINT ( 'NONE', #64 ) ;
#259 = ORIENTED_EDGE ( 'NONE', *, *, #8, .T. ) ;
#260 = AXIS2_PLACEMENT_3D ( 'NONE', #87, #15, #148 ) ;
#261 = APPROVAL_PERSON_ORGANIZATION ( #128, #109, #160 ) ;
#262 = CARTESIAN_POINT ( 'NONE',  ( 6.429395695523567914E-17, -0.5249999999999988010, -6.429395695523611055E-17 ) ) ;
#263 = PRODUCT_DEFINITION ( 'UNKNOWN', '', #37, #81 ) ;
#264 = FACE_OUTER_BOUND ( 'NONE', #46, .T. ) ;
#265 = CARTESIAN_POINT ( 'NONE',  ( 1.040461438975253740E-13, -3.649447461459112464E-15, 29.80000000000000071 ) ) ;
#266 = VECTOR ( 'NONE', #168, 1000.000000000000114 ) ;
#267 = CLOSED_SHELL ( 'NONE', ( #132, #336, #197, #251, #147, #194 ) ) ;
#268 = CARTESIAN_POINT ( 'NONE',  ( 1.101394160254746040E-15, -0.5249999999999963585, 0.3154518249894704418 ) ) ;
#269 = CARTESIAN_POINT ( 'NONE',  ( 0.0000000000000000000, 0.0000000000000000000, 0.0000000000000000000 ) ) ;
#270 = DIRECTION ( 'NONE',  ( 3.491481338843133355E-15, -1.224646799147353207E-16, 1.000000000000000000 ) ) ;
#271 = LOCAL_TIME ( 9, 48, 28.00000000000000000, #329 ) ;
#272 = CYLINDRICAL_SURFACE ( 'NONE', #273, 0.5249999999999988010 ) ;
#273 = AXIS2_PLACEMENT_3D ( 'NONE', #65, #113, #195 ) ;
#274 = LOCAL_TIME ( 9, 48, 28.00000000000000000, #26 ) ;
#275 = PLANE ( 'NONE',  #94 ) ;
#276 = DIRECTION ( 'NONE',  ( -3.491481338843133355E-15, 1.224646799147353207E-16, -1.000000000000000000 ) ) ;
#277 = EDGE_CURVE ( 'NONE', #80, #178, #331, .T. ) ;
#278 = CARTESIAN_POINT ( 'NONE',  ( 2.793185071074506684E-14, 3.936869429487342009E-33, 8.000000000000000000 ) ) ;
#279 = AXIS2_PLACEMENT_3D ( 'NONE', #96, #145, #95 ) ;
#280 = CALENDAR_DATE ( 2021, 3, 9 ) ;
#281 = DIRECTION ( 'NONE',  ( 0.0000000000000000000, 0.0000000000000000000, 1.000000000000000000 ) ) ;
#282 = ORIENTED_EDGE ( 'NONE', *, *, #241, .T. ) ;
#283 = ORIENTED_EDGE ( 'NONE', *, *, #246, .F. ) ;
#284 = APPROVAL ( #235, 'UNSPECIFIED' ) ;
#285 = DATE_AND_TIME ( #16, #271 ) ;
#286 = EDGE_LOOP ( 'NONE', ( #24, #312, #50, #283 ) ) ;
#287 = APPROVAL_STATUS ( 'not_yet_approved' ) ;
#288 = ORIENTED_EDGE ( 'NONE', *, *, #205, .F. ) ;
#289 = CARTESIAN_POINT ( 'NONE',  ( 1.047444401652940007E-13, -3.673940397442059178E-15, 30.00000000000000000 ) ) ;
#290 = APPLICATION_CONTEXT ( 'configuration controlled 3d designs of mechanical parts and assemblies' ) ;
#291 = VECTOR ( 'NONE', #133, 1000.000000000000000 ) ;
#292 = CARTESIAN_POINT ( 'NONE',  ( 1.047444401652940007E-13, 0.3249999999999964029, 30.00000000000000000 ) ) ;
#293 = DIRECTION ( 'NONE',  ( -3.491481338843133355E-15, 1.224646799147353207E-16, -1.000000000000000000 ) ) ;
#294 = ADVANCED_FACE ( 'NONE', ( #175 ), #322, .T. ) ;
#295 = CARTESIAN_POINT ( 'NONE',  ( 1.047444401652940007E-13, -3.673940397442059178E-15, 30.00000000000000000 ) ) ;
#296 = CONICAL_SURFACE ( 'NONE', #66, 0.3250000000000000666, 0.7853981633974512766 ) ;
#297 = CC_DESIGN_APPROVAL ( #170, ( #263 ) ) ;
#298 = LINE ( 'NONE', #262, #206 ) ;
#299 = CARTESIAN_POINT ( 'NONE',  ( 0.0000000000000000000, 0.0000000000000000000, 0.0000000000000000000 ) ) ;
#300 = DIRECTION ( 'NONE',  ( -3.491481338843133355E-15, 1.224646799147353207E-16, -1.000000000000000000 ) ) ;
#301 = CC_DESIGN_PERSON_AND_ORGANIZATION_ASSIGNMENT ( #200, #314, ( #263 ) ) ;
#302 = CARTESIAN_POINT ( 'NONE',  ( 1.047444401652940007E-13, -3.673940397442059178E-15, 30.00000000000000000 ) ) ;
#303 = DIRECTION ( 'NONE',  ( -3.491481338843133355E-15, 1.224646799147353207E-16, -1.000000000000000000 ) ) ;
#304 = APPROVAL_PERSON_ORGANIZATION ( #228, #284, #97 ) ;
#305 = DATE_AND_TIME ( #311, #142 ) ;
#306 = SECURITY_CLASSIFICATION_LEVEL ( 'unclassified' ) ;
#307 = ORIENTED_EDGE ( 'NONE', *, *, #310, .F. ) ;
#308 = APPROVAL_DATE_TIME ( #305, #170 ) ;
#309 = VERTEX_POINT ( 'NONE', #36 ) ;
#310 = EDGE_CURVE ( 'NONE', #258, #309, #325, .T. ) ;
#311 = CALENDAR_DATE ( 2021, 3, 9 ) ;
#312 = ORIENTED_EDGE ( 'NONE', *, *, #173, .T. ) ;
#313 = CIRCLE ( 'NONE', #211, 0.3250000000000000666 ) ;
#314 = PERSON_AND_ORGANIZATION_ROLE ( 'creator' ) ;
#315 = ORIENTED_EDGE ( 'NONE', *, *, #173, .F. ) ;
#316 = EDGE_LOOP ( 'NONE', ( #100, #1 ) ) ;
#317 = DIRECTION ( 'NONE',  ( -3.491481338843133355E-15, 1.224646799147353207E-16, -1.000000000000000000 ) ) ;
#318 = AXIS2_PLACEMENT_3D ( 'NONE', #321, #29, #166 ) ;
#319 = CARTESIAN_POINT ( 'NONE',  ( 1.101394160254746237E-15, -3.863170677585460501E-17, 0.3154518249894704418 ) ) ;
#320 = PLANE ( 'NONE',  #260 ) ;
#321 = CARTESIAN_POINT ( 'NONE',  ( 1.101394160254746237E-15, -3.863170677585460501E-17, 0.3154518249894704418 ) ) ;
#322 = CONICAL_SURFACE ( 'NONE', #176, 0.5249999999999963585, 1.029744258676649649 ) ;
#323 = DIRECTION ( 'NONE',  ( 3.668437989309046175E-31, 1.000000000000000000, 1.032573497605249497E-16 ) ) ;
#324 = CARTESIAN_POINT ( 'NONE',  ( 2.244811509095898057E-31, 0.5249999999999988010, 6.429395695523588869E-17 ) ) ;
#325 = LINE ( 'NONE', #67, #9 ) ;
#326 = EDGE_CURVE ( 'NONE', #178, #80, #172, .T. ) ;
#327 = DIRECTION ( 'NONE',  ( -3.491481338843133355E-15, 1.224646799147353207E-16, -1.000000000000000000 ) ) ;
#328 = LINE ( 'NONE', #324, #102 ) ;
#329 = COORDINATED_UNIVERSAL_TIME_OFFSET ( 1, 0, .AHEAD. ) ;
#330 = ORIENTED_EDGE ( 'NONE', *, *, #8, .F. ) ;
#331 = CIRCLE ( 'NONE', #193, 0.5249999999999973577 ) ;
#332 = ORIENTED_EDGE ( 'NONE', *, *, #135, .T. ) ;
#333 = EDGE_LOOP ( 'NONE', ( #204, #256, #332 ) ) ;
#334 = CARTESIAN_POINT ( 'NONE',  ( 0.0000000000000000000, 0.0000000000000000000, 0.0000000000000000000 ) ) ;
#335 = EDGE_LOOP ( 'NONE', ( #236, #155, #73, #49 ) ) ;
#336 = ADVANCED_FACE ( 'NONE', ( #117 ), #141, .T. ) ;
#337 = AXIS2_PLACEMENT_3D ( 'NONE', #119, #276, #224 ) ;
ENDSEC;
END-ISO-10303-21;
