ISO-10303-21;
HEADER;
FILE_DESCRIPTION (( 'STEP AP203' ),
    '1' );
FILE_NAME ('54490.step',
    '2021-09-03T07:48:27',
    ( '' ),
    ( '' ),
    'SwSTEP 2.0',
    'SolidWorks 2019',
    '' );
FILE_SCHEMA (( 'CONFIG_CONTROL_DESIGN' ));
ENDSEC;

DATA;
#1 = DESIGN_CONTEXT ( 'detailed design', #212, 'design' ) ;
#2 = ORIENTED_EDGE ( 'NONE', *, *, #92, .F. ) ;
#3 = VECTOR ( 'NONE', #117, 1000.000000000000114 ) ;
#4 = CC_DESIGN_APPROVAL ( #307, ( #196 ) ) ;
#5 = EDGE_LOOP ( 'NONE', ( #218, #62, #205, #264 ) ) ;
#6 =( NAMED_UNIT ( * ) SI_UNIT ( $, .STERADIAN. ) SOLID_ANGLE_UNIT ( ) );
#7 = CARTESIAN_POINT ( 'NONE',  ( 1.040461438975253740E-13, -3.649447461459112464E-15, 29.80000000000000071 ) ) ;
#8 = ORIENTED_EDGE ( 'NONE', *, *, #311, .F. ) ;
#9 = FACE_OUTER_BOUND ( 'NONE', #133, .T. ) ;
#10 = DIRECTION ( 'NONE',  ( 0.0000000000000000000, 1.000000000000000000, 0.0000000000000000000 ) ) ;
#11 = ADVANCED_FACE ( 'NONE', ( #46 ), #224, .T. ) ;
#12 = ORIENTED_EDGE ( 'NONE', *, *, #55, .T. ) ;
#13 = DIRECTION ( 'NONE',  ( 0.0000000000000000000, 1.000000000000000000, 0.0000000000000000000 ) ) ;
#14 = FACE_OUTER_BOUND ( 'NONE', #156, .T. ) ;
#15 = VECTOR ( 'NONE', #201, 1000.000000000000000 ) ;
#16 = AXIS2_PLACEMENT_3D ( 'NONE', #187, #163, #162 ) ;
#17 = CARTESIAN_POINT ( 'NONE',  ( 1.110179159247601212E-15, 0.4999999999999963363, 0.3004303095137813018 ) ) ;
#18 = ADVANCED_FACE ( 'NONE', ( #54 ), #210, .T. ) ;
#19 = CARTESIAN_POINT ( 'NONE',  ( 2.444036937190193349E-14, 0.4999999999999963363, 7.000000000000000000 ) ) ;
#20 = DIRECTION ( 'NONE',  ( -3.491481338843133355E-15, 1.224646799147353207E-16, -1.000000000000000000 ) ) ;
#21 = PERSON_AND_ORGANIZATION ( #281, #193 ) ;
#22 = DIRECTION ( 'NONE',  ( 4.275831445896959482E-31, 1.000000000000000000, 1.224646799147353207E-16 ) ) ;
#23 = DIRECTION ( 'NONE',  ( 0.0000000000000000000, 0.0000000000000000000, 1.000000000000000000 ) ) ;
#24 = EDGE_CURVE ( 'NONE', #318, #233, #150, .T. ) ;
#25 = CONICAL_SURFACE ( 'NONE', #283, 0.4999999999999963363, 1.029744258676649649 ) ;
#26 = EDGE_LOOP ( 'NONE', ( #97, #12 ) ) ;
#27 = COORDINATED_UNIVERSAL_TIME_OFFSET ( 1, 0, .AHEAD. ) ;
#28 = LINE ( 'NONE', #100, #56 ) ;
#29 = EDGE_CURVE ( 'NONE', #233, #37, #43, .T. ) ;
#30 = ADVANCED_FACE ( 'NONE', ( #74 ), #25, .T. ) ;
#31 = ORIENTED_EDGE ( 'NONE', *, *, #24, .F. ) ;
#32 = MANIFOLD_SOLID_BREP ( 'Corps-Déplacer/Copier1[1]', #192 ) ;
#33 = AXIS2_PLACEMENT_3D ( 'NONE', #335, #91, #13 ) ;
#34 = CYLINDRICAL_SURFACE ( 'NONE', #265, 0.4999999999999967804 ) ;
#35 = ORIENTED_EDGE ( 'NONE', *, *, #38, .F. ) ;
#36 = CARTESIAN_POINT ( 'NONE',  ( 1.047444401652940007E-13, -3.673940397442059178E-15, 30.00000000000000000 ) ) ;
#37 = VERTEX_POINT ( 'NONE', #305 ) ;
#38 = EDGE_CURVE ( 'NONE', #327, #123, #28, .T. ) ;
#39 = CIRCLE ( 'NONE', #231, 0.5000000000000000000 ) ;
#40 = CARTESIAN_POINT ( 'NONE',  ( 2.444036937190193349E-14, -8.572527594031473190E-16, 7.000000000000000000 ) ) ;
#41 = ADVANCED_FACE ( 'NONE', ( #321 ), #270, .T. ) ;
#42 = DIRECTION ( 'NONE',  ( -3.491481338843133355E-15, 1.224646799147353207E-16, -1.000000000000000000 ) ) ;
#43 = CIRCLE ( 'NONE', #226, 0.4999999999999963363 ) ;
#44 = LOCAL_TIME ( 9, 48, 27.00000000000000000, #246 ) ;
#45 = DIRECTION ( 'NONE',  ( 0.0000000000000000000, 1.000000000000000000, 0.0000000000000000000 ) ) ;
#46 = FACE_OUTER_BOUND ( 'NONE', #152, .T. ) ;
#47 = PERSON_AND_ORGANIZATION ( #281, #193 ) ;
#48 = ADVANCED_FACE ( 'NONE', ( #273 ), #251, .F. ) ;
#49 = ORIENTED_EDGE ( 'NONE', *, *, #29, .F. ) ;
#50 = PERSON_AND_ORGANIZATION ( #281, #193 ) ;
#51 = DIRECTION ( 'NONE',  ( 3.851859888774499732E-31, 1.000000000000000000, 1.084202172485512323E-16 ) ) ;
#52 = MECHANICAL_CONTEXT ( 'NONE', #71, 'mechanical' ) ;
#53 = AXIS2_PLACEMENT_3D ( 'NONE', #40, #299, #235 ) ;
#54 = FACE_OUTER_BOUND ( 'NONE', #76, .T. ) ;
#55 = EDGE_CURVE ( 'NONE', #123, #285, #263, .T. ) ;
#56 = VECTOR ( 'NONE', #213, 1000.000000000000000 ) ;
#57 = CIRCLE ( 'NONE', #297, 0.5000000000000000000 ) ;
#58 = ORIENTED_EDGE ( 'NONE', *, *, #256, .T. ) ;
#59 = CARTESIAN_POINT ( 'NONE',  ( 0.0000000000000000000, 0.0000000000000000000, 0.0000000000000000000 ) ) ;
#60 = AXIS2_PLACEMENT_3D ( 'NONE', #96, #165, #197 ) ;
#61 = DIRECTION ( 'NONE',  ( -3.491481338843133355E-15, 1.224646799147353207E-16, -1.000000000000000000 ) ) ;
#62 = ORIENTED_EDGE ( 'NONE', *, *, #73, .T. ) ;
#63 = EDGE_CURVE ( 'NONE', #292, #327, #39, .T. ) ;
#64 = VERTEX_POINT ( 'NONE', #208 ) ;
#65 = AXIS2_PLACEMENT_3D ( 'NONE', #164, #23, #328 ) ;
#66 = DIRECTION ( 'NONE',  ( -4.275831445896958607E-31, -1.000000000000000000, -1.224646799147353207E-16 ) ) ;
#67 = DIRECTION ( 'NONE',  ( 0.0000000000000000000, 1.000000000000000000, 0.0000000000000000000 ) ) ;
#68 = PRODUCT ( '54490', '54490', '', ( #52 ) ) ;
#69 = CARTESIAN_POINT ( 'NONE',  ( 1.047444401652940007E-13, 0.2999999999999963252, 30.00000000000000000 ) ) ;
#70 = DIRECTION ( 'NONE',  ( 4.275831445896957731E-31, 1.000000000000000000, 1.224646799147353207E-16 ) ) ;
#71 = APPLICATION_CONTEXT ( 'configuration controlled 3d designs of mechanical parts and assemblies' ) ;
#72 = DATE_AND_TIME ( #336, #44 ) ;
#73 = EDGE_CURVE ( 'NONE', #64, #233, #190, .T. ) ;
#74 = FACE_OUTER_BOUND ( 'NONE', #169, .T. ) ;
#75 = CALENDAR_DATE ( 2021, 3, 9 ) ;
#76 = EDGE_LOOP ( 'NONE', ( #247, #158, #211, #303 ) ) ;
#77 = COORDINATED_UNIVERSAL_TIME_OFFSET ( 1, 0, .AHEAD. ) ;
#78 = CARTESIAN_POINT ( 'NONE',  ( 1.048946819290233835E-15, -3.679210169129008446E-17, 0.3004303095137812463 ) ) ;
#79 = APPROVAL_DATE_TIME ( #167, #262 ) ;
#80 = AXIS2_PLACEMENT_3D ( 'NONE', #229, #178, #105 ) ;
#81 = CC_DESIGN_PERSON_AND_ORGANIZATION_ASSIGNMENT ( #21, #306, ( #68 ) ) ;
#82 = EDGE_CURVE ( 'NONE', #287, #135, #249, .T. ) ;
#83 = ORIENTED_EDGE ( 'NONE', *, *, #63, .T. ) ;
#84 = FACE_OUTER_BOUND ( 'NONE', #108, .T. ) ;
#85 = DIRECTION ( 'NONE',  ( 0.0000000000000000000, 1.000000000000000000, 0.0000000000000000000 ) ) ;
#86 = DIRECTION ( 'NONE',  ( 3.491481338843133355E-15, -1.224646799147353207E-16, 1.000000000000000000 ) ) ;
#87 = CARTESIAN_POINT ( 'NONE',  ( 1.047444401652940007E-13, 2.249639673992731331E-33, 30.00000000000000000 ) ) ;
#88 = CIRCLE ( 'NONE', #53, 0.4999999999999971689 ) ;
#89 = PLANE ( 'NONE',  #214 ) ;
#90 = EDGE_CURVE ( 'NONE', #135, #327, #286, .T. ) ;
#91 = DIRECTION ( 'NONE',  ( -3.491481338843133355E-15, 1.224646799147353207E-16, -1.000000000000000000 ) ) ;
#92 = EDGE_CURVE ( 'NONE', #135, #287, #184, .T. ) ;
#93 = CARTESIAN_POINT ( 'NONE',  ( 6.123233995736705639E-17, -0.4999999999999967804, -6.123233995736747547E-17 ) ) ;
#94 = DIRECTION ( 'NONE',  ( -3.491481338843133355E-15, 1.224646799147353207E-16, -1.000000000000000000 ) ) ;
#95 = SECURITY_CLASSIFICATION_LEVEL ( 'unclassified' ) ;
#96 = CARTESIAN_POINT ( 'NONE',  ( 2.444036937190193349E-14, -8.572527594031473190E-16, 7.000000000000000000 ) ) ;
#97 = ORIENTED_EDGE ( 'NONE', *, *, #282, .T. ) ;
#98 = AXIS2_PLACEMENT_3D ( 'NONE', #331, #266, #66 ) ;
#99 = LOCAL_TIME ( 9, 48, 27.00000000000000000, #77 ) ;
#100 = CARTESIAN_POINT ( 'NONE',  ( 6.123233995736727825E-17, -0.4999999999999986122, -6.123233995736769734E-17 ) ) ;
#101 = CALENDAR_DATE ( 2021, 3, 9 ) ;
#102 = ORIENTED_EDGE ( 'NONE', *, *, #63, .F. ) ;
#103 = COORDINATED_UNIVERSAL_TIME_OFFSET ( 1, 0, .AHEAD. ) ;
#104 = EDGE_CURVE ( 'NONE', #318, #37, #242, .T. ) ;
#105 = DIRECTION ( 'NONE',  ( 0.0000000000000000000, 1.000000000000000000, 0.0000000000000000000 ) ) ;
#106 = ORIENTED_EDGE ( 'NONE', *, *, #131, .T. ) ;
#107 = CARTESIAN_POINT ( 'NONE',  ( 6.430448897467080674E-14, -0.5000000000000036637, 29.80000000000000071 ) ) ;
#108 = EDGE_LOOP ( 'NONE', ( #119, #237 ) ) ;
#109 = CARTESIAN_POINT ( 'NONE',  ( 1.047811795692684136E-13, -0.3000000000000037081, 30.00000000000000000 ) ) ;
#110 = ORIENTED_EDGE ( 'NONE', *, *, #188, .T. ) ;
#111 = DIRECTION ( 'NONE',  ( -3.491481338843133355E-15, 1.224646799147353207E-16, -1.000000000000000000 ) ) ;
#112 = ORIENTED_EDGE ( 'NONE', *, *, #82, .T. ) ;
#113 = ORIENTED_EDGE ( 'NONE', *, *, #38, .T. ) ;
#114 = EDGE_LOOP ( 'NONE', ( #207, #106, #58, #49 ) ) ;
#115 = FACE_OUTER_BOUND ( 'NONE', #172, .T. ) ;
#116 = VECTOR ( 'NONE', #317, 1000.000000000000114 ) ;
#117 = DIRECTION ( 'NONE',  ( -2.382254525458708792E-15, -0.7071067811865495711, -0.7071067811865455743 ) ) ;
#118 = APPROVAL_ROLE ( '' ) ;
#119 = ORIENTED_EDGE ( 'NONE', *, *, #302, .F. ) ;
#120 = PERSON_AND_ORGANIZATION ( #281, #193 ) ;
#121 = ORIENTED_EDGE ( 'NONE', *, *, #282, .F. ) ;
#122 = PERSON_AND_ORGANIZATION ( #281, #193 ) ;
#123 = VERTEX_POINT ( 'NONE', #185 ) ;
#124 = DATE_AND_TIME ( #149, #236 ) ;
#125 = PERSON_AND_ORGANIZATION_ROLE ( 'creator' ) ;
#126 = CIRCLE ( 'NONE', #186, 0.4999999999999971689 ) ;
#127 = UNCERTAINTY_MEASURE_WITH_UNIT (LENGTH_MEASURE( 1.000000000000000082E-05 ), #284, 'distance_accuracy_value', 'NONE');
#128 = VECTOR ( 'NONE', #239, 999.9999999999998863 ) ;
#129 = DIRECTION ( 'NONE',  ( -4.275831445896958607E-31, -1.000000000000000000, -1.224646799147353207E-16 ) ) ;
#130 = FACE_OUTER_BOUND ( 'NONE', #114, .T. ) ;
#131 = EDGE_CURVE ( 'NONE', #64, #261, #126, .T. ) ;
#132 = DIRECTION ( 'NONE',  ( 3.851859888774499732E-31, 1.000000000000000000, 1.084202172485512323E-16 ) ) ;
#133 = EDGE_LOOP ( 'NONE', ( #112, #183, #102, #293 ) ) ;
#134 = CC_DESIGN_DATE_AND_TIME_ASSIGNMENT ( #252, #189, ( #196 ) ) ;
#135 = VERTEX_POINT ( 'NONE', #216 ) ;
#136 = MANIFOLD_SOLID_BREP ( 'Corps-Déplacer/Copier1[2]', #139 ) ;
#137 = CARTESIAN_POINT ( 'NONE',  ( 0.0000000000000000000, 0.0000000000000000000, 0.0000000000000000000 ) ) ;
#138 = CARTESIAN_POINT ( 'NONE',  ( 1.040461438975253740E-13, 0.4999999999999963363, 29.80000000000000071 ) ) ;
#139 = CLOSED_SHELL ( 'NONE', ( #203, #41, #30, #294, #333 ) ) ;
#140 = APPROVAL_PERSON_ORGANIZATION ( #309, #262, #118 ) ;
#141 = CARTESIAN_POINT ( 'NONE',  ( 1.048946819290233638E-15, -0.4999999999999963363, 0.3004303095137811908 ) ) ;
#142 = EDGE_CURVE ( 'NONE', #287, #292, #324, .T. ) ;
#143 = CARTESIAN_POINT ( 'NONE',  ( 0.0000000000000000000, 0.0000000000000000000, 0.0000000000000000000 ) ) ;
#144 = APPROVAL_ROLE ( '' ) ;
#145 = DIRECTION ( 'NONE',  ( -3.851859888774499732E-31, -1.000000000000000000, -1.084202172485512323E-16 ) ) ;
#146 = APPROVAL_STATUS ( 'not_yet_approved' ) ;
#147 = DIRECTION ( 'NONE',  ( 3.491481338843133355E-15, -1.224646799147353207E-16, 1.000000000000000000 ) ) ;
#148 = AXIS2_PLACEMENT_3D ( 'NONE', #160, #147, #145 ) ;
#149 = CALENDAR_DATE ( 2021, 3, 9 ) ;
#150 = LINE ( 'NONE', #308, #15 ) ;
#151 = VECTOR ( 'NONE', #200, 1000.000000000000000 ) ;
#152 = EDGE_LOOP ( 'NONE', ( #83, #113, #121, #8 ) ) ;
#153 = DIRECTION ( 'NONE',  ( -3.491481338843133355E-15, 1.224646799147353207E-16, -1.000000000000000000 ) ) ;
#154 = DIRECTION ( 'NONE',  ( 0.0000000000000000000, 1.000000000000000000, 0.0000000000000000000 ) ) ;
#155 = ORIENTED_EDGE ( 'NONE', *, *, #230, .T. ) ;
#156 = EDGE_LOOP ( 'NONE', ( #194, #2 ) ) ;
#157 = ADVANCED_FACE ( 'NONE', ( #14 ), #89, .F. ) ;
#158 = ORIENTED_EDGE ( 'NONE', *, *, #92, .T. ) ;
#159 = VECTOR ( 'NONE', #153, 1000.000000000000000 ) ;
#160 = CARTESIAN_POINT ( 'NONE',  ( 1.048946819290233835E-15, -3.679210169129008446E-17, 0.3004303095137812463 ) ) ;
#161 = CYLINDRICAL_SURFACE ( 'NONE', #16, 0.4999999999999986122 ) ;
#162 = DIRECTION ( 'NONE',  ( 4.275831445896959482E-31, 1.000000000000000000, 1.224646799147353207E-16 ) ) ;
#163 = DIRECTION ( 'NONE',  ( -3.491481338843133355E-15, 1.224646799147353207E-16, -1.000000000000000000 ) ) ;
#164 = CARTESIAN_POINT ( 'NONE',  ( 0.0000000000000000000, 0.0000000000000000000, 0.0000000000000000000 ) ) ;
#165 = DIRECTION ( 'NONE',  ( -3.491481338843133355E-15, 1.224646799147353207E-16, -1.000000000000000000 ) ) ;
#166 = DIRECTION ( 'NONE',  ( 3.491481338843133355E-15, -1.224646799147353207E-16, 1.000000000000000000 ) ) ;
#167 = DATE_AND_TIME ( #101, #337 ) ;
#168 = PRODUCT_RELATED_PRODUCT_CATEGORY ( 'detail', '', ( #68 ) ) ;
#169 = EDGE_LOOP ( 'NONE', ( #275, #175, #180 ) ) ;
#170 = APPROVAL_STATUS ( 'not_yet_approved' ) ;
#171 = AXIS2_PLACEMENT_3D ( 'NONE', #143, #296, #22 ) ;
#172 = EDGE_LOOP ( 'NONE', ( #35, #110, #314, #198 ) ) ;
#173 = APPROVAL_STATUS ( 'not_yet_approved' ) ;
#174 = PLANE ( 'NONE',  #241 ) ;
#175 = ORIENTED_EDGE ( 'NONE', *, *, #24, .T. ) ;
#176 = DIRECTION ( 'NONE',  ( -3.491481338843133355E-15, 1.224646799147353207E-16, -1.000000000000000000 ) ) ;
#177 = ORIENTED_EDGE ( 'NONE', *, *, #104, .T. ) ;
#178 = DIRECTION ( 'NONE',  ( -3.491481338843133355E-15, 1.224646799147353207E-16, -1.000000000000000000 ) ) ;
#179 = DIRECTION ( 'NONE',  ( -3.491481338843133355E-15, 1.224646799147353207E-16, -1.000000000000000000 ) ) ;
#180 = ORIENTED_EDGE ( 'NONE', *, *, #29, .T. ) ;
#181 = LOCAL_TIME ( 9, 48, 27.00000000000000000, #195 ) ;
#182 = CARTESIAN_POINT ( 'NONE',  ( 2.444036937190193349E-14, 3.749399456654610492E-33, 7.000000000000000000 ) ) ;
#183 = ORIENTED_EDGE ( 'NONE', *, *, #90, .T. ) ;
#184 = CIRCLE ( 'NONE', #278, 0.3000000000000000444 ) ;
#185 = CARTESIAN_POINT ( 'NONE',  ( 6.430448897467095820E-14, -0.4999999999999980571, 7.000000000000000000 ) ) ;
#186 = AXIS2_PLACEMENT_3D ( 'NONE', #315, #267, #154 ) ;
#187 = CARTESIAN_POINT ( 'NONE',  ( 0.0000000000000000000, 0.0000000000000000000, 0.0000000000000000000 ) ) ;
#188 = EDGE_CURVE ( 'NONE', #327, #292, #57, .T. ) ;
#189 = DATE_TIME_ROLE ( 'creation_date' ) ;
#190 = LINE ( 'NONE', #93, #313 ) ;
#191 = CALENDAR_DATE ( 2021, 3, 9 ) ;
#192 = CLOSED_SHELL ( 'NONE', ( #320, #11, #48, #220, #18, #157 ) ) ;
#193 = ORGANIZATION ( 'UNSPECIFIED', 'UNSPECIFIED', '' ) ;
#194 = ORIENTED_EDGE ( 'NONE', *, *, #82, .F. ) ;
#195 = COORDINATED_UNIVERSAL_TIME_OFFSET ( 1, 0, .AHEAD. ) ;
#196 = PRODUCT_DEFINITION ( 'UNKNOWN', '', #322, #1 ) ;
#197 = DIRECTION ( 'NONE',  ( 0.0000000000000000000, 1.000000000000000000, 0.0000000000000000000 ) ) ;
#198 = ORIENTED_EDGE ( 'NONE', *, *, #55, .F. ) ;
#199 = PERSON_AND_ORGANIZATION ( #281, #193 ) ;
#200 = DIRECTION ( 'NONE',  ( -3.491481338843133355E-15, 1.224646799147353207E-16, -1.000000000000000000 ) ) ;
#201 = DIRECTION ( 'NONE',  ( 1.798245827342160317E-15, -0.8571673007021098911, 0.5150380749100582634 ) ) ;
#202 = DATE_AND_TIME ( #191, #99 ) ;
#203 = ADVANCED_FACE ( 'NONE', ( #300 ), #34, .T. ) ;
#204 = AXIS2_PLACEMENT_3D ( 'NONE', #137, #215, #254 ) ;
#205 = ORIENTED_EDGE ( 'NONE', *, *, #230, .F. ) ;
#206 = CARTESIAN_POINT ( 'NONE',  ( 1.047444401652940007E-13, 0.2999999999999963252, 30.00000000000000000 ) ) ;
#207 = ORIENTED_EDGE ( 'NONE', *, *, #73, .F. ) ;
#208 = CARTESIAN_POINT ( 'NONE',  ( 1.280589043555343191E-14, -0.4999999999999980571, 7.000000000000000000 ) ) ;
#209 = DIRECTION ( 'NONE',  ( -3.491481338843133355E-15, 1.224646799147353207E-16, -1.000000000000000000 ) ) ;
#210 = CONICAL_SURFACE ( 'NONE', #33, 0.3000000000000000444, 0.7853981633974512766 ) ;
#211 = ORIENTED_EDGE ( 'NONE', *, *, #142, .T. ) ;
#212 = APPLICATION_CONTEXT ( 'configuration controlled 3d designs of mechanical parts and assemblies' ) ;
#213 = DIRECTION ( 'NONE',  ( -3.491481338843133355E-15, 1.224646799147353207E-16, -1.000000000000000000 ) ) ;
#214 = AXIS2_PLACEMENT_3D ( 'NONE', #87, #42, #288 ) ;
#215 = DIRECTION ( 'NONE',  ( -3.491481338843133355E-15, 1.224646799147353207E-16, -1.000000000000000000 ) ) ;
#216 = CARTESIAN_POINT ( 'NONE',  ( 1.044442779033755776E-13, -0.3000000000000037081, 30.00000000000000000 ) ) ;
#217 = APPLICATION_PROTOCOL_DEFINITION ( 'international standard', 'config_control_design', 1994, #212 ) ;
#218 = ORIENTED_EDGE ( 'NONE', *, *, #302, .T. ) ;
#219 = PERSON_AND_ORGANIZATION ( #281, #193 ) ;
#220 = ADVANCED_FACE ( 'NONE', ( #115 ), #161, .T. ) ;
#221 = APPROVAL_PERSON_ORGANIZATION ( #47, #307, #144 ) ;
#222 = DIRECTION ( 'NONE',  ( -3.491481338843133355E-15, 1.224646799147353207E-16, -1.000000000000000000 ) ) ;
#223 = LINE ( 'NONE', #334, #151 ) ;
#224 = CYLINDRICAL_SURFACE ( 'NONE', #171, 0.4999999999999986122 ) ;
#225 = APPROVAL_DATE_TIME ( #124, #244 ) ;
#226 = AXIS2_PLACEMENT_3D ( 'NONE', #78, #222, #51 ) ;
#227 = CC_DESIGN_PERSON_AND_ORGANIZATION_ASSIGNMENT ( #50, #125, ( #322 ) ) ;
#228 = APPROVAL_PERSON_ORGANIZATION ( #199, #244, #276 ) ;
#229 = CARTESIAN_POINT ( 'NONE',  ( 1.047444401652940007E-13, -3.673940397442059178E-15, 30.00000000000000000 ) ) ;
#230 = EDGE_CURVE ( 'NONE', #37, #233, #323, .T. ) ;
#231 = AXIS2_PLACEMENT_3D ( 'NONE', #260, #176, #85 ) ;
#232 = CC_DESIGN_APPROVAL ( #262, ( #322 ) ) ;
#233 = VERTEX_POINT ( 'NONE', #141 ) ;
#234 = CYLINDRICAL_SURFACE ( 'NONE', #204, 0.4999999999999967804 ) ;
#235 = DIRECTION ( 'NONE',  ( 0.0000000000000000000, 1.000000000000000000, 0.0000000000000000000 ) ) ;
#236 = LOCAL_TIME ( 9, 48, 27.00000000000000000, #27 ) ;
#237 = ORIENTED_EDGE ( 'NONE', *, *, #131, .F. ) ;
#238 = CC_DESIGN_DATE_AND_TIME_ASSIGNMENT ( #202, #332, ( #250 ) ) ;
#239 = DIRECTION ( 'NONE',  ( 1.903218546456022717E-15, 0.8571673007021097801, 0.5150380749100585964 ) ) ;
#240 = PRODUCT_DEFINITION_SHAPE ( 'NONE', 'NONE',  #196 ) ;
#241 = AXIS2_PLACEMENT_3D ( 'NONE', #182, #86, #129 ) ;
#242 = LINE ( 'NONE', #17, #128 ) ;
#243 = CARTESIAN_POINT ( 'NONE',  ( 2.137915722948465290E-31, 0.4999999999999967804, 6.123233995736726593E-17 ) ) ;
#244 = APPROVAL ( #170, 'UNSPECIFIED' ) ;
#245 = CARTESIAN_POINT ( 'NONE',  ( 2.444036937190193349E-14, -8.572527594031473190E-16, 7.000000000000000000 ) ) ;
#246 = COORDINATED_UNIVERSAL_TIME_OFFSET ( 1, 0, .AHEAD. ) ;
#247 = ORIENTED_EDGE ( 'NONE', *, *, #90, .F. ) ;
#248 = PERSON_AND_ORGANIZATION_ROLE ( 'design_supplier' ) ;
#249 = CIRCLE ( 'NONE', #295, 0.3000000000000000444 ) ;
#250 = SECURITY_CLASSIFICATION ( '', '', #95 ) ;
#251 = PLANE ( 'NONE',  #98 ) ;
#252 = DATE_AND_TIME ( #75, #181 ) ;
#253 = DIRECTION ( 'NONE',  ( -3.851859888774499732E-31, -1.000000000000000000, -1.084202172485512323E-16 ) ) ;
#254 = DIRECTION ( 'NONE',  ( 4.275831445896957731E-31, 1.000000000000000000, 1.224646799147353207E-16 ) ) ;
#255 = CONICAL_SURFACE ( 'NONE', #80, 0.3000000000000000444, 0.7853981633974512766 ) ;
#256 = EDGE_CURVE ( 'NONE', #261, #37, #298, .T. ) ;
#257 =( NAMED_UNIT ( * ) PLANE_ANGLE_UNIT ( ) SI_UNIT ( $, .RADIAN. ) );
#258 = CARTESIAN_POINT ( 'NONE',  ( 1.047444401652940007E-13, -3.673940397442059178E-15, 30.00000000000000000 ) ) ;
#259 =( GEOMETRIC_REPRESENTATION_CONTEXT ( 3 ) GLOBAL_UNCERTAINTY_ASSIGNED_CONTEXT ( ( #127 ) ) GLOBAL_UNIT_ASSIGNED_CONTEXT ( ( #284, #257, #6 ) ) REPRESENTATION_CONTEXT ( 'NONE', 'WORKASPACE' ) );
#260 = CARTESIAN_POINT ( 'NONE',  ( 1.040461438975253740E-13, -3.649447461459112464E-15, 29.80000000000000071 ) ) ;
#261 = VERTEX_POINT ( 'NONE', #19 ) ;
#262 = APPROVAL ( #146, 'UNSPECIFIED' ) ;
#263 = CIRCLE ( 'NONE', #329, 0.4999999999999971689 ) ;
#264 = ORIENTED_EDGE ( 'NONE', *, *, #256, .F. ) ;
#265 = AXIS2_PLACEMENT_3D ( 'NONE', #59, #209, #70 ) ;
#266 = DIRECTION ( 'NONE',  ( 3.491481338843133355E-15, -1.224646799147353207E-16, 1.000000000000000000 ) ) ;
#267 = DIRECTION ( 'NONE',  ( -3.491481338843133355E-15, 1.224646799147353207E-16, -1.000000000000000000 ) ) ;
#268 = DIRECTION ( 'NONE',  ( 0.0000000000000000000, 1.000000000000000000, 0.0000000000000000000 ) ) ;
#269 = SHAPE_DEFINITION_REPRESENTATION ( #240, #312 ) ;
#270 = CONICAL_SURFACE ( 'NONE', #148, 0.4999999999999963363, 1.029744258676649649 ) ;
#271 = CC_DESIGN_SECURITY_CLASSIFICATION ( #250, ( #322 ) ) ;
#272 = CARTESIAN_POINT ( 'NONE',  ( 1.048946819290233835E-15, -3.679210169129008446E-17, 0.3004303095137812463 ) ) ;
#273 = FACE_OUTER_BOUND ( 'NONE', #26, .T. ) ;
#274 = PERSON_AND_ORGANIZATION_ROLE ( 'creator' ) ;
#275 = ORIENTED_EDGE ( 'NONE', *, *, #104, .F. ) ;
#276 = APPROVAL_ROLE ( '' ) ;
#277 = CARTESIAN_POINT ( 'NONE',  ( 0.0000000000000000000, 0.0000000000000000000, 0.0000000000000000000 ) ) ;
#278 = AXIS2_PLACEMENT_3D ( 'NONE', #258, #94, #45 ) ;
#279 = CARTESIAN_POINT ( 'NONE',  ( 1.048946819290233835E-15, -3.679210169129008446E-17, 0.3004303095137812463 ) ) ;
#280 = APPROVAL_DATE_TIME ( #72, #307 ) ;
#281 = PERSON ( 'UNSPECIFIED', 'UNSPECIFIED', 'UNSPECIFIED', ('UNSPECIFIED'), ('UNSPECIFIED'), ('UNSPECIFIED') ) ;
#282 = EDGE_CURVE ( 'NONE', #285, #123, #88, .T. ) ;
#283 = AXIS2_PLACEMENT_3D ( 'NONE', #279, #166, #253 ) ;
#284 =( LENGTH_UNIT ( ) NAMED_UNIT ( * ) SI_UNIT ( .MILLI., .METRE. ) );
#285 = VERTEX_POINT ( 'NONE', #319 ) ;
#286 = LINE ( 'NONE', #109, #3 ) ;
#287 = VERTEX_POINT ( 'NONE', #206 ) ;
#288 = DIRECTION ( 'NONE',  ( 4.275831445896958607E-31, 1.000000000000000000, 1.224646799147353207E-16 ) ) ;
#289 = AXIS2_PLACEMENT_3D ( 'NONE', #272, #61, #132 ) ;
#290 = CC_DESIGN_PERSON_AND_ORGANIZATION_ASSIGNMENT ( #219, #274, ( #196 ) ) ;
#291 = EDGE_LOOP ( 'NONE', ( #31, #177, #155 ) ) ;
#292 = VERTEX_POINT ( 'NONE', #138 ) ;
#293 = ORIENTED_EDGE ( 'NONE', *, *, #142, .F. ) ;
#294 = ADVANCED_FACE ( 'NONE', ( #130 ), #234, .T. ) ;
#295 = AXIS2_PLACEMENT_3D ( 'NONE', #36, #179, #67 ) ;
#296 = DIRECTION ( 'NONE',  ( -3.491481338843133355E-15, 1.224646799147353207E-16, -1.000000000000000000 ) ) ;
#297 = AXIS2_PLACEMENT_3D ( 'NONE', #7, #325, #268 ) ;
#298 = LINE ( 'NONE', #243, #159 ) ;
#299 = DIRECTION ( 'NONE',  ( -3.491481338843133355E-15, 1.224646799147353207E-16, -1.000000000000000000 ) ) ;
#300 = FACE_OUTER_BOUND ( 'NONE', #5, .T. ) ;
#301 = PERSON_AND_ORGANIZATION_ROLE ( 'classification_officer' ) ;
#302 = EDGE_CURVE ( 'NONE', #261, #64, #310, .T. ) ;
#303 = ORIENTED_EDGE ( 'NONE', *, *, #188, .F. ) ;
#304 = APPLICATION_PROTOCOL_DEFINITION ( 'international standard', 'config_control_design', 1994, #71 ) ;
#305 = CARTESIAN_POINT ( 'NONE',  ( 1.110179159247601212E-15, 0.4999999999999963363, 0.3004303095137813018 ) ) ;
#306 = PERSON_AND_ORGANIZATION_ROLE ( 'design_owner' ) ;
#307 = APPROVAL ( #173, 'UNSPECIFIED' ) ;
#308 = CARTESIAN_POINT ( 'NONE',  ( 1.048946819290233638E-15, -0.4999999999999963363, 0.3004303095137811908 ) ) ;
#309 = PERSON_AND_ORGANIZATION ( #281, #193 ) ;
#310 = CIRCLE ( 'NONE', #60, 0.4999999999999971689 ) ;
#311 = EDGE_CURVE ( 'NONE', #292, #285, #223, .T. ) ;
#312 = ADVANCED_BREP_SHAPE_REPRESENTATION ( '54490', ( #32, #136, #65 ), #259 ) ;
#313 = VECTOR ( 'NONE', #111, 1000.000000000000000 ) ;
#314 = ORIENTED_EDGE ( 'NONE', *, *, #311, .T. ) ;
#315 = CARTESIAN_POINT ( 'NONE',  ( 2.444036937190193349E-14, -8.572527594031473190E-16, 7.000000000000000000 ) ) ;
#316 = CC_DESIGN_PERSON_AND_ORGANIZATION_ASSIGNMENT ( #120, #248, ( #322 ) ) ;
#317 = DIRECTION ( 'NONE',  ( -2.468850131082257455E-15, 0.7071067811865497932, -0.7071067811865453523 ) ) ;
#318 = VERTEX_POINT ( 'NONE', #277 ) ;
#319 = CARTESIAN_POINT ( 'NONE',  ( 2.444036937190193349E-14, 0.4999999999999963363, 7.000000000000000000 ) ) ;
#320 = ADVANCED_FACE ( 'NONE', ( #9 ), #255, .T. ) ;
#321 = FACE_OUTER_BOUND ( 'NONE', #291, .T. ) ;
#322 = PRODUCT_DEFINITION_FORMATION_WITH_SPECIFIED_SOURCE ( 'ANY', '', #68, .NOT_KNOWN. ) ;
#323 = CIRCLE ( 'NONE', #289, 0.4999999999999963363 ) ;
#324 = LINE ( 'NONE', #69, #116 ) ;
#325 = DIRECTION ( 'NONE',  ( -3.491481338843133355E-15, 1.224646799147353207E-16, -1.000000000000000000 ) ) ;
#326 = CC_DESIGN_PERSON_AND_ORGANIZATION_ASSIGNMENT ( #122, #301, ( #250 ) ) ;
#327 = VERTEX_POINT ( 'NONE', #107 ) ;
#328 = DIRECTION ( 'NONE',  ( 1.000000000000000000, 0.0000000000000000000, 0.0000000000000000000 ) ) ;
#329 = AXIS2_PLACEMENT_3D ( 'NONE', #245, #20, #10 ) ;
#330 = CC_DESIGN_APPROVAL ( #244, ( #250 ) ) ;
#331 = CARTESIAN_POINT ( 'NONE',  ( 2.444036937190193349E-14, 3.749399456654610492E-33, 7.000000000000000000 ) ) ;
#332 = DATE_TIME_ROLE ( 'classification_date' ) ;
#333 = ADVANCED_FACE ( 'NONE', ( #84 ), #174, .T. ) ;
#334 = CARTESIAN_POINT ( 'NONE',  ( 2.137915722948473611E-31, 0.4999999999999986122, 6.123233995736748780E-17 ) ) ;
#335 = CARTESIAN_POINT ( 'NONE',  ( 1.047444401652940007E-13, -3.673940397442059178E-15, 30.00000000000000000 ) ) ;
#336 = CALENDAR_DATE ( 2021, 3, 9 ) ;
#337 = LOCAL_TIME ( 9, 48, 27.00000000000000000, #103 ) ;
ENDSEC;
END-ISO-10303-21;
