ISO-10303-21;
HEADER;
FILE_DESCRIPTION (( 'STEP AP203' ),
    '1' );
FILE_NAME ('54488.step',
    '2021-09-03T07:48:25',
    ( '' ),
    ( '' ),
    'SwSTEP 2.0',
    'SolidWorks 2019',
    '' );
FILE_SCHEMA (( 'CONFIG_CONTROL_DESIGN' ));
ENDSEC;

DATA;
#1 = ADVANCED_FACE ( 'NONE', ( #92 ), #207, .T. ) ;
#2 = CARTESIAN_POINT ( 'NONE',  ( 0.0000000000000000000, 0.0000000000000000000, 0.0000000000000000000 ) ) ;
#3 = DIRECTION ( 'NONE',  ( -3.491481338843133355E-15, 1.224646799147353207E-16, -1.000000000000000000 ) ) ;
#4 = FACE_OUTER_BOUND ( 'NONE', #209, .T. ) ;
#5 = DATE_AND_TIME ( #327, #292 ) ;
#6 = CARTESIAN_POINT ( 'NONE',  ( 2.444036937190193349E-14, -8.572527594031473190E-16, 7.000000000000000000 ) ) ;
#7 = APPROVAL_STATUS ( 'not_yet_approved' ) ;
#8 = DIRECTION ( 'NONE',  ( -3.491481338843133355E-15, 1.224646799147353207E-16, -1.000000000000000000 ) ) ;
#9 = ADVANCED_FACE ( 'NONE', ( #127 ), #232, .T. ) ;
#10 = CARTESIAN_POINT ( 'NONE',  ( 0.0000000000000000000, 0.0000000000000000000, 0.0000000000000000000 ) ) ;
#11 = DIRECTION ( 'NONE',  ( 0.0000000000000000000, 1.000000000000000000, 0.0000000000000000000 ) ) ;
#12 = DATE_AND_TIME ( #216, #181 ) ;
#13 = VECTOR ( 'NONE', #201, 1000.000000000000000 ) ;
#14 = EDGE_CURVE ( 'NONE', #281, #316, #234, .T. ) ;
#15 = ORGANIZATION ( 'UNSPECIFIED', 'UNSPECIFIED', '' ) ;
#16 = COORDINATED_UNIVERSAL_TIME_OFFSET ( 1, 0, .AHEAD. ) ;
#17 = DIRECTION ( 'NONE',  ( 1.903218546456022717E-15, 0.8571673007021097801, 0.5150380749100585964 ) ) ;
#18 = DIRECTION ( 'NONE',  ( -3.491481338843133355E-15, 1.224646799147353207E-16, -1.000000000000000000 ) ) ;
#19 = MANIFOLD_SOLID_BREP ( 'Corps-Déplacer/Copier1[2]', #60 ) ;
#20 = VECTOR ( 'NONE', #270, 1000.000000000000000 ) ;
#21 = CARTESIAN_POINT ( 'NONE',  ( 2.444036937190193349E-14, 0.4749999999999963696, 7.000000000000000000 ) ) ;
#22 = ORIENTED_EDGE ( 'NONE', *, *, #105, .T. ) ;
#23 = DIRECTION ( 'NONE',  ( -3.491481338843133355E-15, 1.224646799147353207E-16, -1.000000000000000000 ) ) ;
#24 = EDGE_LOOP ( 'NONE', ( #99, #291, #70 ) ) ;
#25 = ORIENTED_EDGE ( 'NONE', *, *, #113, .T. ) ;
#26 = APPROVAL ( #7, 'UNSPECIFIED' ) ;
#27 = VERTEX_POINT ( 'NONE', #135 ) ;
#28 = DIRECTION ( 'NONE',  ( -3.491481338843133355E-15, 1.224646799147353207E-16, -1.000000000000000000 ) ) ;
#29 = AXIS2_PLACEMENT_3D ( 'NONE', #32, #239, #110 ) ;
#30 = DIRECTION ( 'NONE',  ( -4.054589356604737344E-31, -1.000000000000000000, -1.141265444721592139E-16 ) ) ;
#31 = PERSON_AND_ORGANIZATION_ROLE ( 'creator' ) ;
#32 = CARTESIAN_POINT ( 'NONE',  ( 1.047444401652940007E-13, -3.673940397442059178E-15, 30.00000000000000000 ) ) ;
#33 = EDGE_CURVE ( 'NONE', #253, #151, #115, .T. ) ;
#34 = CARTESIAN_POINT ( 'NONE',  ( 1.047444401652940007E-13, -3.673940397442059178E-15, 30.00000000000000000 ) ) ;
#35 = DIRECTION ( 'NONE',  ( 0.0000000000000000000, 1.000000000000000000, 0.0000000000000000000 ) ) ;
#36 = APPROVAL_STATUS ( 'not_yet_approved' ) ;
#37 = EDGE_CURVE ( 'NONE', #286, #91, #108, .T. ) ;
#38 = DATE_AND_TIME ( #103, #139 ) ;
#39 = CARTESIAN_POINT ( 'NONE',  ( 6.447600142461507357E-14, -0.4750000000000038081, 29.89999999999999858 ) ) ;
#40 = DIRECTION ( 'NONE',  ( -3.491481338843133355E-15, 1.224646799147353207E-16, -1.000000000000000000 ) ) ;
#41 = FACE_OUTER_BOUND ( 'NONE', #176, .T. ) ;
#42 = EDGE_LOOP ( 'NONE', ( #71, #118 ) ) ;
#43 = CONICAL_SURFACE ( 'NONE', #95, 0.4749999999999964251, 1.029744258676649649 ) ;
#44 = EDGE_LOOP ( 'NONE', ( #178, #257, #22 ) ) ;
#45 = ORIENTED_EDGE ( 'NONE', *, *, #256, .F. ) ;
#46 = ADVANCED_FACE ( 'NONE', ( #215 ), #137, .T. ) ;
#47 = UNCERTAINTY_MEASURE_WITH_UNIT (LENGTH_MEASURE( 1.000000000000000082E-05 ), #147, 'distance_accuracy_value', 'NONE');
#48 = ORIENTED_EDGE ( 'NONE', *, *, #273, .T. ) ;
#49 = AXIS2_PLACEMENT_3D ( 'NONE', #268, #236, #217 ) ;
#50 = ORIENTED_EDGE ( 'NONE', *, *, #58, .F. ) ;
#51 = CC_DESIGN_PERSON_AND_ORGANIZATION_ASSIGNMENT ( #247, #222, ( #169 ) ) ;
#52 = DIRECTION ( 'NONE',  ( -3.491481338843133355E-15, 1.224646799147353207E-16, -1.000000000000000000 ) ) ;
#53 = DATE_AND_TIME ( #114, #124 ) ;
#54 = AXIS2_PLACEMENT_3D ( 'NONE', #119, #170, #146 ) ;
#55 = APPROVAL_DATE_TIME ( #184, #26 ) ;
#56 = DIRECTION ( 'NONE',  ( 1.798245827342160317E-15, -0.8571673007021098911, 0.5150380749100582634 ) ) ;
#57 = CARTESIAN_POINT ( 'NONE',  ( 2.444036937190193349E-14, 0.4749999999999963696, 7.000000000000000000 ) ) ;
#58 = EDGE_CURVE ( 'NONE', #316, #281, #312, .T. ) ;
#59 = DIRECTION ( 'NONE',  ( -3.491481338843133355E-15, 1.224646799147353207E-16, -1.000000000000000000 ) ) ;
#60 = CLOSED_SHELL ( 'NONE', ( #9, #46, #163, #179, #1 ) ) ;
#61 = CARTESIAN_POINT ( 'NONE',  ( 0.0000000000000000000, 0.0000000000000000000, 0.0000000000000000000 ) ) ;
#62 = DATE_TIME_ROLE ( 'classification_date' ) ;
#63 = PERSON_AND_ORGANIZATION ( #336, #15 ) ;
#64 = COORDINATED_UNIVERSAL_TIME_OFFSET ( 1, 0, .AHEAD. ) ;
#65 = APPROVAL_PERSON_ORGANIZATION ( #166, #314, #245 ) ;
#66 = CARTESIAN_POINT ( 'NONE',  ( 1.047444401652940007E-13, 0.3749999999999963918, 30.00000000000000000 ) ) ;
#67 = ORIENTED_EDGE ( 'NONE', *, *, #14, .F. ) ;
#68 = CARTESIAN_POINT ( 'NONE',  ( 6.447600142461523766E-14, -0.4749999999999980904, 7.000000000000000000 ) ) ;
#69 = APPLICATION_CONTEXT ( 'configuration controlled 3d designs of mechanical parts and assemblies' ) ;
#70 = ORIENTED_EDGE ( 'NONE', *, *, #285, .T. ) ;
#71 = ORIENTED_EDGE ( 'NONE', *, *, #113, .F. ) ;
#72 = VECTOR ( 'NONE', #165, 1000.000000000000114 ) ;
#73 = EDGE_CURVE ( 'NONE', #316, #228, #80, .T. ) ;
#74 = ORIENTED_EDGE ( 'NONE', *, *, #88, .T. ) ;
#75 = ORIENTED_EDGE ( 'NONE', *, *, #33, .F. ) ;
#76 = ORIENTED_EDGE ( 'NONE', *, *, #297, .T. ) ;
#77 = LINE ( 'NONE', #323, #290 ) ;
#78 = DIRECTION ( 'NONE',  ( 0.0000000000000000000, 1.000000000000000000, 0.0000000000000000000 ) ) ;
#79 = PERSON_AND_ORGANIZATION ( #336, #15 ) ;
#80 = LINE ( 'NONE', #293, #20 ) ;
#81 = PERSON_AND_ORGANIZATION_ROLE ( 'classification_officer' ) ;
#82 = EDGE_CURVE ( 'NONE', #121, #152, #142, .T. ) ;
#83 = CARTESIAN_POINT ( 'NONE',  ( 2.031019936801049164E-31, 0.4749999999999986455, 5.817072295949911156E-17 ) ) ;
#84 = DIRECTION ( 'NONE',  ( -4.054589356604737344E-31, -1.000000000000000000, -1.141265444721592139E-16 ) ) ;
#85 = DIRECTION ( 'NONE',  ( -3.491481338843133355E-15, 1.224646799147353207E-16, -1.000000000000000000 ) ) ;
#86 = PRODUCT_RELATED_PRODUCT_CATEGORY ( 'detail', '', ( #269 ) ) ;
#87 = AXIS2_PLACEMENT_3D ( 'NONE', #6, #59, #318 ) ;
#88 = EDGE_CURVE ( 'NONE', #91, #151, #129, .T. ) ;
#89 = CYLINDRICAL_SURFACE ( 'NONE', #235, 0.4749999999999986455 ) ;
#90 = CARTESIAN_POINT ( 'NONE',  ( 9.964994783257220250E-16, -3.495249660672557007E-17, 0.2854087940380921062 ) ) ;
#91 = VERTEX_POINT ( 'NONE', #183 ) ;
#92 = FACE_OUTER_BOUND ( 'NONE', #180, .T. ) ;
#93 = AXIS2_PLACEMENT_3D ( 'NONE', #262, #300, #84 ) ;
#94 = EDGE_LOOP ( 'NONE', ( #229, #198, #279, #337 ) ) ;
#95 = AXIS2_PLACEMENT_3D ( 'NONE', #107, #100, #30 ) ;
#96 = CC_DESIGN_APPROVAL ( #314, ( #125 ) ) ;
#97 = ORIENTED_EDGE ( 'NONE', *, *, #37, .T. ) ;
#98 = CC_DESIGN_PERSON_AND_ORGANIZATION_ASSIGNMENT ( #106, #81, ( #125 ) ) ;
#99 = ORIENTED_EDGE ( 'NONE', *, *, #289, .F. ) ;
#100 = DIRECTION ( 'NONE',  ( 3.491481338843133355E-15, -1.224646799147353207E-16, 1.000000000000000000 ) ) ;
#101 = AXIS2_PLACEMENT_3D ( 'NONE', #164, #3, #210 ) ;
#102 = CARTESIAN_POINT ( 'NONE',  ( 1.043952920314096810E-13, -3.661693929450586610E-15, 29.89999999999999858 ) ) ;
#103 = CALENDAR_DATE ( 2021, 3, 9 ) ;
#104 = DIRECTION ( 'NONE',  ( 0.0000000000000000000, 1.000000000000000000, 0.0000000000000000000 ) ) ;
#105 = EDGE_CURVE ( 'NONE', #228, #27, #334, .T. ) ;
#106 = PERSON_AND_ORGANIZATION ( #336, #15 ) ;
#107 = CARTESIAN_POINT ( 'NONE',  ( 9.964994783257220250E-16, -3.495249660672557007E-17, 0.2854087940380921062 ) ) ;
#108 = CIRCLE ( 'NONE', #246, 0.4750000000000000333 ) ;
#109 = CC_DESIGN_APPROVAL ( #26, ( #169 ) ) ;
#110 = DIRECTION ( 'NONE',  ( 0.0000000000000000000, 1.000000000000000000, 0.0000000000000000000 ) ) ;
#111 = PRODUCT_DEFINITION_SHAPE ( 'NONE', 'NONE',  #260 ) ;
#112 = DIRECTION ( 'NONE',  ( 0.0000000000000000000, 1.000000000000000000, 0.0000000000000000000 ) ) ;
#113 = EDGE_CURVE ( 'NONE', #152, #121, #153, .T. ) ;
#114 = CALENDAR_DATE ( 2021, 3, 9 ) ;
#115 = CIRCLE ( 'NONE', #272, 0.4749999999999972577 ) ;
#116 = VECTOR ( 'NONE', #308, 1000.000000000000000 ) ;
#117 = FACE_OUTER_BOUND ( 'NONE', #42, .T. ) ;
#118 = ORIENTED_EDGE ( 'NONE', *, *, #82, .F. ) ;
#119 = CARTESIAN_POINT ( 'NONE',  ( 1.047444401652940007E-13, 2.812049592490928276E-33, 30.00000000000000000 ) ) ;
#120 = MANIFOLD_SOLID_BREP ( 'Corps-Déplacer/Copier1[1]', #225 ) ;
#121 = VERTEX_POINT ( 'NONE', #162 ) ;
#122 = ORIENTED_EDGE ( 'NONE', *, *, #211, .T. ) ;
#123 = ORIENTED_EDGE ( 'NONE', *, *, #328, .T. ) ;
#124 = LOCAL_TIME ( 9, 48, 25.00000000000000000, #212 ) ;
#125 = SECURITY_CLASSIFICATION ( '', '', #167 ) ;
#126 = CC_DESIGN_PERSON_AND_ORGANIZATION_ASSIGNMENT ( #63, #168, ( #269 ) ) ;
#127 = FACE_OUTER_BOUND ( 'NONE', #94, .T. ) ;
#128 = EDGE_LOOP ( 'NONE', ( #154, #173, #177, #233 ) ) ;
#129 = LINE ( 'NONE', #83, #130 ) ;
#130 = VECTOR ( 'NONE', #159, 1000.000000000000000 ) ;
#131 = MECHANICAL_CONTEXT ( 'NONE', #69, 'mechanical' ) ;
#132 = CARTESIAN_POINT ( 'NONE',  ( 1.047444401652940007E-13, -3.673940397442059178E-15, 30.00000000000000000 ) ) ;
#133 = ADVANCED_FACE ( 'NONE', ( #190 ), #264, .F. ) ;
#134 = CALENDAR_DATE ( 2021, 3, 9 ) ;
#135 = CARTESIAN_POINT ( 'NONE',  ( 9.964994783257218278E-16, -0.4749999999999964806, 0.2854087940380920507 ) ) ;
#136 = CARTESIAN_POINT ( 'NONE',  ( 1.047444401652940007E-13, 0.3749999999999963918, 30.00000000000000000 ) ) ;
#137 = CONICAL_SURFACE ( 'NONE', #93, 0.4749999999999964251, 1.029744258676649649 ) ;
#138 = DIRECTION ( 'NONE',  ( 0.0000000000000000000, 1.000000000000000000, 0.0000000000000000000 ) ) ;
#139 = LOCAL_TIME ( 9, 48, 25.00000000000000000, #322 ) ;
#140 = APPROVAL_ROLE ( '' ) ;
#141 = APPLICATION_PROTOCOL_DEFINITION ( 'international standard', 'config_control_design', 1994, #69 ) ;
#142 = CIRCLE ( 'NONE', #282, 0.3750000000000000555 ) ;
#143 = AXIS2_PLACEMENT_3D ( 'NONE', #324, #85, #252 ) ;
#144 = PERSON_AND_ORGANIZATION_ROLE ( 'design_supplier' ) ;
#145 = PLANE ( 'NONE',  #54 ) ;
#146 = DIRECTION ( 'NONE',  ( 4.275831445896958607E-31, 1.000000000000000000, 1.224646799147353207E-16 ) ) ;
#147 =( LENGTH_UNIT ( ) NAMED_UNIT ( * ) SI_UNIT ( .MILLI., .METRE. ) );
#148 = APPROVAL ( #303, 'UNSPECIFIED' ) ;
#149 = ORIENTED_EDGE ( 'NONE', *, *, #88, .F. ) ;
#150 = CARTESIAN_POINT ( 'NONE',  ( 1.043952920314096810E-13, -3.661693929450586610E-15, 29.89999999999999858 ) ) ;
#151 = VERTEX_POINT ( 'NONE', #57 ) ;
#152 = VERTEX_POINT ( 'NONE', #136 ) ;
#153 = CIRCLE ( 'NONE', #195, 0.3750000000000000555 ) ;
#154 = ORIENTED_EDGE ( 'NONE', *, *, #331, .F. ) ;
#155 = DIRECTION ( 'NONE',  ( -3.491481338843133355E-15, 1.224646799147353207E-16, -1.000000000000000000 ) ) ;
#156 = DIRECTION ( 'NONE',  ( 4.054589356604737344E-31, 1.000000000000000000, 1.141265444721592139E-16 ) ) ;
#157 = APPROVAL_DATE_TIME ( #5, #148 ) ;
#158 = ADVANCED_FACE ( 'NONE', ( #241 ), #298, .T. ) ;
#159 = DIRECTION ( 'NONE',  ( -3.491481338843133355E-15, 1.224646799147353207E-16, -1.000000000000000000 ) ) ;
#160 = CONICAL_SURFACE ( 'NONE', #29, 0.3750000000000000555, 0.7853981633974512766 ) ;
#161 = FACE_OUTER_BOUND ( 'NONE', #128, .T. ) ;
#162 = CARTESIAN_POINT ( 'NONE',  ( 1.046219135873155925E-13, -0.3750000000000037748, 30.00000000000000000 ) ) ;
#163 = ADVANCED_FACE ( 'NONE', ( #218 ), #43, .T. ) ;
#164 = CARTESIAN_POINT ( 'NONE',  ( 0.0000000000000000000, 0.0000000000000000000, 0.0000000000000000000 ) ) ;
#165 = DIRECTION ( 'NONE',  ( -2.468850131082257455E-15, 0.7071067811865497932, -0.7071067811865453523 ) ) ;
#166 = PERSON_AND_ORGANIZATION ( #336, #15 ) ;
#167 = SECURITY_CLASSIFICATION_LEVEL ( 'unclassified' ) ;
#168 = PERSON_AND_ORGANIZATION_ROLE ( 'design_owner' ) ;
#169 = PRODUCT_DEFINITION_FORMATION_WITH_SPECIFIED_SOURCE ( 'ANY', '', #269, .NOT_KNOWN. ) ;
#170 = DIRECTION ( 'NONE',  ( -3.491481338843133355E-15, 1.224646799147353207E-16, -1.000000000000000000 ) ) ;
#171 = EDGE_CURVE ( 'NONE', #333, #27, #77, .T. ) ;
#172 = CARTESIAN_POINT ( 'NONE',  ( 1.047444401652940007E-13, -3.673940397442059178E-15, 30.00000000000000000 ) ) ;
#173 = ORIENTED_EDGE ( 'NONE', *, *, #14, .T. ) ;
#174 =( NAMED_UNIT ( * ) SI_UNIT ( $, .STERADIAN. ) SOLID_ANGLE_UNIT ( ) );
#175 = AXIS2_PLACEMENT_3D ( 'NONE', #10, #28, #182 ) ;
#176 = EDGE_LOOP ( 'NONE', ( #204, #332, #76, #202 ) ) ;
#177 = ORIENTED_EDGE ( 'NONE', *, *, #73, .T. ) ;
#178 = ORIENTED_EDGE ( 'NONE', *, *, #171, .F. ) ;
#179 = ADVANCED_FACE ( 'NONE', ( #161 ), #266, .T. ) ;
#180 = EDGE_LOOP ( 'NONE', ( #50, #67 ) ) ;
#181 = LOCAL_TIME ( 9, 48, 25.00000000000000000, #16 ) ;
#182 = DIRECTION ( 'NONE',  ( 4.275831445896958607E-31, 1.000000000000000000, 1.224646799147352961E-16 ) ) ;
#183 = CARTESIAN_POINT ( 'NONE',  ( 1.043952920314096810E-13, 0.4749999999999963696, 29.89999999999999858 ) ) ;
#184 = DATE_AND_TIME ( #134, #231 ) ;
#185 = DIRECTION ( 'NONE',  ( -3.491481338843133355E-15, 1.224646799147353207E-16, -1.000000000000000000 ) ) ;
#186 = AXIS2_PLACEMENT_3D ( 'NONE', #299, #294, #156 ) ;
#187 = CIRCLE ( 'NONE', #283, 0.4749999999999964251 ) ;
#188 = APPROVAL_PERSON_ORGANIZATION ( #79, #26, #214 ) ;
#189 = DIRECTION ( 'NONE',  ( 0.0000000000000000000, 1.000000000000000000, 0.0000000000000000000 ) ) ;
#190 = FACE_OUTER_BOUND ( 'NONE', #311, .T. ) ;
#191 = DIRECTION ( 'NONE',  ( 4.054589356604737344E-31, 1.000000000000000000, 1.141265444721592139E-16 ) ) ;
#192 = PERSON_AND_ORGANIZATION ( #336, #15 ) ;
#193 = ADVANCED_FACE ( 'NONE', ( #4 ), #160, .T. ) ;
#194 = COORDINATED_UNIVERSAL_TIME_OFFSET ( 1, 0, .AHEAD. ) ;
#195 = AXIS2_PLACEMENT_3D ( 'NONE', #34, #185, #138 ) ;
#196 = LINE ( 'NONE', #66, #72 ) ;
#197 = CC_DESIGN_APPROVAL ( #148, ( #260 ) ) ;
#198 = ORIENTED_EDGE ( 'NONE', *, *, #331, .T. ) ;
#199 = LINE ( 'NONE', #223, #116 ) ;
#200 = ORIENTED_EDGE ( 'NONE', *, *, #297, .F. ) ;
#201 = DIRECTION ( 'NONE',  ( -3.491481338843133355E-15, 1.224646799147353207E-16, -1.000000000000000000 ) ) ;
#202 = ORIENTED_EDGE ( 'NONE', *, *, #37, .F. ) ;
#203 = AXIS2_PLACEMENT_3D ( 'NONE', #172, #23, #11 ) ;
#204 = ORIENTED_EDGE ( 'NONE', *, *, #273, .F. ) ;
#205 = AXIS2_PLACEMENT_3D ( 'NONE', #275, #305, #265 ) ;
#206 = CC_DESIGN_PERSON_AND_ORGANIZATION_ASSIGNMENT ( #276, #144, ( #169 ) ) ;
#207 = PLANE ( 'NONE',  #317 ) ;
#208 = DESIGN_CONTEXT ( 'detailed design', #271, 'design' ) ;
#209 = EDGE_LOOP ( 'NONE', ( #25, #48, #309, #200 ) ) ;
#210 = DIRECTION ( 'NONE',  ( 4.275831445896957731E-31, 1.000000000000000000, 1.224646799147353207E-16 ) ) ;
#211 = EDGE_CURVE ( 'NONE', #151, #253, #296, .T. ) ;
#212 = COORDINATED_UNIVERSAL_TIME_OFFSET ( 1, 0, .AHEAD. ) ;
#213 = CARTESIAN_POINT ( 'NONE',  ( 2.444036937190193349E-14, -8.572527594031473190E-16, 7.000000000000000000 ) ) ;
#214 = APPROVAL_ROLE ( '' ) ;
#215 = FACE_OUTER_BOUND ( 'NONE', #44, .T. ) ;
#216 = CALENDAR_DATE ( 2021, 3, 9 ) ;
#217 = DIRECTION ( 'NONE',  ( -4.275831445896958607E-31, -1.000000000000000000, -1.224646799147353207E-16 ) ) ;
#218 = FACE_OUTER_BOUND ( 'NONE', #24, .T. ) ;
#219 = CONICAL_SURFACE ( 'NONE', #203, 0.3750000000000000555, 0.7853981633974512766 ) ;
#220 = CC_DESIGN_DATE_AND_TIME_ASSIGNMENT ( #12, #62, ( #125 ) ) ;
#221 = APPROVAL_PERSON_ORGANIZATION ( #192, #148, #140 ) ;
#222 = PERSON_AND_ORGANIZATION_ROLE ( 'creator' ) ;
#223 = CARTESIAN_POINT ( 'NONE',  ( 5.817072295949869247E-17, -0.4749999999999968137, -5.817072295949908690E-17 ) ) ;
#224 = CC_DESIGN_PERSON_AND_ORGANIZATION_ASSIGNMENT ( #238, #31, ( #260 ) ) ;
#225 = CLOSED_SHELL ( 'NONE', ( #193, #244, #133, #158, #267, #301 ) ) ;
#226 = CARTESIAN_POINT ( 'NONE',  ( 1.054670201285221063E-15, 0.4749999999999963696, 0.2854087940380921617 ) ) ;
#227 = CARTESIAN_POINT ( 'NONE',  ( 1.047903644202620232E-13, -0.3750000000000037748, 30.00000000000000000 ) ) ;
#228 = VERTEX_POINT ( 'NONE', #226 ) ;
#229 = ORIENTED_EDGE ( 'NONE', *, *, #58, .T. ) ;
#230 = EDGE_LOOP ( 'NONE', ( #45, #97, #74, #75 ) ) ;
#231 = LOCAL_TIME ( 9, 48, 25.00000000000000000, #64 ) ;
#232 = CYLINDRICAL_SURFACE ( 'NONE', #306, 0.4749999999999968137 ) ;
#233 = ORIENTED_EDGE ( 'NONE', *, *, #285, .F. ) ;
#234 = CIRCLE ( 'NONE', #87, 0.4749999999999972577 ) ;
#235 = AXIS2_PLACEMENT_3D ( 'NONE', #61, #40, #307 ) ;
#236 = DIRECTION ( 'NONE',  ( 3.491481338843133355E-15, -1.224646799147353207E-16, 1.000000000000000000 ) ) ;
#237 = DIRECTION ( 'NONE',  ( -3.491481338843133355E-15, 1.224646799147353207E-16, -1.000000000000000000 ) ) ;
#238 = PERSON_AND_ORGANIZATION ( #336, #15 ) ;
#239 = DIRECTION ( 'NONE',  ( -3.491481338843133355E-15, 1.224646799147353207E-16, -1.000000000000000000 ) ) ;
#240 = CC_DESIGN_DATE_AND_TIME_ASSIGNMENT ( #38, #304, ( #260 ) ) ;
#241 = FACE_OUTER_BOUND ( 'NONE', #230, .T. ) ;
#242 = CARTESIAN_POINT ( 'NONE',  ( 5.817072295949891434E-17, -0.4749999999999986455, -5.817072295949930877E-17 ) ) ;
#243 =( GEOMETRIC_REPRESENTATION_CONTEXT ( 3 ) GLOBAL_UNCERTAINTY_ASSIGNED_CONTEXT ( ( #47 ) ) GLOBAL_UNIT_ASSIGNED_CONTEXT ( ( #147, #329, #174 ) ) REPRESENTATION_CONTEXT ( 'NONE', 'WORKASPACE' ) );
#244 = ADVANCED_FACE ( 'NONE', ( #251 ), #89, .T. ) ;
#245 = APPROVAL_ROLE ( '' ) ;
#246 = AXIS2_PLACEMENT_3D ( 'NONE', #102, #8, #35 ) ;
#247 = PERSON_AND_ORGANIZATION ( #336, #15 ) ;
#248 = CIRCLE ( 'NONE', #263, 0.4750000000000000333 ) ;
#249 = APPLICATION_PROTOCOL_DEFINITION ( 'international standard', 'config_control_design', 1994, #271 ) ;
#250 = ORIENTED_EDGE ( 'NONE', *, *, #211, .F. ) ;
#251 = FACE_OUTER_BOUND ( 'NONE', #255, .T. ) ;
#252 = DIRECTION ( 'NONE',  ( 0.0000000000000000000, 1.000000000000000000, 0.0000000000000000000 ) ) ;
#253 = VERTEX_POINT ( 'NONE', #68 ) ;
#254 = ADVANCED_BREP_SHAPE_REPRESENTATION ( '54488', ( #120, #19, #205 ), #243 ) ;
#255 = EDGE_LOOP ( 'NONE', ( #123, #313, #250, #149 ) ) ;
#256 = EDGE_CURVE ( 'NONE', #286, #253, #330, .T. ) ;
#257 = ORIENTED_EDGE ( 'NONE', *, *, #289, .T. ) ;
#258 = DIRECTION ( 'NONE',  ( -4.275831445896958607E-31, -1.000000000000000000, -1.224646799147353207E-16 ) ) ;
#259 = CC_DESIGN_SECURITY_CLASSIFICATION ( #125, ( #169 ) ) ;
#260 = PRODUCT_DEFINITION ( 'UNKNOWN', '', #169, #208 ) ;
#261 = DIRECTION ( 'NONE',  ( 4.275831445896958607E-31, 1.000000000000000000, 1.224646799147352961E-16 ) ) ;
#262 = CARTESIAN_POINT ( 'NONE',  ( 9.964994783257220250E-16, -3.495249660672557007E-17, 0.2854087940380921062 ) ) ;
#263 = AXIS2_PLACEMENT_3D ( 'NONE', #150, #284, #112 ) ;
#264 = PLANE ( 'NONE',  #49 ) ;
#265 = DIRECTION ( 'NONE',  ( 1.000000000000000000, 0.0000000000000000000, 0.0000000000000000000 ) ) ;
#266 = CYLINDRICAL_SURFACE ( 'NONE', #175, 0.4749999999999968137 ) ;
#267 = ADVANCED_FACE ( 'NONE', ( #41 ), #219, .T. ) ;
#268 = CARTESIAN_POINT ( 'NONE',  ( 2.444036937190193349E-14, 3.561929483821878291E-33, 7.000000000000000000 ) ) ;
#269 = PRODUCT ( '54488', '54488', '', ( #131 ) ) ;
#270 = DIRECTION ( 'NONE',  ( -3.491481338843133355E-15, 1.224646799147353207E-16, -1.000000000000000000 ) ) ;
#271 = APPLICATION_CONTEXT ( 'configuration controlled 3d designs of mechanical parts and assemblies' ) ;
#272 = AXIS2_PLACEMENT_3D ( 'NONE', #213, #237, #104 ) ;
#273 = EDGE_CURVE ( 'NONE', #121, #286, #278, .T. ) ;
#274 = CARTESIAN_POINT ( 'NONE',  ( 1.277660514807330747E-14, -0.4749999999999980904, 7.000000000000000000 ) ) ;
#275 = CARTESIAN_POINT ( 'NONE',  ( 0.0000000000000000000, 0.0000000000000000000, 0.0000000000000000000 ) ) ;
#276 = PERSON_AND_ORGANIZATION ( #336, #15 ) ;
#277 = APPROVAL_DATE_TIME ( #53, #314 ) ;
#278 = LINE ( 'NONE', #227, #335 ) ;
#279 = ORIENTED_EDGE ( 'NONE', *, *, #105, .F. ) ;
#280 = CARTESIAN_POINT ( 'NONE',  ( 0.0000000000000000000, 0.0000000000000000000, 0.0000000000000000000 ) ) ;
#281 = VERTEX_POINT ( 'NONE', #274 ) ;
#282 = AXIS2_PLACEMENT_3D ( 'NONE', #132, #52, #189 ) ;
#283 = AXIS2_PLACEMENT_3D ( 'NONE', #90, #18, #191 ) ;
#284 = DIRECTION ( 'NONE',  ( -3.491481338843133355E-15, 1.224646799147353207E-16, -1.000000000000000000 ) ) ;
#285 = EDGE_CURVE ( 'NONE', #27, #228, #187, .T. ) ;
#286 = VERTEX_POINT ( 'NONE', #39 ) ;
#287 = ORIENTED_EDGE ( 'NONE', *, *, #33, .T. ) ;
#288 = DIRECTION ( 'NONE',  ( 3.491481338843133355E-15, -1.224646799147353207E-16, 1.000000000000000000 ) ) ;
#289 = EDGE_CURVE ( 'NONE', #333, #228, #302, .T. ) ;
#290 = VECTOR ( 'NONE', #56, 1000.000000000000000 ) ;
#291 = ORIENTED_EDGE ( 'NONE', *, *, #171, .T. ) ;
#292 = LOCAL_TIME ( 9, 48, 25.00000000000000000, #194 ) ;
#293 = CARTESIAN_POINT ( 'NONE',  ( 2.031019936801041719E-31, 0.4749999999999968137, 5.817072295949887736E-17 ) ) ;
#294 = DIRECTION ( 'NONE',  ( -3.491481338843133355E-15, 1.224646799147353207E-16, -1.000000000000000000 ) ) ;
#295 = AXIS2_PLACEMENT_3D ( 'NONE', #320, #321, #78 ) ;
#296 = CIRCLE ( 'NONE', #143, 0.4749999999999972577 ) ;
#297 = EDGE_CURVE ( 'NONE', #152, #91, #196, .T. ) ;
#298 = CYLINDRICAL_SURFACE ( 'NONE', #101, 0.4749999999999986455 ) ;
#299 = CARTESIAN_POINT ( 'NONE',  ( 9.964994783257220250E-16, -3.495249660672557007E-17, 0.2854087940380921062 ) ) ;
#300 = DIRECTION ( 'NONE',  ( 3.491481338843133355E-15, -1.224646799147353207E-16, 1.000000000000000000 ) ) ;
#301 = ADVANCED_FACE ( 'NONE', ( #117 ), #145, .F. ) ;
#302 = LINE ( 'NONE', #310, #326 ) ;
#303 = APPROVAL_STATUS ( 'not_yet_approved' ) ;
#304 = DATE_TIME_ROLE ( 'creation_date' ) ;
#305 = DIRECTION ( 'NONE',  ( 0.0000000000000000000, 0.0000000000000000000, 1.000000000000000000 ) ) ;
#306 = AXIS2_PLACEMENT_3D ( 'NONE', #2, #155, #261 ) ;
#307 = DIRECTION ( 'NONE',  ( 4.275831445896957731E-31, 1.000000000000000000, 1.224646799147353207E-16 ) ) ;
#308 = DIRECTION ( 'NONE',  ( -3.491481338843133355E-15, 1.224646799147353207E-16, -1.000000000000000000 ) ) ;
#309 = ORIENTED_EDGE ( 'NONE', *, *, #328, .F. ) ;
#310 = CARTESIAN_POINT ( 'NONE',  ( 1.054670201285221063E-15, 0.4749999999999963696, 0.2854087940380921617 ) ) ;
#311 = EDGE_LOOP ( 'NONE', ( #122, #287 ) ) ;
#312 = CIRCLE ( 'NONE', #295, 0.4749999999999972577 ) ;
#313 = ORIENTED_EDGE ( 'NONE', *, *, #256, .T. ) ;
#314 = APPROVAL ( #36, 'UNSPECIFIED' ) ;
#315 = CARTESIAN_POINT ( 'NONE',  ( 2.444036937190193349E-14, 3.561929483821878291E-33, 7.000000000000000000 ) ) ;
#316 = VERTEX_POINT ( 'NONE', #21 ) ;
#317 = AXIS2_PLACEMENT_3D ( 'NONE', #315, #288, #258 ) ;
#318 = DIRECTION ( 'NONE',  ( 0.0000000000000000000, 1.000000000000000000, 0.0000000000000000000 ) ) ;
#319 = SHAPE_DEFINITION_REPRESENTATION ( #111, #254 ) ;
#320 = CARTESIAN_POINT ( 'NONE',  ( 2.444036937190193349E-14, -8.572527594031473190E-16, 7.000000000000000000 ) ) ;
#321 = DIRECTION ( 'NONE',  ( -3.491481338843133355E-15, 1.224646799147353207E-16, -1.000000000000000000 ) ) ;
#322 = COORDINATED_UNIVERSAL_TIME_OFFSET ( 1, 0, .AHEAD. ) ;
#323 = CARTESIAN_POINT ( 'NONE',  ( 9.964994783257218278E-16, -0.4749999999999964806, 0.2854087940380920507 ) ) ;
#324 = CARTESIAN_POINT ( 'NONE',  ( 2.444036937190193349E-14, -8.572527594031473190E-16, 7.000000000000000000 ) ) ;
#325 = DIRECTION ( 'NONE',  ( -2.382254525458708792E-15, -0.7071067811865495711, -0.7071067811865455743 ) ) ;
#326 = VECTOR ( 'NONE', #17, 999.9999999999998863 ) ;
#327 = CALENDAR_DATE ( 2021, 3, 9 ) ;
#328 = EDGE_CURVE ( 'NONE', #91, #286, #248, .T. ) ;
#329 =( NAMED_UNIT ( * ) PLANE_ANGLE_UNIT ( ) SI_UNIT ( $, .RADIAN. ) );
#330 = LINE ( 'NONE', #242, #13 ) ;
#331 = EDGE_CURVE ( 'NONE', #281, #27, #199, .T. ) ;
#332 = ORIENTED_EDGE ( 'NONE', *, *, #82, .T. ) ;
#333 = VERTEX_POINT ( 'NONE', #280 ) ;
#334 = CIRCLE ( 'NONE', #186, 0.4749999999999964251 ) ;
#335 = VECTOR ( 'NONE', #325, 1000.000000000000114 ) ;
#336 = PERSON ( 'UNSPECIFIED', 'UNSPECIFIED', 'UNSPECIFIED', ('UNSPECIFIED'), ('UNSPECIFIED'), ('UNSPECIFIED') ) ;
#337 = ORIENTED_EDGE ( 'NONE', *, *, #73, .F. ) ;
ENDSEC;
END-ISO-10303-21;
