ISO-10303-21;
HEADER;
FILE_DESCRIPTION (( 'STEP AP203' ),
    '1' );
FILE_NAME ('54487.step',
    '2021-09-03T07:48:24',
    ( '' ),
    ( '' ),
    'SwSTEP 2.0',
    'SolidWorks 2019',
    '' );
FILE_SCHEMA (( 'CONFIG_CONTROL_DESIGN' ));
ENDSEC;

DATA;
#1 = CC_DESIGN_PERSON_AND_ORGANIZATION_ASSIGNMENT ( #319, #87, ( #326 ) ) ;
#2 = FACE_OUTER_BOUND ( 'NONE', #166, .T. ) ;
#3 = DIRECTION ( 'NONE',  ( -3.491481338843133355E-15, 1.224646799147353207E-16, -1.000000000000000000 ) ) ;
#4 = AXIS2_PLACEMENT_3D ( 'NONE', #69, #42, #140 ) ;
#5 = LOCAL_TIME ( 9, 48, 24.00000000000000000, #161 ) ;
#6 = CALENDAR_DATE ( 2021, 3, 9 ) ;
#7 =( NAMED_UNIT ( * ) PLANE_ANGLE_UNIT ( ) SI_UNIT ( $, .RADIAN. ) );
#8 = ORIENTED_EDGE ( 'NONE', *, *, #100, .T. ) ;
#9 = DIRECTION ( 'NONE',  ( 0.0000000000000000000, 0.0000000000000000000, 1.000000000000000000 ) ) ;
#10 = SECURITY_CLASSIFICATION ( '', '', #29 ) ;
#11 = ORIENTED_EDGE ( 'NONE', *, *, #33, .T. ) ;
#12 = ORIENTED_EDGE ( 'NONE', *, *, #305, .F. ) ;
#13 = AXIS2_PLACEMENT_3D ( 'NONE', #157, #77, #284 ) ;
#14 = CARTESIAN_POINT ( 'NONE',  ( 1.047444401652940007E-13, 0.2999999999999963252, 30.00000000000000000 ) ) ;
#15 = DIRECTION ( 'NONE',  ( 0.0000000000000000000, 1.000000000000000000, 0.0000000000000000000 ) ) ;
#16 = EDGE_LOOP ( 'NONE', ( #273, #162, #30, #171 ) ) ;
#17 = CC_DESIGN_SECURITY_CLASSIFICATION ( #10, ( #293 ) ) ;
#18 = CARTESIAN_POINT ( 'NONE',  ( 1.043952920314096810E-13, -3.661693929450586610E-15, 29.89999999999999858 ) ) ;
#19 = LINE ( 'NONE', #207, #203 ) ;
#20 = LINE ( 'NONE', #337, #278 ) ;
#21 = DIRECTION ( 'NONE',  ( -2.382254525458708792E-15, -0.7071067811865495711, -0.7071067811865455743 ) ) ;
#22 = AXIS2_PLACEMENT_3D ( 'NONE', #38, #96, #296 ) ;
#23 = LOCAL_TIME ( 9, 48, 24.00000000000000000, #288 ) ;
#24 = ADVANCED_FACE ( 'NONE', ( #324 ), #209, .T. ) ;
#25 = DIRECTION ( 'NONE',  ( -4.275831445896958607E-31, -1.000000000000000000, -1.224646799147353207E-16 ) ) ;
#26 = ADVANCED_FACE ( 'NONE', ( #173 ), #311, .T. ) ;
#27 = VECTOR ( 'NONE', #21, 1000.000000000000114 ) ;
#28 = ORIENTED_EDGE ( 'NONE', *, *, #76, .F. ) ;
#29 = SECURITY_CLASSIFICATION_LEVEL ( 'unclassified' ) ;
#30 = ORIENTED_EDGE ( 'NONE', *, *, #86, .T. ) ;
#31 = CALENDAR_DATE ( 2021, 3, 9 ) ;
#32 = ORIENTED_EDGE ( 'NONE', *, *, #292, .F. ) ;
#33 = EDGE_CURVE ( 'NONE', #58, #193, #261, .T. ) ;
#34 = DIRECTION ( 'NONE',  ( 3.491481338843133355E-15, -1.224646799147353207E-16, 1.000000000000000000 ) ) ;
#35 = EDGE_LOOP ( 'NONE', ( #295, #330, #89, #28 ) ) ;
#36 = CIRCLE ( 'NONE', #229, 0.3999999999999971911 ) ;
#37 = COORDINATED_UNIVERSAL_TIME_OFFSET ( 1, 0, .AHEAD. ) ;
#38 = CARTESIAN_POINT ( 'NONE',  ( 8.391574554321854115E-16, -2.943368135303200840E-17, 0.2403442476110245196 ) ) ;
#39 = ADVANCED_FACE ( 'NONE', ( #303 ), #73, .F. ) ;
#40 = CARTESIAN_POINT ( 'NONE',  ( 1.046127287363220082E-13, -0.3000000000000037081, 30.00000000000000000 ) ) ;
#41 = DIRECTION ( 'NONE',  ( -3.491481338843133355E-15, 1.224646799147353207E-16, -1.000000000000000000 ) ) ;
#42 = DIRECTION ( 'NONE',  ( -3.491481338843133355E-15, 1.224646799147353207E-16, -1.000000000000000000 ) ) ;
#43 = EDGE_CURVE ( 'NONE', #193, #58, #80, .T. ) ;
#44 = DIRECTION ( 'NONE',  ( -3.491481338843133355E-15, 1.224646799147353207E-16, -1.000000000000000000 ) ) ;
#45 = PERSON_AND_ORGANIZATION ( #95, #188 ) ;
#46 = CIRCLE ( 'NONE', #250, 0.3000000000000000444 ) ;
#47 = DIRECTION ( 'NONE',  ( 0.0000000000000000000, 1.000000000000000000, 0.0000000000000000000 ) ) ;
#48 = CARTESIAN_POINT ( 'NONE',  ( 2.444036937190193349E-14, 2.999519565323681004E-33, 7.000000000000000000 ) ) ;
#49 = CARTESIAN_POINT ( 'NONE',  ( 1.047811795692684136E-13, -0.3000000000000037081, 30.00000000000000000 ) ) ;
#50 = ADVANCED_FACE ( 'NONE', ( #147 ), #94, .T. ) ;
#51 = UNCERTAINTY_MEASURE_WITH_UNIT (LENGTH_MEASURE( 1.000000000000000082E-05 ), #235, 'distance_accuracy_value', 'NONE');
#52 = LINE ( 'NONE', #99, #172 ) ;
#53 = CIRCLE ( 'NONE', #328, 0.4000000000000000222 ) ;
#54 = DIRECTION ( 'NONE',  ( 1.903218546456021928E-15, 0.8571673007021098911, 0.5150380749100583744 ) ) ;
#55 =( NAMED_UNIT ( * ) SI_UNIT ( $, .STERADIAN. ) SOLID_ANGLE_UNIT ( ) );
#56 = ORIENTED_EDGE ( 'NONE', *, *, #265, .F. ) ;
#57 = AXIS2_PLACEMENT_3D ( 'NONE', #176, #281, #252 ) ;
#58 = VERTEX_POINT ( 'NONE', #275 ) ;
#59 = LOCAL_TIME ( 9, 48, 24.00000000000000000, #146 ) ;
#60 = CARTESIAN_POINT ( 'NONE',  ( 0.0000000000000000000, 0.0000000000000000000, 0.0000000000000000000 ) ) ;
#61 = APPLICATION_PROTOCOL_DEFINITION ( 'international standard', 'config_control_design', 1994, #135 ) ;
#62 = ORIENTED_EDGE ( 'NONE', *, *, #287, .F. ) ;
#63 = EDGE_CURVE ( 'NONE', #260, #195, #142, .T. ) ;
#64 = APPROVAL_STATUS ( 'not_yet_approved' ) ;
#65 = VERTEX_POINT ( 'NONE', #40 ) ;
#66 = CC_DESIGN_APPROVAL ( #175, ( #10 ) ) ;
#67 = ORIENTED_EDGE ( 'NONE', *, *, #189, .F. ) ;
#68 = CC_DESIGN_PERSON_AND_ORGANIZATION_ASSIGNMENT ( #178, #333, ( #10 ) ) ;
#69 = CARTESIAN_POINT ( 'NONE',  ( 8.391574554321854115E-16, -2.943368135303200840E-17, 0.2403442476110245196 ) ) ;
#70 = ORIENTED_EDGE ( 'NONE', *, *, #287, .T. ) ;
#71 = EDGE_LOOP ( 'NONE', ( #12, #164 ) ) ;
#72 = DATE_AND_TIME ( #98, #59 ) ;
#73 = PLANE ( 'NONE',  #218 ) ;
#74 = CARTESIAN_POINT ( 'NONE',  ( 1.043952920314096810E-13, -3.661693929450586610E-15, 29.89999999999999858 ) ) ;
#75 = DIRECTION ( 'NONE',  ( 0.0000000000000000000, 1.000000000000000000, 0.0000000000000000000 ) ) ;
#76 = EDGE_CURVE ( 'NONE', #187, #58, #243, .T. ) ;
#77 = DIRECTION ( 'NONE',  ( -3.491481338843133355E-15, 1.224646799147353207E-16, -1.000000000000000000 ) ) ;
#78 = DIRECTION ( 'NONE',  ( -3.491481338843133355E-15, 1.224646799147353207E-16, -1.000000000000000000 ) ) ;
#79 = FACE_OUTER_BOUND ( 'NONE', #16, .T. ) ;
#80 = CIRCLE ( 'NONE', #4, 0.3999999999999964140 ) ;
#81 = DIRECTION ( 'NONE',  ( 0.0000000000000000000, 1.000000000000000000, 0.0000000000000000000 ) ) ;
#82 = PERSON_AND_ORGANIZATION_ROLE ( 'design_supplier' ) ;
#83 = DIRECTION ( 'NONE',  ( 1.000000000000000000, 0.0000000000000000000, 0.0000000000000000000 ) ) ;
#84 = AXIS2_PLACEMENT_3D ( 'NONE', #257, #276, #102 ) ;
#85 = EDGE_LOOP ( 'NONE', ( #322, #219 ) ) ;
#86 = EDGE_CURVE ( 'NONE', #289, #195, #141, .T. ) ;
#87 = PERSON_AND_ORGANIZATION_ROLE ( 'creator' ) ;
#88 = APPROVAL_STATUS ( 'not_yet_approved' ) ;
#89 = ORIENTED_EDGE ( 'NONE', *, *, #33, .F. ) ;
#90 = EDGE_CURVE ( 'NONE', #217, #244, #267, .T. ) ;
#91 = CARTESIAN_POINT ( 'NONE',  ( 8.391574554321854115E-16, -2.943368135303200840E-17, 0.2403442476110245196 ) ) ;
#92 = CARTESIAN_POINT ( 'NONE',  ( 1.047444401652940007E-13, 2.249639673992731331E-33, 30.00000000000000000 ) ) ;
#93 = CC_DESIGN_PERSON_AND_ORGANIZATION_ASSIGNMENT ( #313, #314, ( #293 ) ) ;
#94 = CYLINDRICAL_SURFACE ( 'NONE', #110, 0.3999999999999986344 ) ;
#95 = PERSON ( 'UNSPECIFIED', 'UNSPECIFIED', 'UNSPECIFIED', ('UNSPECIFIED'), ('UNSPECIFIED'), ('UNSPECIFIED') ) ;
#96 = DIRECTION ( 'NONE',  ( -3.491481338843133355E-15, 1.224646799147353207E-16, -1.000000000000000000 ) ) ;
#97 = PLANE ( 'NONE',  #105 ) ;
#98 = CALENDAR_DATE ( 2021, 3, 9 ) ;
#99 = CARTESIAN_POINT ( 'NONE',  ( 4.898587196589378563E-17, -0.3999999999999986344, -4.898587196589412459E-17 ) ) ;
#100 = EDGE_CURVE ( 'NONE', #137, #187, #36, .T. ) ;
#101 = CYLINDRICAL_SURFACE ( 'NONE', #13, 0.3999999999999968026 ) ;
#102 = DIRECTION ( 'NONE',  ( 0.0000000000000000000, 1.000000000000000000, 0.0000000000000000000 ) ) ;
#103 = CARTESIAN_POINT ( 'NONE',  ( 1.043952920314096810E-13, 0.3999999999999963585, 29.89999999999999858 ) ) ;
#104 = APPROVAL_ROLE ( '' ) ;
#105 = AXIS2_PLACEMENT_3D ( 'NONE', #48, #307, #25 ) ;
#106 = AXIS2_PLACEMENT_3D ( 'NONE', #259, #240, #290 ) ;
#107 = FACE_OUTER_BOUND ( 'NONE', #249, .T. ) ;
#108 = ORIENTED_EDGE ( 'NONE', *, *, #305, .T. ) ;
#109 = APPROVAL_ROLE ( '' ) ;
#110 = AXIS2_PLACEMENT_3D ( 'NONE', #225, #44, #226 ) ;
#111 = PERSON_AND_ORGANIZATION ( #95, #188 ) ;
#112 = VERTEX_POINT ( 'NONE', #118 ) ;
#113 = DIRECTION ( 'NONE',  ( -3.491481338843133355E-15, 1.224646799147353207E-16, -1.000000000000000000 ) ) ;
#114 = CIRCLE ( 'NONE', #300, 0.3000000000000000444 ) ;
#115 = DIRECTION ( 'NONE',  ( -2.468850131082257455E-15, 0.7071067811865497932, -0.7071067811865453523 ) ) ;
#116 = CARTESIAN_POINT ( 'NONE',  ( 1.710332578358769692E-31, 0.3999999999999968026, 4.898587196589373632E-17 ) ) ;
#117 = EDGE_CURVE ( 'NONE', #195, #260, #53, .T. ) ;
#118 = CARTESIAN_POINT ( 'NONE',  ( 0.0000000000000000000, 0.0000000000000000000, 0.0000000000000000000 ) ) ;
#119 = AXIS2_PLACEMENT_3D ( 'NONE', #91, #272, #167 ) ;
#120 = DATE_AND_TIME ( #302, #197 ) ;
#121 = CARTESIAN_POINT ( 'NONE',  ( 1.047444401652940007E-13, -3.673940397442059178E-15, 30.00000000000000000 ) ) ;
#122 = CARTESIAN_POINT ( 'NONE',  ( 6.446681657362141353E-14, -0.4000000000000036859, 29.89999999999999858 ) ) ;
#123 = APPROVAL ( #64, 'UNSPECIFIED' ) ;
#124 = DIRECTION ( 'NONE',  ( 1.798245827342159528E-15, -0.8571673007021100021, 0.5150380749100580413 ) ) ;
#125 = MANIFOLD_SOLID_BREP ( 'Corps-Déplacer/Copier1[2]', #126 ) ;
#126 = CLOSED_SHELL ( 'NONE', ( #133, #320, #24, #170, #150 ) ) ;
#127 = DIRECTION ( 'NONE',  ( -3.491481338843133355E-15, 1.224646799147353207E-16, -1.000000000000000000 ) ) ;
#128 = CC_DESIGN_DATE_AND_TIME_ASSIGNMENT ( #120, #321, ( #10 ) ) ;
#129 = CARTESIAN_POINT ( 'NONE',  ( 1.268874928563293099E-14, -0.3999999999999980793, 7.000000000000000000 ) ) ;
#130 = CARTESIAN_POINT ( 'NONE',  ( 1.047444401652940007E-13, -3.673940397442059178E-15, 30.00000000000000000 ) ) ;
#131 = VECTOR ( 'NONE', #115, 1000.000000000000114 ) ;
#132 = PLANE ( 'NONE',  #106 ) ;
#133 = ADVANCED_FACE ( 'NONE', ( #258 ), #234, .T. ) ;
#134 = CARTESIAN_POINT ( 'NONE',  ( 8.391574554321854115E-16, -2.943368135303200840E-17, 0.2403442476110245196 ) ) ;
#135 = APPLICATION_CONTEXT ( 'configuration controlled 3d designs of mechanical parts and assemblies' ) ;
#136 = CALENDAR_DATE ( 2021, 3, 9 ) ;
#137 = VERTEX_POINT ( 'NONE', #129 ) ;
#138 = AXIS2_PLACEMENT_3D ( 'NONE', #134, #34, #191 ) ;
#139 = DATE_TIME_ROLE ( 'creation_date' ) ;
#140 = DIRECTION ( 'NONE',  ( 4.814824860968132547E-31, 1.000000000000000000, 1.355252715606892622E-16 ) ) ;
#141 = LINE ( 'NONE', #14, #131 ) ;
#142 = CIRCLE ( 'NONE', #160, 0.4000000000000000222 ) ;
#143 = APPROVAL_PERSON_ORGANIZATION ( #45, #175, #270 ) ;
#144 = DIRECTION ( 'NONE',  ( -3.491481338843133355E-15, 1.224646799147353207E-16, -1.000000000000000000 ) ) ;
#145 = ADVANCED_FACE ( 'NONE', ( #79 ), #251, .T. ) ;
#146 = COORDINATED_UNIVERSAL_TIME_OFFSET ( 1, 0, .AHEAD. ) ;
#147 = FACE_OUTER_BOUND ( 'NONE', #291, .T. ) ;
#148 = DIRECTION ( 'NONE',  ( 0.0000000000000000000, 1.000000000000000000, 0.0000000000000000000 ) ) ;
#149 = CIRCLE ( 'NONE', #323, 0.3999999999999971911 ) ;
#150 = ADVANCED_FACE ( 'NONE', ( #2 ), #97, .T. ) ;
#151 = CARTESIAN_POINT ( 'NONE',  ( 2.444036937190193349E-14, -8.572527594031473190E-16, 7.000000000000000000 ) ) ;
#152 = CARTESIAN_POINT ( 'NONE',  ( 2.444036937190193349E-14, 0.3999999999999963585, 7.000000000000000000 ) ) ;
#153 = CARTESIAN_POINT ( 'NONE',  ( 2.444036937190193349E-14, 0.3999999999999963585, 7.000000000000000000 ) ) ;
#154 =( GEOMETRIC_REPRESENTATION_CONTEXT ( 3 ) GLOBAL_UNCERTAINTY_ASSIGNED_CONTEXT ( ( #51 ) ) GLOBAL_UNIT_ASSIGNED_CONTEXT ( ( #235, #7, #55 ) ) REPRESENTATION_CONTEXT ( 'NONE', 'WORKASPACE' ) );
#155 = LINE ( 'NONE', #49, #27 ) ;
#156 = DESIGN_CONTEXT ( 'detailed design', #208, 'design' ) ;
#157 = CARTESIAN_POINT ( 'NONE',  ( 0.0000000000000000000, 0.0000000000000000000, 0.0000000000000000000 ) ) ;
#158 = APPROVAL_STATUS ( 'not_yet_approved' ) ;
#159 = EDGE_LOOP ( 'NONE', ( #169, #8, #236, #247 ) ) ;
#160 = AXIS2_PLACEMENT_3D ( 'NONE', #18, #41, #148 ) ;
#161 = COORDINATED_UNIVERSAL_TIME_OFFSET ( 1, 0, .AHEAD. ) ;
#162 = ORIENTED_EDGE ( 'NONE', *, *, #185, .T. ) ;
#163 = DATE_AND_TIME ( #6, #23 ) ;
#164 = ORIENTED_EDGE ( 'NONE', *, *, #185, .F. ) ;
#165 = APPROVAL_DATE_TIME ( #268, #123 ) ;
#166 = EDGE_LOOP ( 'NONE', ( #67, #215 ) ) ;
#167 = DIRECTION ( 'NONE',  ( -4.814824860968132547E-31, -1.000000000000000000, -1.355252715606892622E-16 ) ) ;
#168 = ADVANCED_BREP_SHAPE_REPRESENTATION ( '54487', ( #241, #125, #312 ), #154 ) ;
#169 = ORIENTED_EDGE ( 'NONE', *, *, #242, .F. ) ;
#170 = ADVANCED_FACE ( 'NONE', ( #206 ), #101, .T. ) ;
#171 = ORIENTED_EDGE ( 'NONE', *, *, #63, .F. ) ;
#172 = VECTOR ( 'NONE', #306, 1000.000000000000000 ) ;
#173 = FACE_OUTER_BOUND ( 'NONE', #315, .T. ) ;
#174 = ORIENTED_EDGE ( 'NONE', *, *, #117, .T. ) ;
#175 = APPROVAL ( #88, 'UNSPECIFIED' ) ;
#176 = CARTESIAN_POINT ( 'NONE',  ( 0.0000000000000000000, 0.0000000000000000000, 0.0000000000000000000 ) ) ;
#177 = VECTOR ( 'NONE', #255, 1000.000000000000000 ) ;
#178 = PERSON_AND_ORGANIZATION ( #95, #188 ) ;
#179 = CARTESIAN_POINT ( 'NONE',  ( 6.446681657362162810E-14, -0.3999999999999980793, 7.000000000000000000 ) ) ;
#180 = LINE ( 'NONE', #202, #298 ) ;
#181 = CYLINDRICAL_SURFACE ( 'NONE', #57, 0.3999999999999986344 ) ;
#182 = EDGE_CURVE ( 'NONE', #112, #58, #180, .T. ) ;
#183 = VECTOR ( 'NONE', #194, 1000.000000000000000 ) ;
#184 = DIRECTION ( 'NONE',  ( -3.491481338843133355E-15, 1.224646799147353207E-16, -1.000000000000000000 ) ) ;
#185 = EDGE_CURVE ( 'NONE', #65, #289, #46, .T. ) ;
#186 = MECHANICAL_CONTEXT ( 'NONE', #135, 'mechanical' ) ;
#187 = VERTEX_POINT ( 'NONE', #153 ) ;
#188 = ORGANIZATION ( 'UNSPECIFIED', 'UNSPECIFIED', '' ) ;
#189 = EDGE_CURVE ( 'NONE', #187, #137, #149, .T. ) ;
#190 = ORIENTED_EDGE ( 'NONE', *, *, #117, .F. ) ;
#191 = DIRECTION ( 'NONE',  ( -4.814824860968132547E-31, -1.000000000000000000, -1.355252715606892622E-16 ) ) ;
#192 = ORIENTED_EDGE ( 'NONE', *, *, #205, .T. ) ;
#193 = VERTEX_POINT ( 'NONE', #280 ) ;
#194 = DIRECTION ( 'NONE',  ( -3.491481338843133355E-15, 1.224646799147353207E-16, -1.000000000000000000 ) ) ;
#195 = VERTEX_POINT ( 'NONE', #103 ) ;
#196 = DIRECTION ( 'NONE',  ( 0.0000000000000000000, 1.000000000000000000, 0.0000000000000000000 ) ) ;
#197 = LOCAL_TIME ( 9, 48, 24.00000000000000000, #331 ) ;
#198 = DIRECTION ( 'NONE',  ( 4.275831445896958607E-31, 1.000000000000000000, 1.224646799147353207E-16 ) ) ;
#199 = CC_DESIGN_PERSON_AND_ORGANIZATION_ASSIGNMENT ( #111, #285, ( #254 ) ) ;
#200 = DIRECTION ( 'NONE',  ( 0.0000000000000000000, 1.000000000000000000, 0.0000000000000000000 ) ) ;
#201 = PRODUCT_DEFINITION_SHAPE ( 'NONE', 'NONE',  #326 ) ;
#202 = CARTESIAN_POINT ( 'NONE',  ( 8.881433273980793327E-16, 0.3999999999999963585, 0.2403442476110245751 ) ) ;
#203 = VECTOR ( 'NONE', #184, 1000.000000000000000 ) ;
#204 = DIRECTION ( 'NONE',  ( -3.491481338843133355E-15, 1.224646799147353207E-16, -1.000000000000000000 ) ) ;
#205 = EDGE_CURVE ( 'NONE', #195, #244, #232, .T. ) ;
#206 = FACE_OUTER_BOUND ( 'NONE', #159, .T. ) ;
#207 = CARTESIAN_POINT ( 'NONE',  ( 4.898587196589356992E-17, -0.3999999999999968026, -4.898587196589390889E-17 ) ) ;
#208 = APPLICATION_CONTEXT ( 'configuration controlled 3d designs of mechanical parts and assemblies' ) ;
#209 = CONICAL_SURFACE ( 'NONE', #119, 0.3999999999999964140, 1.029744258676649871 ) ;
#210 = APPROVAL_PERSON_ORGANIZATION ( #262, #238, #109 ) ;
#211 = DATE_AND_TIME ( #136, #329 ) ;
#212 = ORIENTED_EDGE ( 'NONE', *, *, #224, .T. ) ;
#213 = ORIENTED_EDGE ( 'NONE', *, *, #205, .F. ) ;
#214 = PERSON_AND_ORGANIZATION ( #95, #188 ) ;
#215 = ORIENTED_EDGE ( 'NONE', *, *, #100, .F. ) ;
#216 = ORIENTED_EDGE ( 'NONE', *, *, #182, .F. ) ;
#217 = VERTEX_POINT ( 'NONE', #179 ) ;
#218 = AXIS2_PLACEMENT_3D ( 'NONE', #92, #113, #198 ) ;
#219 = ORIENTED_EDGE ( 'NONE', *, *, #90, .T. ) ;
#220 = PRODUCT_RELATED_PRODUCT_CATEGORY ( 'detail', '', ( #254 ) ) ;
#221 = CARTESIAN_POINT ( 'NONE',  ( 2.444036937190193349E-14, -8.572527594031473190E-16, 7.000000000000000000 ) ) ;
#222 = CARTESIAN_POINT ( 'NONE',  ( 2.444036937190193349E-14, -8.572527594031473190E-16, 7.000000000000000000 ) ) ;
#223 = APPROVAL_DATE_TIME ( #72, #175 ) ;
#224 = EDGE_CURVE ( 'NONE', #65, #260, #155, .T. ) ;
#225 = CARTESIAN_POINT ( 'NONE',  ( 0.0000000000000000000, 0.0000000000000000000, 0.0000000000000000000 ) ) ;
#226 = DIRECTION ( 'NONE',  ( 4.275831445896958607E-31, 1.000000000000000000, 1.224646799147353207E-16 ) ) ;
#227 = DIRECTION ( 'NONE',  ( -3.491481338843133355E-15, 1.224646799147353207E-16, -1.000000000000000000 ) ) ;
#228 = DIRECTION ( 'NONE',  ( 0.0000000000000000000, 1.000000000000000000, 0.0000000000000000000 ) ) ;
#229 = AXIS2_PLACEMENT_3D ( 'NONE', #222, #301, #196 ) ;
#230 = ADVANCED_FACE ( 'NONE', ( #304 ), #181, .T. ) ;
#231 = AXIS2_PLACEMENT_3D ( 'NONE', #334, #127, #228 ) ;
#232 = LINE ( 'NONE', #309, #177 ) ;
#233 = DIRECTION ( 'NONE',  ( -3.491481338843133355E-15, 1.224646799147353207E-16, -1.000000000000000000 ) ) ;
#234 = CYLINDRICAL_SURFACE ( 'NONE', #239, 0.3999999999999968026 ) ;
#235 =( LENGTH_UNIT ( ) NAMED_UNIT ( * ) SI_UNIT ( .MILLI., .METRE. ) );
#236 = ORIENTED_EDGE ( 'NONE', *, *, #76, .T. ) ;
#237 = PERSON_AND_ORGANIZATION ( #95, #188 ) ;
#238 = APPROVAL ( #158, 'UNSPECIFIED' ) ;
#239 = AXIS2_PLACEMENT_3D ( 'NONE', #279, #204, #310 ) ;
#240 = DIRECTION ( 'NONE',  ( 3.491481338843133355E-15, -1.224646799147353207E-16, 1.000000000000000000 ) ) ;
#241 = MANIFOLD_SOLID_BREP ( 'Corps-Déplacer/Copier1[1]', #316 ) ;
#242 = EDGE_CURVE ( 'NONE', #137, #193, #19, .T. ) ;
#243 = LINE ( 'NONE', #116, #183 ) ;
#244 = VERTEX_POINT ( 'NONE', #152 ) ;
#245 = EDGE_LOOP ( 'NONE', ( #174, #70, #56, #213 ) ) ;
#246 = CC_DESIGN_PERSON_AND_ORGANIZATION_ASSIGNMENT ( #237, #82, ( #293 ) ) ;
#247 = ORIENTED_EDGE ( 'NONE', *, *, #43, .F. ) ;
#248 = SHAPE_DEFINITION_REPRESENTATION ( #201, #168 ) ;
#249 = EDGE_LOOP ( 'NONE', ( #32, #297, #11 ) ) ;
#250 = AXIS2_PLACEMENT_3D ( 'NONE', #130, #227, #75 ) ;
#251 = CONICAL_SURFACE ( 'NONE', #84, 0.3000000000000000444, 0.7853981633974512766 ) ;
#252 = DIRECTION ( 'NONE',  ( 4.275831445896958607E-31, 1.000000000000000000, 1.224646799147353207E-16 ) ) ;
#253 = CARTESIAN_POINT ( 'NONE',  ( 1.047444401652940007E-13, 0.2999999999999963252, 30.00000000000000000 ) ) ;
#254 = PRODUCT ( '54487', '54487', '', ( #186 ) ) ;
#255 = DIRECTION ( 'NONE',  ( -3.491481338843133355E-15, 1.224646799147353207E-16, -1.000000000000000000 ) ) ;
#256 = CC_DESIGN_APPROVAL ( #123, ( #293 ) ) ;
#257 = CARTESIAN_POINT ( 'NONE',  ( 1.047444401652940007E-13, -3.673940397442059178E-15, 30.00000000000000000 ) ) ;
#258 = FACE_OUTER_BOUND ( 'NONE', #35, .T. ) ;
#259 = CARTESIAN_POINT ( 'NONE',  ( 2.444036937190193349E-14, 2.999519565323681004E-33, 7.000000000000000000 ) ) ;
#260 = VERTEX_POINT ( 'NONE', #122 ) ;
#261 = CIRCLE ( 'NONE', #22, 0.3999999999999964140 ) ;
#262 = PERSON_AND_ORGANIZATION ( #95, #188 ) ;
#263 = ORIENTED_EDGE ( 'NONE', *, *, #86, .F. ) ;
#264 = APPROVAL_DATE_TIME ( #163, #238 ) ;
#265 = EDGE_CURVE ( 'NONE', #244, #217, #317, .T. ) ;
#266 = APPLICATION_PROTOCOL_DEFINITION ( 'international standard', 'config_control_design', 1994, #208 ) ;
#267 = CIRCLE ( 'NONE', #282, 0.3999999999999971911 ) ;
#268 = DATE_AND_TIME ( #31, #5 ) ;
#269 = ORIENTED_EDGE ( 'NONE', *, *, #90, .F. ) ;
#270 = APPROVAL_ROLE ( '' ) ;
#271 = DIRECTION ( 'NONE',  ( -3.491481338843133355E-15, 1.224646799147353207E-16, -1.000000000000000000 ) ) ;
#272 = DIRECTION ( 'NONE',  ( 3.491481338843133355E-15, -1.224646799147353207E-16, 1.000000000000000000 ) ) ;
#273 = ORIENTED_EDGE ( 'NONE', *, *, #224, .F. ) ;
#274 = ORIENTED_EDGE ( 'NONE', *, *, #292, .T. ) ;
#275 = CARTESIAN_POINT ( 'NONE',  ( 8.881433273980793327E-16, 0.3999999999999963585, 0.2403442476110245751 ) ) ;
#276 = DIRECTION ( 'NONE',  ( -3.491481338843133355E-15, 1.224646799147353207E-16, -1.000000000000000000 ) ) ;
#277 = AXIS2_PLACEMENT_3D ( 'NONE', #121, #271, #327 ) ;
#278 = VECTOR ( 'NONE', #124, 1000.000000000000000 ) ;
#279 = CARTESIAN_POINT ( 'NONE',  ( 0.0000000000000000000, 0.0000000000000000000, 0.0000000000000000000 ) ) ;
#280 = CARTESIAN_POINT ( 'NONE',  ( 8.391574554321852143E-16, -0.3999999999999964140, 0.2403442476110244641 ) ) ;
#281 = DIRECTION ( 'NONE',  ( -3.491481338843133355E-15, 1.224646799147353207E-16, -1.000000000000000000 ) ) ;
#282 = AXIS2_PLACEMENT_3D ( 'NONE', #221, #144, #15 ) ;
#283 = APPROVAL_PERSON_ORGANIZATION ( #214, #123, #104 ) ;
#284 = DIRECTION ( 'NONE',  ( 4.275831445896958607E-31, 1.000000000000000000, 1.224646799147353207E-16 ) ) ;
#285 = PERSON_AND_ORGANIZATION_ROLE ( 'design_owner' ) ;
#286 = ORIENTED_EDGE ( 'NONE', *, *, #63, .T. ) ;
#287 = EDGE_CURVE ( 'NONE', #260, #217, #52, .T. ) ;
#288 = COORDINATED_UNIVERSAL_TIME_OFFSET ( 1, 0, .AHEAD. ) ;
#289 = VERTEX_POINT ( 'NONE', #253 ) ;
#290 = DIRECTION ( 'NONE',  ( -4.275831445896958607E-31, -1.000000000000000000, -1.224646799147353207E-16 ) ) ;
#291 = EDGE_LOOP ( 'NONE', ( #62, #286, #192, #269 ) ) ;
#292 = EDGE_CURVE ( 'NONE', #112, #193, #20, .T. ) ;
#293 = PRODUCT_DEFINITION_FORMATION_WITH_SPECIFIED_SOURCE ( 'ANY', '', #254, .NOT_KNOWN. ) ;
#294 = CONICAL_SURFACE ( 'NONE', #138, 0.3999999999999964140, 1.029744258676649871 ) ;
#295 = ORIENTED_EDGE ( 'NONE', *, *, #189, .T. ) ;
#296 = DIRECTION ( 'NONE',  ( 4.814824860968132547E-31, 1.000000000000000000, 1.355252715606892622E-16 ) ) ;
#297 = ORIENTED_EDGE ( 'NONE', *, *, #182, .T. ) ;
#298 = VECTOR ( 'NONE', #54, 1000.000000000000114 ) ;
#299 = ADVANCED_FACE ( 'NONE', ( #335 ), #132, .F. ) ;
#300 = AXIS2_PLACEMENT_3D ( 'NONE', #318, #3, #81 ) ;
#301 = DIRECTION ( 'NONE',  ( -3.491481338843133355E-15, 1.224646799147353207E-16, -1.000000000000000000 ) ) ;
#302 = CALENDAR_DATE ( 2021, 3, 9 ) ;
#303 = FACE_OUTER_BOUND ( 'NONE', #71, .T. ) ;
#304 = FACE_OUTER_BOUND ( 'NONE', #245, .T. ) ;
#305 = EDGE_CURVE ( 'NONE', #289, #65, #114, .T. ) ;
#306 = DIRECTION ( 'NONE',  ( -3.491481338843133355E-15, 1.224646799147353207E-16, -1.000000000000000000 ) ) ;
#307 = DIRECTION ( 'NONE',  ( 3.491481338843133355E-15, -1.224646799147353207E-16, 1.000000000000000000 ) ) ;
#308 = CC_DESIGN_DATE_AND_TIME_ASSIGNMENT ( #211, #139, ( #326 ) ) ;
#309 = CARTESIAN_POINT ( 'NONE',  ( 1.710332578358777575E-31, 0.3999999999999986344, 4.898587196589395819E-17 ) ) ;
#310 = DIRECTION ( 'NONE',  ( 4.275831445896958607E-31, 1.000000000000000000, 1.224646799147353207E-16 ) ) ;
#311 = CONICAL_SURFACE ( 'NONE', #277, 0.3000000000000000444, 0.7853981633974512766 ) ;
#312 = AXIS2_PLACEMENT_3D ( 'NONE', #60, #9, #83 ) ;
#313 = PERSON_AND_ORGANIZATION ( #95, #188 ) ;
#314 = PERSON_AND_ORGANIZATION_ROLE ( 'creator' ) ;
#315 = EDGE_LOOP ( 'NONE', ( #108, #212, #190, #263 ) ) ;
#316 = CLOSED_SHELL ( 'NONE', ( #26, #230, #299, #50, #145, #39 ) ) ;
#317 = CIRCLE ( 'NONE', #231, 0.3999999999999971911 ) ;
#318 = CARTESIAN_POINT ( 'NONE',  ( 1.047444401652940007E-13, -3.673940397442059178E-15, 30.00000000000000000 ) ) ;
#319 = PERSON_AND_ORGANIZATION ( #95, #188 ) ;
#320 = ADVANCED_FACE ( 'NONE', ( #107 ), #294, .T. ) ;
#321 = DATE_TIME_ROLE ( 'classification_date' ) ;
#322 = ORIENTED_EDGE ( 'NONE', *, *, #265, .T. ) ;
#323 = AXIS2_PLACEMENT_3D ( 'NONE', #151, #233, #200 ) ;
#324 = FACE_OUTER_BOUND ( 'NONE', #332, .T. ) ;
#325 = ORIENTED_EDGE ( 'NONE', *, *, #43, .T. ) ;
#326 = PRODUCT_DEFINITION ( 'UNKNOWN', '', #293, #156 ) ;
#327 = DIRECTION ( 'NONE',  ( 0.0000000000000000000, 1.000000000000000000, 0.0000000000000000000 ) ) ;
#328 = AXIS2_PLACEMENT_3D ( 'NONE', #74, #78, #47 ) ;
#329 = LOCAL_TIME ( 9, 48, 24.00000000000000000, #37 ) ;
#330 = ORIENTED_EDGE ( 'NONE', *, *, #242, .T. ) ;
#331 = COORDINATED_UNIVERSAL_TIME_OFFSET ( 1, 0, .AHEAD. ) ;
#332 = EDGE_LOOP ( 'NONE', ( #216, #274, #325 ) ) ;
#333 = PERSON_AND_ORGANIZATION_ROLE ( 'classification_officer' ) ;
#334 = CARTESIAN_POINT ( 'NONE',  ( 2.444036937190193349E-14, -8.572527594031473190E-16, 7.000000000000000000 ) ) ;
#335 = FACE_OUTER_BOUND ( 'NONE', #85, .T. ) ;
#336 = CC_DESIGN_APPROVAL ( #238, ( #326 ) ) ;
#337 = CARTESIAN_POINT ( 'NONE',  ( 8.391574554321852143E-16, -0.3999999999999964140, 0.2403442476110244641 ) ) ;
ENDSEC;
END-ISO-10303-21;
