ISO-10303-21;
HEADER;
FILE_DESCRIPTION (( 'STEP AP203' ),
    '1' );
FILE_NAME ('54485.step',
    '2021-09-03T07:48:22',
    ( '' ),
    ( '' ),
    'SwSTEP 2.0',
    'SolidWorks 2019',
    '' );
FILE_SCHEMA (( 'CONFIG_CONTROL_DESIGN' ));
ENDSEC;

DATA;
#1 = CARTESIAN_POINT ( 'NONE',  ( 0.0000000000000000000, 0.0000000000000000000, 0.0000000000000000000 ) ) ;
#2 = CARTESIAN_POINT ( 'NONE',  ( 1.091372332873124302E-14, -0.3749999999999978351, 6.000000000000000000 ) ) ;
#3 = ADVANCED_FACE ( 'NONE', ( #93 ), #222, .F. ) ;
#4 = MANIFOLD_SOLID_BREP ( 'Corps-Déplacer/Copier1[1]', #122 ) ;
#5 = DIRECTION ( 'NONE',  ( -5.135813185032678571E-31, -1.000000000000000000, -1.445602896647353215E-16 ) ) ;
#6 = DESIGN_CONTEXT ( 'detailed design', #154, 'design' ) ;
#7 = APPLICATION_PROTOCOL_DEFINITION ( 'international standard', 'config_control_design', 1994, #102 ) ;
#8 = ORIENTED_EDGE ( 'NONE', *, *, #191, .F. ) ;
#9 = AXIS2_PLACEMENT_3D ( 'NONE', #206, #149, #105 ) ;
#10 = APPLICATION_PROTOCOL_DEFINITION ( 'international standard', 'config_control_design', 1994, #154 ) ;
#11 = MANIFOLD_SOLID_BREP ( 'Corps-Déplacer/Copier1[2]', #17 ) ;
#12 = CC_DESIGN_APPROVAL ( #203, ( #207 ) ) ;
#13 = CARTESIAN_POINT ( 'NONE',  ( 2.094888803305880013E-14, -7.347880794884119736E-16, 6.000000000000000000 ) ) ;
#14 = EDGE_CURVE ( 'NONE', #223, #325, #125, .T. ) ;
#15 = CALENDAR_DATE ( 2021, 3, 9 ) ;
#16 = VERTEX_POINT ( 'NONE', #252 ) ;
#17 = CLOSED_SHELL ( 'NONE', ( #120, #148, #29, #197, #163 ) ) ;
#18 =( NAMED_UNIT ( * ) SI_UNIT ( $, .STERADIAN. ) SOLID_ANGLE_UNIT ( ) );
#19 = ORIENTED_EDGE ( 'NONE', *, *, #130, .T. ) ;
#20 = LINE ( 'NONE', #199, #33 ) ;
#21 = CONICAL_SURFACE ( 'NONE', #216, 0.3749999999999963918, 1.029744258676649649 ) ;
#22 = VERTEX_POINT ( 'NONE', #27 ) ;
#23 = PERSON_AND_ORGANIZATION_ROLE ( 'classification_officer' ) ;
#24 = DIRECTION ( 'NONE',  ( -4.275831445896958607E-31, -1.000000000000000000, -1.224646799147353207E-16 ) ) ;
#25 = LOCAL_TIME ( 9, 48, 22.00000000000000000, #169 ) ;
#26 = EDGE_CURVE ( 'NONE', #331, #290, #20, .T. ) ;
#27 = CARTESIAN_POINT ( 'NONE',  ( 1.046096671193241216E-13, -0.2750000000000036859, 30.00000000000000000 ) ) ;
#28 = LINE ( 'NONE', #259, #56 ) ;
#29 = ADVANCED_FACE ( 'NONE', ( #327 ), #21, .T. ) ;
#30 = CARTESIAN_POINT ( 'NONE',  ( 1.047444401652940007E-13, -3.673940397442059178E-15, 30.00000000000000000 ) ) ;
#31 = FACE_OUTER_BOUND ( 'NONE', #123, .T. ) ;
#32 = PLANE ( 'NONE',  #243 ) ;
#33 = VECTOR ( 'NONE', #43, 1000.000000000000000 ) ;
#34 = DIRECTION ( 'NONE',  ( 1.903218546456022717E-15, 0.8571673007021097801, 0.5150380749100585964 ) ) ;
#35 = EDGE_CURVE ( 'NONE', #321, #16, #113, .T. ) ;
#36 = APPROVAL_PERSON_ORGANIZATION ( #160, #203, #318 ) ;
#37 = ORIENTED_EDGE ( 'NONE', *, *, #14, .T. ) ;
#38 =( NAMED_UNIT ( * ) PLANE_ANGLE_UNIT ( ) SI_UNIT ( $, .RADIAN. ) );
#39 = CARTESIAN_POINT ( 'NONE',  ( 2.094888803305880013E-14, 0.3749999999999963363, 6.000000000000000000 ) ) ;
#40 = DIRECTION ( 'NONE',  ( 5.135813185032678571E-31, 1.000000000000000000, 1.445602896647353215E-16 ) ) ;
#41 = ORIENTED_EDGE ( 'NONE', *, *, #326, .T. ) ;
#42 = ORIENTED_EDGE ( 'NONE', *, *, #176, .T. ) ;
#43 = DIRECTION ( 'NONE',  ( -3.491481338843133355E-15, 1.224646799147353207E-16, -1.000000000000000000 ) ) ;
#44 = FACE_OUTER_BOUND ( 'NONE', #94, .T. ) ;
#45 = DIRECTION ( 'NONE',  ( -5.135813185032678571E-31, -1.000000000000000000, -1.445602896647353215E-16 ) ) ;
#46 = DIRECTION ( 'NONE',  ( -3.491481338843133355E-15, 1.224646799147353207E-16, -1.000000000000000000 ) ) ;
#47 = EDGE_CURVE ( 'NONE', #335, #68, #81, .T. ) ;
#48 = DIRECTION ( 'NONE',  ( 0.0000000000000000000, 1.000000000000000000, 0.0000000000000000000 ) ) ;
#49 = CARTESIAN_POINT ( 'NONE',  ( 1.047444401652940007E-13, -3.673940397442059178E-15, 30.00000000000000000 ) ) ;
#50 = DIRECTION ( 'NONE',  ( -3.491481338843133355E-15, 1.224646799147353207E-16, -1.000000000000000000 ) ) ;
#51 = CARTESIAN_POINT ( 'NONE',  ( 1.047444401652940007E-13, 0.2749999999999963030, 30.00000000000000000 ) ) ;
#52 = ADVANCED_FACE ( 'NONE', ( #44 ), #131, .T. ) ;
#53 = DIRECTION ( 'NONE',  ( 0.0000000000000000000, 0.0000000000000000000, 1.000000000000000000 ) ) ;
#54 = APPROVAL_STATUS ( 'not_yet_approved' ) ;
#55 = ORIENTED_EDGE ( 'NONE', *, *, #209, .F. ) ;
#56 = VECTOR ( 'NONE', #34, 999.9999999999998863 ) ;
#57 = COORDINATED_UNIVERSAL_TIME_OFFSET ( 1, 0, .AHEAD. ) ;
#58 =( GEOMETRIC_REPRESENTATION_CONTEXT ( 3 ) GLOBAL_UNCERTAINTY_ASSIGNED_CONTEXT ( ( #262 ) ) GLOBAL_UNIT_ASSIGNED_CONTEXT ( ( #138, #38, #18 ) ) REPRESENTATION_CONTEXT ( 'NONE', 'WORKASPACE' ) );
#59 = DIRECTION ( 'NONE',  ( -3.491481338843133355E-15, 1.224646799147353207E-16, -1.000000000000000000 ) ) ;
#60 = APPROVAL ( #54, 'UNSPECIFIED' ) ;
#61 = PERSON_AND_ORGANIZATION ( #313, #225 ) ;
#62 = AXIS2_PLACEMENT_3D ( 'NONE', #1, #101, #210 ) ;
#63 = DIRECTION ( 'NONE',  ( -3.491481338843133355E-15, 1.224646799147353207E-16, -1.000000000000000000 ) ) ;
#64 = CARTESIAN_POINT ( 'NONE',  ( 2.094888803305880013E-14, 2.812049592490948803E-33, 6.000000000000000000 ) ) ;
#65 = ADVANCED_FACE ( 'NONE', ( #87 ), #173, .T. ) ;
#66 = SHAPE_DEFINITION_REPRESENTATION ( #311, #118 ) ;
#67 = DIRECTION ( 'NONE',  ( 0.0000000000000000000, 1.000000000000000000, 0.0000000000000000000 ) ) ;
#68 = VERTEX_POINT ( 'NONE', #142 ) ;
#69 = DIRECTION ( 'NONE',  ( -3.491481338843133355E-15, 1.224646799147353207E-16, -1.000000000000000000 ) ) ;
#70 = CC_DESIGN_PERSON_AND_ORGANIZATION_ASSIGNMENT ( #91, #23, ( #117 ) ) ;
#71 = CARTESIAN_POINT ( 'NONE',  ( 2.094888803305880013E-14, -7.347880794884119736E-16, 6.000000000000000000 ) ) ;
#72 = LINE ( 'NONE', #182, #246 ) ;
#73 = DIRECTION ( 'NONE',  ( -3.491481338843133355E-15, 1.224646799147353207E-16, -1.000000000000000000 ) ) ;
#74 = LOCAL_TIME ( 9, 48, 22.00000000000000000, #135 ) ;
#75 = DIRECTION ( 'NONE',  ( -4.275831445896958607E-31, -1.000000000000000000, -1.224646799147353207E-16 ) ) ;
#76 = DIRECTION ( 'NONE',  ( 3.491481338843133355E-15, -1.224646799147353207E-16, 1.000000000000000000 ) ) ;
#77 = CIRCLE ( 'NONE', #181, 0.2750000000000000222 ) ;
#78 = ADVANCED_FACE ( 'NONE', ( #245 ), #193, .F. ) ;
#79 = APPROVAL_DATE_TIME ( #316, #60 ) ;
#80 = COORDINATED_UNIVERSAL_TIME_OFFSET ( 1, 0, .AHEAD. ) ;
#81 = CIRCLE ( 'NONE', #150, 0.3749999999999970579 ) ;
#82 = DIRECTION ( 'NONE',  ( -3.491481338843133355E-15, 1.224646799147353207E-16, -1.000000000000000000 ) ) ;
#83 = ORIENTED_EDGE ( 'NONE', *, *, #293, .F. ) ;
#84 = DIRECTION ( 'NONE',  ( -3.491481338843133355E-15, 1.224646799147353207E-16, -1.000000000000000000 ) ) ;
#85 = ADVANCED_FACE ( 'NONE', ( #132 ), #336, .T. ) ;
#86 = ORIENTED_EDGE ( 'NONE', *, *, #14, .F. ) ;
#87 = FACE_OUTER_BOUND ( 'NONE', #196, .T. ) ;
#88 = AXIS2_PLACEMENT_3D ( 'NONE', #297, #63, #170 ) ;
#89 = DIRECTION ( 'NONE',  ( 3.491481338843133355E-15, -1.224646799147353207E-16, 1.000000000000000000 ) ) ;
#90 = PRODUCT_RELATED_PRODUCT_CATEGORY ( 'detail', '', ( #97 ) ) ;
#91 = PERSON_AND_ORGANIZATION ( #313, #225 ) ;
#92 = VECTOR ( 'NONE', #82, 1000.000000000000000 ) ;
#93 = FACE_OUTER_BOUND ( 'NONE', #247, .T. ) ;
#94 = EDGE_LOOP ( 'NONE', ( #215, #42, #221, #108 ) ) ;
#95 = EDGE_CURVE ( 'NONE', #330, #290, #28, .T. ) ;
#96 = DIRECTION ( 'NONE',  ( -3.491481338843133355E-15, 1.224646799147353207E-16, -1.000000000000000000 ) ) ;
#97 = PRODUCT ( '54485', '54485', '', ( #237 ) ) ;
#98 = DIRECTION ( 'NONE',  ( 0.0000000000000000000, 1.000000000000000000, 0.0000000000000000000 ) ) ;
#99 = CARTESIAN_POINT ( 'NONE',  ( 7.867101144676733056E-16, -0.3749999999999964473, 0.2253227321353353518 ) ) ;
#100 = VECTOR ( 'NONE', #156, 1000.000000000000114 ) ;
#101 = DIRECTION ( 'NONE',  ( -3.491481338843133355E-15, 1.224646799147353207E-16, -1.000000000000000000 ) ) ;
#102 = APPLICATION_CONTEXT ( 'configuration controlled 3d designs of mechanical parts and assemblies' ) ;
#103 = CC_DESIGN_PERSON_AND_ORGANIZATION_ASSIGNMENT ( #133, #211, ( #97 ) ) ;
#104 = FACE_OUTER_BOUND ( 'NONE', #329, .T. ) ;
#105 = DIRECTION ( 'NONE',  ( 0.0000000000000000000, 1.000000000000000000, 0.0000000000000000000 ) ) ;
#106 = EDGE_CURVE ( 'NONE', #325, #290, #291, .T. ) ;
#107 = CIRCLE ( 'NONE', #296, 0.3750000000000000000 ) ;
#108 = ORIENTED_EDGE ( 'NONE', *, *, #130, .F. ) ;
#109 = LOCAL_TIME ( 9, 48, 22.00000000000000000, #80 ) ;
#110 = DIRECTION ( 'NONE',  ( -3.491481338843133355E-15, 1.224646799147353207E-16, -1.000000000000000000 ) ) ;
#111 = DIRECTION ( 'NONE',  ( 0.0000000000000000000, 1.000000000000000000, 0.0000000000000000000 ) ) ;
#112 = ORIENTED_EDGE ( 'NONE', *, *, #114, .F. ) ;
#113 = CIRCLE ( 'NONE', #304, 0.3750000000000000000 ) ;
#114 = EDGE_CURVE ( 'NONE', #248, #22, #77, .T. ) ;
#115 = CALENDAR_DATE ( 2021, 3, 9 ) ;
#116 = ORIENTED_EDGE ( 'NONE', *, *, #298, .F. ) ;
#117 = SECURITY_CLASSIFICATION ( '', '', #299 ) ;
#118 = ADVANCED_BREP_SHAPE_REPRESENTATION ( '54485', ( #4, #11, #178 ), #58 ) ;
#119 = ORIENTED_EDGE ( 'NONE', *, *, #209, .T. ) ;
#120 = ADVANCED_FACE ( 'NONE', ( #310 ), #281, .T. ) ;
#121 = DIRECTION ( 'NONE',  ( 3.491481338843133355E-15, -1.224646799147353207E-16, 1.000000000000000000 ) ) ;
#122 = CLOSED_SHELL ( 'NONE', ( #52, #85, #3, #65, #274, #78 ) ) ;
#123 = EDGE_LOOP ( 'NONE', ( #55, #288 ) ) ;
#124 = COORDINATED_UNIVERSAL_TIME_OFFSET ( 1, 0, .AHEAD. ) ;
#125 = LINE ( 'NONE', #194, #285 ) ;
#126 = CARTESIAN_POINT ( 'NONE',  ( 7.867101144676735028E-16, -2.759407626846749709E-17, 0.2253227321353354073 ) ) ;
#127 = DIRECTION ( 'NONE',  ( 5.135813185032678571E-31, 1.000000000000000000, 1.445602896647353215E-16 ) ) ;
#128 = DIRECTION ( 'NONE',  ( 0.0000000000000000000, 1.000000000000000000, 0.0000000000000000000 ) ) ;
#129 = DIRECTION ( 'NONE',  ( 0.0000000000000000000, 1.000000000000000000, 0.0000000000000000000 ) ) ;
#130 = EDGE_CURVE ( 'NONE', #248, #321, #155, .T. ) ;
#131 = CONICAL_SURFACE ( 'NONE', #186, 0.2750000000000000222, 0.7853981633974512766 ) ;
#132 = FACE_OUTER_BOUND ( 'NONE', #139, .T. ) ;
#133 = PERSON_AND_ORGANIZATION ( #313, #225 ) ;
#134 = ORIENTED_EDGE ( 'NONE', *, *, #26, .F. ) ;
#135 = COORDINATED_UNIVERSAL_TIME_OFFSET ( 1, 0, .AHEAD. ) ;
#136 = PERSON_AND_ORGANIZATION ( #313, #225 ) ;
#137 = EDGE_LOOP ( 'NONE', ( #86, #145, #317, #244 ) ) ;
#138 =( LENGTH_UNIT ( ) NAMED_UNIT ( * ) SI_UNIT ( .MILLI., .METRE. ) );
#139 = EDGE_LOOP ( 'NONE', ( #227, #295, #174, #305 ) ) ;
#140 = CONICAL_SURFACE ( 'NONE', #257, 0.2750000000000000222, 0.7853981633974512766 ) ;
#141 = CONICAL_SURFACE ( 'NONE', #334, 0.3749999999999963918, 1.029744258676649649 ) ;
#142 = CARTESIAN_POINT ( 'NONE',  ( 6.271801428720218106E-14, -0.3749999999999978351, 6.000000000000000000 ) ) ;
#143 = ORIENTED_EDGE ( 'NONE', *, *, #253, .T. ) ;
#144 = CARTESIAN_POINT ( 'NONE',  ( 2.094888803305880013E-14, -7.347880794884119736E-16, 6.000000000000000000 ) ) ;
#145 = ORIENTED_EDGE ( 'NONE', *, *, #260, .T. ) ;
#146 = CIRCLE ( 'NONE', #282, 0.3749999999999970579 ) ;
#147 = DIRECTION ( 'NONE',  ( 0.0000000000000000000, 1.000000000000000000, 0.0000000000000000000 ) ) ;
#148 = ADVANCED_FACE ( 'NONE', ( #104 ), #141, .T. ) ;
#149 = DIRECTION ( 'NONE',  ( -3.491481338843133355E-15, 1.224646799147353207E-16, -1.000000000000000000 ) ) ;
#150 = AXIS2_PLACEMENT_3D ( 'NONE', #144, #229, #67 ) ;
#151 = CARTESIAN_POINT ( 'NONE',  ( 1.047781179522705522E-13, -0.2750000000000036859, 30.00000000000000000 ) ) ;
#152 = DIRECTION ( 'NONE',  ( 3.491481338843133355E-15, -1.224646799147353207E-16, 1.000000000000000000 ) ) ;
#153 = APPROVAL_PERSON_ORGANIZATION ( #61, #287, #228 ) ;
#154 = APPLICATION_CONTEXT ( 'configuration controlled 3d designs of mechanical parts and assemblies' ) ;
#155 = LINE ( 'NONE', #51, #100 ) ;
#156 = DIRECTION ( 'NONE',  ( -2.468850131082257455E-15, 0.7071067811865497932, -0.7071067811865453523 ) ) ;
#157 = CC_DESIGN_PERSON_AND_ORGANIZATION_ASSIGNMENT ( #195, #172, ( #207 ) ) ;
#158 = LINE ( 'NONE', #165, #92 ) ;
#159 = CARTESIAN_POINT ( 'NONE',  ( 0.0000000000000000000, 0.0000000000000000000, 0.0000000000000000000 ) ) ;
#160 = PERSON_AND_ORGANIZATION ( #313, #225 ) ;
#161 = AXIS2_PLACEMENT_3D ( 'NONE', #283, #234, #187 ) ;
#162 = DATE_AND_TIME ( #15, #109 ) ;
#163 = ADVANCED_FACE ( 'NONE', ( #31 ), #32, .T. ) ;
#164 = ORIENTED_EDGE ( 'NONE', *, *, #176, .F. ) ;
#165 = CARTESIAN_POINT ( 'NONE',  ( 1.603436792211353128E-31, 0.3749999999999985567, 4.592425496802556346E-17 ) ) ;
#166 = APPROVAL_DATE_TIME ( #294, #287 ) ;
#167 = CIRCLE ( 'NONE', #255, 0.3749999999999970579 ) ;
#168 = CC_DESIGN_DATE_AND_TIME_ASSIGNMENT ( #239, #289, ( #270 ) ) ;
#169 = COORDINATED_UNIVERSAL_TIME_OFFSET ( 1, 0, .AHEAD. ) ;
#170 = DIRECTION ( 'NONE',  ( 4.275831445896958607E-31, 1.000000000000000000, 1.224646799147353207E-16 ) ) ;
#171 = AXIS2_PLACEMENT_3D ( 'NONE', #214, #84, #40 ) ;
#172 = PERSON_AND_ORGANIZATION_ROLE ( 'design_supplier' ) ;
#173 = CYLINDRICAL_SURFACE ( 'NONE', #175, 0.3749999999999985567 ) ;
#174 = ORIENTED_EDGE ( 'NONE', *, *, #47, .F. ) ;
#175 = AXIS2_PLACEMENT_3D ( 'NONE', #306, #69, #279 ) ;
#176 = EDGE_CURVE ( 'NONE', #22, #16, #185, .T. ) ;
#177 = CARTESIAN_POINT ( 'NONE',  ( 1.043952920314096810E-13, -3.661693929450586610E-15, 29.89999999999999858 ) ) ;
#178 = AXIS2_PLACEMENT_3D ( 'NONE', #236, #53, #241 ) ;
#179 = DIRECTION ( 'NONE',  ( -3.491481338843133355E-15, 1.224646799147353207E-16, -1.000000000000000000 ) ) ;
#180 = DIRECTION ( 'NONE',  ( 4.275831445896958607E-31, 1.000000000000000000, 1.224646799147353207E-16 ) ) ;
#181 = AXIS2_PLACEMENT_3D ( 'NONE', #49, #50, #129 ) ;
#182 = CARTESIAN_POINT ( 'NONE',  ( 4.592425496802540939E-17, -0.3749999999999985567, -4.592425496802572370E-17 ) ) ;
#183 = DIRECTION ( 'NONE',  ( -3.491481338843133355E-15, 1.224646799147353207E-16, -1.000000000000000000 ) ) ;
#184 = CC_DESIGN_SECURITY_CLASSIFICATION ( #117, ( #207 ) ) ;
#185 = LINE ( 'NONE', #151, #230 ) ;
#186 = AXIS2_PLACEMENT_3D ( 'NONE', #277, #96, #200 ) ;
#187 = DIRECTION ( 'NONE',  ( 4.275831445896957731E-31, 1.000000000000000000, 1.224646799147352961E-16 ) ) ;
#188 = EDGE_LOOP ( 'NONE', ( #164, #266, #19, #269 ) ) ;
#189 = PERSON_AND_ORGANIZATION_ROLE ( 'creator' ) ;
#190 = EDGE_LOOP ( 'NONE', ( #112, #8 ) ) ;
#191 = EDGE_CURVE ( 'NONE', #22, #248, #271, .T. ) ;
#192 = ORIENTED_EDGE ( 'NONE', *, *, #47, .T. ) ;
#193 = PLANE ( 'NONE',  #88 ) ;
#194 = CARTESIAN_POINT ( 'NONE',  ( 4.592425496802519368E-17, -0.3749999999999967804, -4.592425496802550799E-17 ) ) ;
#195 = PERSON_AND_ORGANIZATION ( #313, #225 ) ;
#196 = EDGE_LOOP ( 'NONE', ( #116, #143, #41, #292 ) ) ;
#197 = ADVANCED_FACE ( 'NONE', ( #258 ), #233, .T. ) ;
#198 = APPROVAL_STATUS ( 'not_yet_approved' ) ;
#199 = CARTESIAN_POINT ( 'NONE',  ( 1.603436792211345683E-31, 0.3749999999999967804, 4.592425496802534776E-17 ) ) ;
#200 = DIRECTION ( 'NONE',  ( 0.0000000000000000000, 1.000000000000000000, 0.0000000000000000000 ) ) ;
#201 = CC_DESIGN_APPROVAL ( #60, ( #270 ) ) ;
#202 = CARTESIAN_POINT ( 'NONE',  ( 1.043952920314096810E-13, -3.661693929450586610E-15, 29.89999999999999858 ) ) ;
#203 = APPROVAL ( #323, 'UNSPECIFIED' ) ;
#204 = CARTESIAN_POINT ( 'NONE',  ( 1.047444401652940007E-13, 0.2749999999999963030, 30.00000000000000000 ) ) ;
#205 = AXIS2_PLACEMENT_3D ( 'NONE', #64, #89, #24 ) ;
#206 = CARTESIAN_POINT ( 'NONE',  ( 1.047444401652940007E-13, -3.673940397442059178E-15, 30.00000000000000000 ) ) ;
#207 = PRODUCT_DEFINITION_FORMATION_WITH_SPECIFIED_SOURCE ( 'ANY', '', #97, .NOT_KNOWN. ) ;
#208 = CARTESIAN_POINT ( 'NONE',  ( 7.867101144676735028E-16, -2.759407626846749709E-17, 0.2253227321353354073 ) ) ;
#209 = EDGE_CURVE ( 'NONE', #331, #223, #167, .T. ) ;
#210 = DIRECTION ( 'NONE',  ( 4.275831445896958607E-31, 1.000000000000000000, 1.224646799147353207E-16 ) ) ;
#211 = PERSON_AND_ORGANIZATION_ROLE ( 'design_owner' ) ;
#212 = CC_DESIGN_APPROVAL ( #287, ( #117 ) ) ;
#213 = CC_DESIGN_DATE_AND_TIME_ASSIGNMENT ( #275, #226, ( #117 ) ) ;
#214 = CARTESIAN_POINT ( 'NONE',  ( 7.867101144676735028E-16, -2.759407626846749709E-17, 0.2253227321353354073 ) ) ;
#215 = ORIENTED_EDGE ( 'NONE', *, *, #114, .T. ) ;
#216 = AXIS2_PLACEMENT_3D ( 'NONE', #126, #121, #45 ) ;
#217 = CARTESIAN_POINT ( 'NONE',  ( 1.043952920314096810E-13, 0.3749999999999963363, 29.89999999999999858 ) ) ;
#218 = ORIENTED_EDGE ( 'NONE', *, *, #293, .T. ) ;
#219 = CC_DESIGN_PERSON_AND_ORGANIZATION_ASSIGNMENT ( #136, #320, ( #207 ) ) ;
#220 = CALENDAR_DATE ( 2021, 3, 9 ) ;
#221 = ORIENTED_EDGE ( 'NONE', *, *, #35, .F. ) ;
#222 = PLANE ( 'NONE',  #205 ) ;
#223 = VERTEX_POINT ( 'NONE', #2 ) ;
#224 = EDGE_LOOP ( 'NONE', ( #276, #218, #303 ) ) ;
#225 = ORGANIZATION ( 'UNSPECIFIED', 'UNSPECIFIED', '' ) ;
#226 = DATE_TIME_ROLE ( 'classification_date' ) ;
#227 = ORIENTED_EDGE ( 'NONE', *, *, #35, .T. ) ;
#228 = APPROVAL_ROLE ( '' ) ;
#229 = DIRECTION ( 'NONE',  ( -3.491481338843133355E-15, 1.224646799147353207E-16, -1.000000000000000000 ) ) ;
#230 = VECTOR ( 'NONE', #312, 1000.000000000000114 ) ;
#231 = CARTESIAN_POINT ( 'NONE',  ( 7.867101144676735028E-16, -2.759407626846749709E-17, 0.2253227321353354073 ) ) ;
#232 = CARTESIAN_POINT ( 'NONE',  ( 8.326343694356989861E-16, 0.3749999999999963363, 0.2253227321353354629 ) ) ;
#233 = CYLINDRICAL_SURFACE ( 'NONE', #62, 0.3749999999999967804 ) ;
#234 = DIRECTION ( 'NONE',  ( -3.491481338843133355E-15, 1.224646799147353207E-16, -1.000000000000000000 ) ) ;
#235 = DIRECTION ( 'NONE',  ( -3.491481338843133355E-15, 1.224646799147353207E-16, -1.000000000000000000 ) ) ;
#236 = CARTESIAN_POINT ( 'NONE',  ( 0.0000000000000000000, 0.0000000000000000000, 0.0000000000000000000 ) ) ;
#237 = MECHANICAL_CONTEXT ( 'NONE', #102, 'mechanical' ) ;
#238 = CC_DESIGN_PERSON_AND_ORGANIZATION_ASSIGNMENT ( #265, #189, ( #270 ) ) ;
#239 = DATE_AND_TIME ( #220, #324 ) ;
#240 = AXIS2_PLACEMENT_3D ( 'NONE', #71, #73, #48 ) ;
#241 = DIRECTION ( 'NONE',  ( 1.000000000000000000, 0.0000000000000000000, 0.0000000000000000000 ) ) ;
#242 = ORIENTED_EDGE ( 'NONE', *, *, #319, .T. ) ;
#243 = AXIS2_PLACEMENT_3D ( 'NONE', #261, #76, #75 ) ;
#244 = ORIENTED_EDGE ( 'NONE', *, *, #106, .F. ) ;
#245 = FACE_OUTER_BOUND ( 'NONE', #190, .T. ) ;
#246 = VECTOR ( 'NONE', #59, 1000.000000000000000 ) ;
#247 = EDGE_LOOP ( 'NONE', ( #192, #242 ) ) ;
#248 = VERTEX_POINT ( 'NONE', #204 ) ;
#249 = AXIS2_PLACEMENT_3D ( 'NONE', #284, #235, #180 ) ;
#250 = ORIENTED_EDGE ( 'NONE', *, *, #332, .T. ) ;
#251 = LOCAL_TIME ( 9, 48, 22.00000000000000000, #124 ) ;
#252 = CARTESIAN_POINT ( 'NONE',  ( 6.271801428720195386E-14, -0.3750000000000037192, 29.89999999999999858 ) ) ;
#253 = EDGE_CURVE ( 'NONE', #16, #321, #107, .T. ) ;
#254 = CARTESIAN_POINT ( 'NONE',  ( 2.094888803305880013E-14, -7.347880794884119736E-16, 6.000000000000000000 ) ) ;
#255 = AXIS2_PLACEMENT_3D ( 'NONE', #254, #309, #98 ) ;
#256 = FACE_OUTER_BOUND ( 'NONE', #188, .T. ) ;
#257 = AXIS2_PLACEMENT_3D ( 'NONE', #30, #183, #128 ) ;
#258 = FACE_OUTER_BOUND ( 'NONE', #137, .T. ) ;
#259 = CARTESIAN_POINT ( 'NONE',  ( 8.326343694356989861E-16, 0.3749999999999963363, 0.2253227321353354629 ) ) ;
#260 = EDGE_CURVE ( 'NONE', #223, #331, #322, .T. ) ;
#261 = CARTESIAN_POINT ( 'NONE',  ( 2.094888803305880013E-14, 2.812049592490948803E-33, 6.000000000000000000 ) ) ;
#262 = UNCERTAINTY_MEASURE_WITH_UNIT (LENGTH_MEASURE( 1.000000000000000082E-05 ), #138, 'distance_accuracy_value', 'NONE');
#263 = CIRCLE ( 'NONE', #171, 0.3749999999999963918 ) ;
#264 = CARTESIAN_POINT ( 'NONE',  ( 7.867101144676733056E-16, -0.3749999999999964473, 0.2253227321353353518 ) ) ;
#265 = PERSON_AND_ORGANIZATION ( #313, #225 ) ;
#266 = ORIENTED_EDGE ( 'NONE', *, *, #191, .T. ) ;
#267 = APPROVAL_ROLE ( '' ) ;
#268 = APPROVAL_DATE_TIME ( #162, #203 ) ;
#269 = ORIENTED_EDGE ( 'NONE', *, *, #253, .F. ) ;
#270 = PRODUCT_DEFINITION ( 'UNKNOWN', '', #207, #6 ) ;
#271 = CIRCLE ( 'NONE', #9, 0.2750000000000000222 ) ;
#272 = ORIENTED_EDGE ( 'NONE', *, *, #95, .T. ) ;
#273 = ORIENTED_EDGE ( 'NONE', *, *, #332, .F. ) ;
#274 = ADVANCED_FACE ( 'NONE', ( #256 ), #140, .T. ) ;
#275 = DATE_AND_TIME ( #302, #25 ) ;
#276 = ORIENTED_EDGE ( 'NONE', *, *, #95, .F. ) ;
#277 = CARTESIAN_POINT ( 'NONE',  ( 1.047444401652940007E-13, -3.673940397442059178E-15, 30.00000000000000000 ) ) ;
#278 = DIRECTION ( 'NONE',  ( -3.491481338843133355E-15, 1.224646799147353207E-16, -1.000000000000000000 ) ) ;
#279 = DIRECTION ( 'NONE',  ( 4.275831445896957731E-31, 1.000000000000000000, 1.224646799147352961E-16 ) ) ;
#280 = DIRECTION ( 'NONE',  ( -3.491481338843133355E-15, 1.224646799147353207E-16, -1.000000000000000000 ) ) ;
#281 = CYLINDRICAL_SURFACE ( 'NONE', #249, 0.3749999999999967804 ) ;
#282 = AXIS2_PLACEMENT_3D ( 'NONE', #13, #110, #111 ) ;
#283 = CARTESIAN_POINT ( 'NONE',  ( 0.0000000000000000000, 0.0000000000000000000, 0.0000000000000000000 ) ) ;
#284 = CARTESIAN_POINT ( 'NONE',  ( 0.0000000000000000000, 0.0000000000000000000, 0.0000000000000000000 ) ) ;
#285 = VECTOR ( 'NONE', #278, 1000.000000000000000 ) ;
#286 = CARTESIAN_POINT ( 'NONE',  ( 2.094888803305880013E-14, 0.3749999999999963363, 6.000000000000000000 ) ) ;
#287 = APPROVAL ( #198, 'UNSPECIFIED' ) ;
#288 = ORIENTED_EDGE ( 'NONE', *, *, #260, .F. ) ;
#289 = DATE_TIME_ROLE ( 'creation_date' ) ;
#290 = VERTEX_POINT ( 'NONE', #232 ) ;
#291 = CIRCLE ( 'NONE', #328, 0.3749999999999963918 ) ;
#292 = ORIENTED_EDGE ( 'NONE', *, *, #319, .F. ) ;
#293 = EDGE_CURVE ( 'NONE', #330, #325, #337, .T. ) ;
#294 = DATE_AND_TIME ( #333, #251 ) ;
#295 = ORIENTED_EDGE ( 'NONE', *, *, #298, .T. ) ;
#296 = AXIS2_PLACEMENT_3D ( 'NONE', #202, #280, #307 ) ;
#297 = CARTESIAN_POINT ( 'NONE',  ( 1.047444401652940007E-13, 2.062169701159999130E-33, 30.00000000000000000 ) ) ;
#298 = EDGE_CURVE ( 'NONE', #16, #68, #72, .T. ) ;
#299 = SECURITY_CLASSIFICATION_LEVEL ( 'unclassified' ) ;
#300 = EDGE_LOOP ( 'NONE', ( #119, #37, #273, #134 ) ) ;
#301 = VECTOR ( 'NONE', #308, 1000.000000000000000 ) ;
#302 = CALENDAR_DATE ( 2021, 3, 9 ) ;
#303 = ORIENTED_EDGE ( 'NONE', *, *, #106, .T. ) ;
#304 = AXIS2_PLACEMENT_3D ( 'NONE', #177, #179, #147 ) ;
#305 = ORIENTED_EDGE ( 'NONE', *, *, #326, .F. ) ;
#306 = CARTESIAN_POINT ( 'NONE',  ( 0.0000000000000000000, 0.0000000000000000000, 0.0000000000000000000 ) ) ;
#307 = DIRECTION ( 'NONE',  ( 0.0000000000000000000, 1.000000000000000000, 0.0000000000000000000 ) ) ;
#308 = DIRECTION ( 'NONE',  ( 1.798245827342160317E-15, -0.8571673007021098911, 0.5150380749100582634 ) ) ;
#309 = DIRECTION ( 'NONE',  ( -3.491481338843133355E-15, 1.224646799147353207E-16, -1.000000000000000000 ) ) ;
#310 = FACE_OUTER_BOUND ( 'NONE', #300, .T. ) ;
#311 = PRODUCT_DEFINITION_SHAPE ( 'NONE', 'NONE',  #270 ) ;
#312 = DIRECTION ( 'NONE',  ( -2.382254525458708792E-15, -0.7071067811865495711, -0.7071067811865455743 ) ) ;
#313 = PERSON ( 'UNSPECIFIED', 'UNSPECIFIED', 'UNSPECIFIED', ('UNSPECIFIED'), ('UNSPECIFIED'), ('UNSPECIFIED') ) ;
#314 = PERSON_AND_ORGANIZATION ( #313, #225 ) ;
#315 = APPROVAL_PERSON_ORGANIZATION ( #314, #60, #267 ) ;
#316 = DATE_AND_TIME ( #115, #74 ) ;
#317 = ORIENTED_EDGE ( 'NONE', *, *, #26, .T. ) ;
#318 = APPROVAL_ROLE ( '' ) ;
#319 = EDGE_CURVE ( 'NONE', #68, #335, #146, .T. ) ;
#320 = PERSON_AND_ORGANIZATION_ROLE ( 'creator' ) ;
#321 = VERTEX_POINT ( 'NONE', #217 ) ;
#322 = CIRCLE ( 'NONE', #240, 0.3749999999999970579 ) ;
#323 = APPROVAL_STATUS ( 'not_yet_approved' ) ;
#324 = LOCAL_TIME ( 9, 48, 22.00000000000000000, #57 ) ;
#325 = VERTEX_POINT ( 'NONE', #264 ) ;
#326 = EDGE_CURVE ( 'NONE', #321, #335, #158, .T. ) ;
#327 = FACE_OUTER_BOUND ( 'NONE', #224, .T. ) ;
#328 = AXIS2_PLACEMENT_3D ( 'NONE', #208, #46, #127 ) ;
#329 = EDGE_LOOP ( 'NONE', ( #83, #272, #250 ) ) ;
#330 = VERTEX_POINT ( 'NONE', #159 ) ;
#331 = VERTEX_POINT ( 'NONE', #39 ) ;
#332 = EDGE_CURVE ( 'NONE', #290, #325, #263, .T. ) ;
#333 = CALENDAR_DATE ( 2021, 3, 9 ) ;
#334 = AXIS2_PLACEMENT_3D ( 'NONE', #231, #152, #5 ) ;
#335 = VERTEX_POINT ( 'NONE', #286 ) ;
#336 = CYLINDRICAL_SURFACE ( 'NONE', #161, 0.3749999999999985567 ) ;
#337 = LINE ( 'NONE', #99, #301 ) ;
ENDSEC;
END-ISO-10303-21;
