ISO-10303-21;
HEADER;
FILE_DESCRIPTION (( 'STEP AP203' ),
    '1' );
FILE_NAME ('54484.step',
    '2021-09-03T07:48:22',
    ( '' ),
    ( '' ),
    'SwSTEP 2.0',
    'SolidWorks 2019',
    '' );
FILE_SCHEMA (( 'CONFIG_CONTROL_DESIGN' ));
ENDSEC;

DATA;
#1 = DATE_AND_TIME ( #81, #304 ) ;
#2 = ORIENTED_EDGE ( 'NONE', *, *, #320, .F. ) ;
#3 = PERSON_AND_ORGANIZATION ( #305, #300 ) ;
#4 = VERTEX_POINT ( 'NONE', #314 ) ;
#5 = DATE_AND_TIME ( #208, #183 ) ;
#6 = ORIENTED_EDGE ( 'NONE', *, *, #116, .T. ) ;
#7 = DESIGN_CONTEXT ( 'detailed design', #132, 'design' ) ;
#8 = CYLINDRICAL_SURFACE ( 'NONE', #134, 0.3499999999999985345 ) ;
#9 = AXIS2_PLACEMENT_3D ( 'NONE', #64, #11, #33 ) ;
#10 = CYLINDRICAL_SURFACE ( 'NONE', #154, 0.3499999999999967026 ) ;
#11 = DIRECTION ( 'NONE',  ( -3.491481338843133355E-15, 1.224646799147353207E-16, -1.000000000000000000 ) ) ;
#12 = CC_DESIGN_PERSON_AND_ORGANIZATION_ASSIGNMENT ( #56, #158, ( #98 ) ) ;
#13 = FACE_OUTER_BOUND ( 'NONE', #204, .T. ) ;
#14 = DIRECTION ( 'NONE',  ( -3.491481338843133355E-15, 1.224646799147353207E-16, -1.000000000000000000 ) ) ;
#15 = CIRCLE ( 'NONE', #323, 0.3499999999999970912 ) ;
#16 = EDGE_CURVE ( 'NONE', #206, #157, #74, .T. ) ;
#17 = CARTESIAN_POINT ( 'NONE',  ( 1.047444401652940007E-13, -3.673940397442059178E-15, 30.00000000000000000 ) ) ;
#18 = CARTESIAN_POINT ( 'NONE',  ( 4.286263797015680512E-17, -0.3499999999999967026, -4.286263797015710094E-17 ) ) ;
#19 = AXIS2_PLACEMENT_3D ( 'NONE', #270, #143, #167 ) ;
#20 = DIRECTION ( 'NONE',  ( -3.491481338843133355E-15, 1.224646799147353207E-16, -1.000000000000000000 ) ) ;
#21 = EDGE_CURVE ( 'NONE', #29, #59, #269, .T. ) ;
#22 = DIRECTION ( 'NONE',  ( -3.491481338843133355E-15, 1.224646799147353207E-16, -1.000000000000000000 ) ) ;
#23 = APPROVAL_DATE_TIME ( #184, #210 ) ;
#24 = ADVANCED_FACE ( 'NONE', ( #142 ), #244, .T. ) ;
#25 = ORIENTED_EDGE ( 'NONE', *, *, #181, .T. ) ;
#26 = PERSON_AND_ORGANIZATION_ROLE ( 'design_owner' ) ;
#27 = EDGE_LOOP ( 'NONE', ( #76, #107, #205 ) ) ;
#28 = DIRECTION ( 'NONE',  ( 1.000000000000000000, 0.0000000000000000000, 0.0000000000000000000 ) ) ;
#29 = VERTEX_POINT ( 'NONE', #217 ) ;
#30 = PERSON_AND_ORGANIZATION ( #305, #300 ) ;
#31 = ORIENTED_EDGE ( 'NONE', *, *, #299, .F. ) ;
#32 = EDGE_LOOP ( 'NONE', ( #133, #103 ) ) ;
#33 = DIRECTION ( 'NONE',  ( 0.0000000000000000000, 1.000000000000000000, 0.0000000000000000000 ) ) ;
#34 = CC_DESIGN_APPROVAL ( #119, ( #172 ) ) ;
#35 = DIRECTION ( 'NONE',  ( -3.491481338843133355E-15, 1.224646799147353207E-16, -1.000000000000000000 ) ) ;
#36 = DIRECTION ( 'NONE',  ( -3.491481338843133355E-15, 1.224646799147353207E-16, -1.000000000000000000 ) ) ;
#37 = DIRECTION ( 'NONE',  ( -4.275831445896958607E-31, -1.000000000000000000, -1.224646799147353207E-16 ) ) ;
#38 = CLOSED_SHELL ( 'NONE', ( #332, #177, #227, #168, #110, #70 ) ) ;
#39 = DIRECTION ( 'NONE',  ( 4.275831445896958607E-31, 1.000000000000000000, 1.224646799147353207E-16 ) ) ;
#40 = CIRCLE ( 'NONE', #9, 0.2500000000000000000 ) ;
#41 = LOCAL_TIME ( 9, 48, 22.00000000000000000, #186 ) ;
#42 = APPLICATION_PROTOCOL_DEFINITION ( 'international standard', 'config_control_design', 1994, #72 ) ;
#43 = PLANE ( 'NONE',  #89 ) ;
#44 = DIRECTION ( 'NONE',  ( 0.0000000000000000000, 1.000000000000000000, 0.0000000000000000000 ) ) ;
#45 = CONICAL_SURFACE ( 'NONE', #309, 0.2500000000000000000, 0.7853981633974512766 ) ;
#46 = LINE ( 'NONE', #333, #294 ) ;
#47 = APPLICATION_PROTOCOL_DEFINITION ( 'international standard', 'config_control_design', 1994, #132 ) ;
#48 = ADVANCED_FACE ( 'NONE', ( #170 ), #194, .T. ) ;
#49 = PERSON_AND_ORGANIZATION_ROLE ( 'classification_officer' ) ;
#50 = ORIENTED_EDGE ( 'NONE', *, *, #16, .F. ) ;
#51 = CIRCLE ( 'NONE', #334, 0.3499999999999963141 ) ;
#52 = DIRECTION ( 'NONE',  ( 0.0000000000000000000, 0.0000000000000000000, 1.000000000000000000 ) ) ;
#53 = ORIENTED_EDGE ( 'NONE', *, *, #94, .T. ) ;
#54 = PERSON_AND_ORGANIZATION ( #305, #300 ) ;
#55 = ORIENTED_EDGE ( 'NONE', *, *, #222, .T. ) ;
#56 = PERSON_AND_ORGANIZATION ( #305, #300 ) ;
#57 = CC_DESIGN_PERSON_AND_ORGANIZATION_ASSIGNMENT ( #54, #286, ( #172 ) ) ;
#58 = EDGE_LOOP ( 'NONE', ( #187, #285, #180, #261 ) ) ;
#59 = VERTEX_POINT ( 'NONE', #195 ) ;
#60 = CARTESIAN_POINT ( 'NONE',  ( 0.0000000000000000000, 0.0000000000000000000, 0.0000000000000000000 ) ) ;
#61 = EDGE_CURVE ( 'NONE', #185, #157, #88, .T. ) ;
#62 = DIRECTION ( 'NONE',  ( -3.491481338843133355E-15, 1.224646799147353207E-16, -1.000000000000000000 ) ) ;
#63 = AXIS2_PLACEMENT_3D ( 'NONE', #330, #120, #228 ) ;
#64 = CARTESIAN_POINT ( 'NONE',  ( 1.047444401652940007E-13, -3.673940397442059178E-15, 30.00000000000000000 ) ) ;
#65 = CYLINDRICAL_SURFACE ( 'NONE', #207, 0.3499999999999985345 ) ;
#66 = CARTESIAN_POINT ( 'NONE',  ( 7.342627735031613969E-16, -2.575447118390297346E-17, 0.2103012166596462118 ) ) ;
#67 = DIRECTION ( 'NONE',  ( -3.491481338843133355E-15, 1.224646799147353207E-16, -1.000000000000000000 ) ) ;
#68 = AXIS2_PLACEMENT_3D ( 'NONE', #253, #69, #121 ) ;
#69 = DIRECTION ( 'NONE',  ( 3.491481338843133355E-15, -1.224646799147353207E-16, 1.000000000000000000 ) ) ;
#70 = ADVANCED_FACE ( 'NONE', ( #91 ), #271, .F. ) ;
#71 = CARTESIAN_POINT ( 'NONE',  ( 7.771254114733184424E-16, 0.3499999999999963141, 0.2103012166596462673 ) ) ;
#72 = APPLICATION_CONTEXT ( 'configuration controlled 3d designs of mechanical parts and assemblies' ) ;
#73 = FACE_OUTER_BOUND ( 'NONE', #82, .T. ) ;
#74 = CIRCLE ( 'NONE', #78, 0.3499999999999970912 ) ;
#75 =( NAMED_UNIT ( * ) SI_UNIT ( $, .STERADIAN. ) SOLID_ANGLE_UNIT ( ) );
#76 = ORIENTED_EDGE ( 'NONE', *, *, #222, .F. ) ;
#77 = DATE_AND_TIME ( #232, #275 ) ;
#78 = AXIS2_PLACEMENT_3D ( 'NONE', #100, #101, #307 ) ;
#79 = CALENDAR_DATE ( 2021, 3, 9 ) ;
#80 = ORIENTED_EDGE ( 'NONE', *, *, #181, .F. ) ;
#81 = CALENDAR_DATE ( 2021, 3, 9 ) ;
#82 = EDGE_LOOP ( 'NONE', ( #53, #182 ) ) ;
#83 = EDGE_LOOP ( 'NONE', ( #165, #55, #25 ) ) ;
#84 = APPROVAL_PERSON_ORGANIZATION ( #102, #210, #310 ) ;
#85 = CARTESIAN_POINT ( 'NONE',  ( 7.342627735031613969E-16, -2.575447118390297346E-17, 0.2103012166596462118 ) ) ;
#86 = CC_DESIGN_PERSON_AND_ORGANIZATION_ASSIGNMENT ( #30, #26, ( #144 ) ) ;
#87 = DIRECTION ( 'NONE',  ( -3.491481338843133355E-15, 1.224646799147353207E-16, -1.000000000000000000 ) ) ;
#88 = LINE ( 'NONE', #268, #237 ) ;
#89 = AXIS2_PLACEMENT_3D ( 'NONE', #249, #148, #276 ) ;
#90 = CARTESIAN_POINT ( 'NONE',  ( 2.094888803305880013E-14, -7.347880794884119736E-16, 6.000000000000000000 ) ) ;
#91 = FACE_OUTER_BOUND ( 'NONE', #32, .T. ) ;
#92 = FACE_OUTER_BOUND ( 'NONE', #335, .T. ) ;
#93 = DIRECTION ( 'NONE',  ( 0.0000000000000000000, 1.000000000000000000, 0.0000000000000000000 ) ) ;
#94 = EDGE_CURVE ( 'NONE', #157, #206, #274, .T. ) ;
#95 = DIRECTION ( 'NONE',  ( -3.491481338843133355E-15, 1.224646799147353207E-16, -1.000000000000000000 ) ) ;
#96 = DIRECTION ( 'NONE',  ( -2.468850131082257455E-15, 0.7071067811865497932, -0.7071067811865453523 ) ) ;
#97 = CARTESIAN_POINT ( 'NONE',  ( 1.047444401652940007E-13, -3.673940397442059178E-15, 30.00000000000000000 ) ) ;
#98 = PRODUCT_DEFINITION_FORMATION_WITH_SPECIFIED_SOURCE ( 'ANY', '', #144, .NOT_KNOWN. ) ;
#99 = DATE_TIME_ROLE ( 'classification_date' ) ;
#100 = CARTESIAN_POINT ( 'NONE',  ( 2.094888803305880013E-14, -7.347880794884119736E-16, 6.000000000000000000 ) ) ;
#101 = DIRECTION ( 'NONE',  ( -3.491481338843133355E-15, 1.224646799147353207E-16, -1.000000000000000000 ) ) ;
#102 = PERSON_AND_ORGANIZATION ( #305, #300 ) ;
#103 = ORIENTED_EDGE ( 'NONE', *, *, #199, .F. ) ;
#104 = EDGE_CURVE ( 'NONE', #233, #109, #51, .T. ) ;
#105 = VECTOR ( 'NONE', #96, 1000.000000000000114 ) ;
#106 = CARTESIAN_POINT ( 'NONE',  ( 0.0000000000000000000, 0.0000000000000000000, 0.0000000000000000000 ) ) ;
#107 = ORIENTED_EDGE ( 'NONE', *, *, #325, .T. ) ;
#108 = PERSON_AND_ORGANIZATION ( #305, #300 ) ;
#109 = VERTEX_POINT ( 'NONE', #141 ) ;
#110 = ADVANCED_FACE ( 'NONE', ( #246 ), #45, .T. ) ;
#111 = CARTESIAN_POINT ( 'NONE',  ( 0.0000000000000000000, 0.0000000000000000000, 0.0000000000000000000 ) ) ;
#112 = AXIS2_PLACEMENT_3D ( 'NONE', #219, #115, #37 ) ;
#113 = DIRECTION ( 'NONE',  ( 3.491481338843133355E-15, -1.224646799147353207E-16, 1.000000000000000000 ) ) ;
#114 = CARTESIAN_POINT ( 'NONE',  ( 1.043952920314096810E-13, -3.661693929450586610E-15, 29.89999999999999858 ) ) ;
#115 = DIRECTION ( 'NONE',  ( 3.491481338843133355E-15, -1.224646799147353207E-16, 1.000000000000000000 ) ) ;
#116 = EDGE_CURVE ( 'NONE', #159, #235, #40, .T. ) ;
#117 = AXIS2_PLACEMENT_3D ( 'NONE', #90, #291, #193 ) ;
#118 = CARTESIAN_POINT ( 'NONE',  ( 1.496541006063921456E-31, 0.3499999999999967026, 4.286263797015695919E-17 ) ) ;
#119 = APPROVAL ( #151, 'UNSPECIFIED' ) ;
#120 = DIRECTION ( 'NONE',  ( -3.491481338843133355E-15, 1.224646799147353207E-16, -1.000000000000000000 ) ) ;
#121 = DIRECTION ( 'NONE',  ( -5.502656983963589188E-31, -1.000000000000000000, -1.548860246407879853E-16 ) ) ;
#122 = AXIS2_PLACEMENT_3D ( 'NONE', #66, #113, #166 ) ;
#123 = DIRECTION ( 'NONE',  ( 0.0000000000000000000, 1.000000000000000000, 0.0000000000000000000 ) ) ;
#124 = LINE ( 'NONE', #298, #105 ) ;
#125 = SHAPE_DEFINITION_REPRESENTATION ( #176, #137 ) ;
#126 = VECTOR ( 'NONE', #139, 1000.000000000000000 ) ;
#127 = LOCAL_TIME ( 9, 48, 22.00000000000000000, #156 ) ;
#128 = ORIENTED_EDGE ( 'NONE', *, *, #290, .T. ) ;
#129 = COORDINATED_UNIVERSAL_TIME_OFFSET ( 1, 0, .AHEAD. ) ;
#130 = EDGE_CURVE ( 'NONE', #4, #185, #231, .T. ) ;
#131 = ORIENTED_EDGE ( 'NONE', *, *, #299, .T. ) ;
#132 = APPLICATION_CONTEXT ( 'configuration controlled 3d designs of mechanical parts and assemblies' ) ;
#133 = ORIENTED_EDGE ( 'NONE', *, *, #116, .F. ) ;
#134 = AXIS2_PLACEMENT_3D ( 'NONE', #111, #214, #316 ) ;
#135 = APPROVAL_ROLE ( '' ) ;
#136 = ORIENTED_EDGE ( 'NONE', *, *, #21, .T. ) ;
#137 = ADVANCED_BREP_SHAPE_REPRESENTATION ( '54484', ( #327, #215, #247 ), #263 ) ;
#138 = ORIENTED_EDGE ( 'NONE', *, *, #260, .F. ) ;
#139 = DIRECTION ( 'NONE',  ( -3.491481338843133355E-15, 1.224646799147353207E-16, -1.000000000000000000 ) ) ;
#140 = VECTOR ( 'NONE', #224, 1000.000000000000114 ) ;
#141 = CARTESIAN_POINT ( 'NONE',  ( 7.342627735031611997E-16, -0.3499999999999963141, 0.2103012166596461563 ) ) ;
#142 = FACE_OUTER_BOUND ( 'NONE', #256, .T. ) ;
#143 = DIRECTION ( 'NONE',  ( -3.491481338843133355E-15, 1.224646799147353207E-16, -1.000000000000000000 ) ) ;
#144 = PRODUCT ( '54484', '54484', '', ( #234 ) ) ;
#145 = CLOSED_SHELL ( 'NONE', ( #295, #48, #241, #162, #24 ) ) ;
#146 = EDGE_CURVE ( 'NONE', #4, #206, #321, .T. ) ;
#147 = DIRECTION ( 'NONE',  ( 1.798245827342160317E-15, -0.8571673007021098911, 0.5150380749100582634 ) ) ;
#148 = DIRECTION ( 'NONE',  ( 3.491481338843133355E-15, -1.224646799147353207E-16, 1.000000000000000000 ) ) ;
#149 = CARTESIAN_POINT ( 'NONE',  ( 1.047750563352726908E-13, -0.2500000000000036637, 30.00000000000000000 ) ) ;
#150 = APPROVAL ( #262, 'UNSPECIFIED' ) ;
#151 = APPROVAL_STATUS ( 'not_yet_approved' ) ;
#152 = PERSON_AND_ORGANIZATION ( #305, #300 ) ;
#153 = VERTEX_POINT ( 'NONE', #60 ) ;
#154 = AXIS2_PLACEMENT_3D ( 'NONE', #223, #36, #39 ) ;
#155 = EDGE_CURVE ( 'NONE', #29, #233, #242, .T. ) ;
#156 = COORDINATED_UNIVERSAL_TIME_OFFSET ( 1, 0, .AHEAD. ) ;
#157 = VERTEX_POINT ( 'NONE', #245 ) ;
#158 = PERSON_AND_ORGANIZATION_ROLE ( 'creator' ) ;
#159 = VERTEX_POINT ( 'NONE', #296 ) ;
#160 = PERSON_AND_ORGANIZATION ( #305, #300 ) ;
#161 = ORIENTED_EDGE ( 'NONE', *, *, #21, .F. ) ;
#162 = ADVANCED_FACE ( 'NONE', ( #293 ), #10, .T. ) ;
#163 = VECTOR ( 'NONE', #62, 1000.000000000000000 ) ;
#164 = APPROVAL_PERSON_ORGANIZATION ( #108, #150, #135 ) ;
#165 = ORIENTED_EDGE ( 'NONE', *, *, #325, .F. ) ;
#166 = DIRECTION ( 'NONE',  ( -5.502656983963589188E-31, -1.000000000000000000, -1.548860246407879853E-16 ) ) ;
#167 = DIRECTION ( 'NONE',  ( 4.275831445896958607E-31, 1.000000000000000000, 1.224646799147353207E-16 ) ) ;
#168 = ADVANCED_FACE ( 'NONE', ( #13 ), #65, .T. ) ;
#169 = DIRECTION ( 'NONE',  ( 5.502656983963589188E-31, 1.000000000000000000, 1.548860246407879853E-16 ) ) ;
#170 = FACE_OUTER_BOUND ( 'NONE', #27, .T. ) ;
#171 = CARTESIAN_POINT ( 'NONE',  ( 1.047444401652940007E-13, -3.673940397442059178E-15, 30.00000000000000000 ) ) ;
#172 = PRODUCT_DEFINITION ( 'UNKNOWN', '', #98, #7 ) ;
#173 = CC_DESIGN_APPROVAL ( #150, ( #317 ) ) ;
#174 = CARTESIAN_POINT ( 'NONE',  ( 6.271495267020431962E-14, -0.3499999999999978129, 6.000000000000000000 ) ) ;
#175 = DIRECTION ( 'NONE',  ( 0.0000000000000000000, 1.000000000000000000, 0.0000000000000000000 ) ) ;
#176 = PRODUCT_DEFINITION_SHAPE ( 'NONE', 'NONE',  #172 ) ;
#177 = ADVANCED_FACE ( 'NONE', ( #240 ), #8, .T. ) ;
#178 = CARTESIAN_POINT ( 'NONE',  ( 7.771254114733184424E-16, 0.3499999999999963141, 0.2103012166596462673 ) ) ;
#179 = CIRCLE ( 'NONE', #189, 0.3499999999999999778 ) ;
#180 = ORIENTED_EDGE ( 'NONE', *, *, #94, .F. ) ;
#181 = EDGE_CURVE ( 'NONE', #109, #233, #216, .T. ) ;
#182 = ORIENTED_EDGE ( 'NONE', *, *, #16, .T. ) ;
#183 = LOCAL_TIME ( 9, 48, 22.00000000000000000, #284 ) ;
#184 = DATE_AND_TIME ( #79, #41 ) ;
#185 = VERTEX_POINT ( 'NONE', #226 ) ;
#186 = COORDINATED_UNIVERSAL_TIME_OFFSET ( 1, 0, .AHEAD. ) ;
#187 = ORIENTED_EDGE ( 'NONE', *, *, #320, .T. ) ;
#188 = EDGE_LOOP ( 'NONE', ( #136, #128, #282, #239 ) ) ;
#189 = AXIS2_PLACEMENT_3D ( 'NONE', #200, #95, #44 ) ;
#190 = CC_DESIGN_SECURITY_CLASSIFICATION ( #317, ( #98 ) ) ;
#191 = DIRECTION ( 'NONE',  ( -3.491481338843133355E-15, 1.224646799147353207E-16, -1.000000000000000000 ) ) ;
#192 = CARTESIAN_POINT ( 'NONE',  ( 7.342627735031613969E-16, -2.575447118390297346E-17, 0.2103012166596462118 ) ) ;
#193 = DIRECTION ( 'NONE',  ( 0.0000000000000000000, 1.000000000000000000, 0.0000000000000000000 ) ) ;
#194 = CONICAL_SURFACE ( 'NONE', #122, 0.3499999999999963141, 1.029744258676649649 ) ;
#195 = CARTESIAN_POINT ( 'NONE',  ( 1.088443804125111543E-14, -0.3499999999999978129, 6.000000000000000000 ) ) ;
#196 = DIRECTION ( 'NONE',  ( 0.0000000000000000000, 1.000000000000000000, 0.0000000000000000000 ) ) ;
#197 = AXIS2_PLACEMENT_3D ( 'NONE', #85, #191, #331 ) ;
#198 = FACE_OUTER_BOUND ( 'NONE', #188, .T. ) ;
#199 = EDGE_CURVE ( 'NONE', #235, #159, #277, .T. ) ;
#200 = CARTESIAN_POINT ( 'NONE',  ( 1.043952920314096810E-13, -3.661693929450586610E-15, 29.89999999999999858 ) ) ;
#201 =( LENGTH_UNIT ( ) NAMED_UNIT ( * ) SI_UNIT ( .MILLI., .METRE. ) );
#202 = PERSON_AND_ORGANIZATION_ROLE ( 'design_supplier' ) ;
#203 = CC_DESIGN_DATE_AND_TIME_ASSIGNMENT ( #77, #99, ( #317 ) ) ;
#204 = EDGE_LOOP ( 'NONE', ( #264, #265, #209, #50 ) ) ;
#205 = ORIENTED_EDGE ( 'NONE', *, *, #104, .T. ) ;
#206 = VERTEX_POINT ( 'NONE', #174 ) ;
#207 = AXIS2_PLACEMENT_3D ( 'NONE', #324, #297, #273 ) ;
#208 = CALENDAR_DATE ( 2021, 3, 9 ) ;
#209 = ORIENTED_EDGE ( 'NONE', *, *, #61, .T. ) ;
#210 = APPROVAL ( #238, 'UNSPECIFIED' ) ;
#211 = DATE_AND_TIME ( #306, #127 ) ;
#212 = ORIENTED_EDGE ( 'NONE', *, *, #155, .T. ) ;
#213 = UNCERTAINTY_MEASURE_WITH_UNIT (LENGTH_MEASURE( 1.000000000000000082E-05 ), #201, 'distance_accuracy_value', 'NONE');
#214 = DIRECTION ( 'NONE',  ( -3.491481338843133355E-15, 1.224646799147353207E-16, -1.000000000000000000 ) ) ;
#215 = MANIFOLD_SOLID_BREP ( 'Corps-Déplacer/Copier1[2]', #145 ) ;
#216 = CIRCLE ( 'NONE', #197, 0.3499999999999963141 ) ;
#217 = CARTESIAN_POINT ( 'NONE',  ( 2.094888803305880013E-14, 0.3499999999999963141, 6.000000000000000000 ) ) ;
#218 = DIRECTION ( 'NONE',  ( -3.491481338843133355E-15, 1.224646799147353207E-16, -1.000000000000000000 ) ) ;
#219 = CARTESIAN_POINT ( 'NONE',  ( 2.094888803305880013E-14, 2.624579619658216602E-33, 6.000000000000000000 ) ) ;
#220 = AXIS2_PLACEMENT_3D ( 'NONE', #17, #67, #175 ) ;
#221 = CC_DESIGN_APPROVAL ( #210, ( #98 ) ) ;
#222 = EDGE_CURVE ( 'NONE', #153, #109, #46, .T. ) ;
#223 = CARTESIAN_POINT ( 'NONE',  ( 0.0000000000000000000, 0.0000000000000000000, 0.0000000000000000000 ) ) ;
#224 = DIRECTION ( 'NONE',  ( -2.382254525458708792E-15, -0.7071067811865495711, -0.7071067811865455743 ) ) ;
#225 = AXIS2_PLACEMENT_3D ( 'NONE', #97, #229, #93 ) ;
#226 = CARTESIAN_POINT ( 'NONE',  ( 1.043952920314096810E-13, 0.3499999999999963141, 29.89999999999999858 ) ) ;
#227 = ADVANCED_FACE ( 'NONE', ( #73 ), #43, .F. ) ;
#228 = DIRECTION ( 'NONE',  ( 4.275831445896958607E-31, 1.000000000000000000, 1.224646799147353207E-16 ) ) ;
#229 = DIRECTION ( 'NONE',  ( -3.491481338843133355E-15, 1.224646799147353207E-16, -1.000000000000000000 ) ) ;
#230 = EDGE_CURVE ( 'NONE', #235, #4, #250, .T. ) ;
#231 = CIRCLE ( 'NONE', #315, 0.3499999999999999778 ) ;
#232 = CALENDAR_DATE ( 2021, 3, 9 ) ;
#233 = VERTEX_POINT ( 'NONE', #178 ) ;
#234 = MECHANICAL_CONTEXT ( 'NONE', #72, 'mechanical' ) ;
#235 = VERTEX_POINT ( 'NONE', #278 ) ;
#236 = ORIENTED_EDGE ( 'NONE', *, *, #290, .F. ) ;
#237 = VECTOR ( 'NONE', #14, 1000.000000000000000 ) ;
#238 = APPROVAL_STATUS ( 'not_yet_approved' ) ;
#239 = ORIENTED_EDGE ( 'NONE', *, *, #155, .F. ) ;
#240 = FACE_OUTER_BOUND ( 'NONE', #58, .T. ) ;
#241 = ADVANCED_FACE ( 'NONE', ( #301 ), #243, .T. ) ;
#242 = LINE ( 'NONE', #118, #126 ) ;
#243 = CONICAL_SURFACE ( 'NONE', #68, 0.3499999999999963141, 1.029744258676649649 ) ;
#244 = PLANE ( 'NONE',  #112 ) ;
#245 = CARTESIAN_POINT ( 'NONE',  ( 2.094888803305880013E-14, 0.3499999999999963141, 6.000000000000000000 ) ) ;
#246 = FACE_OUTER_BOUND ( 'NONE', #279, .T. ) ;
#247 = AXIS2_PLACEMENT_3D ( 'NONE', #106, #52, #28 ) ;
#248 = CARTESIAN_POINT ( 'NONE',  ( 2.094888803305880013E-14, -7.347880794884119736E-16, 6.000000000000000000 ) ) ;
#249 = CARTESIAN_POINT ( 'NONE',  ( 2.094888803305880013E-14, 2.624579619658216602E-33, 6.000000000000000000 ) ) ;
#250 = LINE ( 'NONE', #149, #140 ) ;
#251 = VECTOR ( 'NONE', #302, 999.9999999999998863 ) ;
#252 = LINE ( 'NONE', #18, #288 ) ;
#253 = CARTESIAN_POINT ( 'NONE',  ( 7.342627735031613969E-16, -2.575447118390297346E-17, 0.2103012166596462118 ) ) ;
#254 = APPROVAL_ROLE ( '' ) ;
#255 = COORDINATED_UNIVERSAL_TIME_OFFSET ( 1, 0, .AHEAD. ) ;
#256 = EDGE_LOOP ( 'NONE', ( #161, #138 ) ) ;
#257 = APPROVAL_DATE_TIME ( #211, #150 ) ;
#258 = ORIENTED_EDGE ( 'NONE', *, *, #230, .F. ) ;
#259 = DATE_TIME_ROLE ( 'creation_date' ) ;
#260 = EDGE_CURVE ( 'NONE', #59, #29, #15, .T. ) ;
#261 = ORIENTED_EDGE ( 'NONE', *, *, #61, .F. ) ;
#262 = APPROVAL_STATUS ( 'not_yet_approved' ) ;
#263 =( GEOMETRIC_REPRESENTATION_CONTEXT ( 3 ) GLOBAL_UNCERTAINTY_ASSIGNED_CONTEXT ( ( #213 ) ) GLOBAL_UNIT_ASSIGNED_CONTEXT ( ( #201, #328, #75 ) ) REPRESENTATION_CONTEXT ( 'NONE', 'WORKASPACE' ) );
#264 = ORIENTED_EDGE ( 'NONE', *, *, #146, .F. ) ;
#265 = ORIENTED_EDGE ( 'NONE', *, *, #130, .T. ) ;
#266 = CC_DESIGN_DATE_AND_TIME_ASSIGNMENT ( #1, #259, ( #172 ) ) ;
#267 = DIRECTION ( 'NONE',  ( 0.0000000000000000000, 1.000000000000000000, 0.0000000000000000000 ) ) ;
#268 = CARTESIAN_POINT ( 'NONE',  ( 1.496541006063929338E-31, 0.3499999999999985345, 4.286263797015718106E-17 ) ) ;
#269 = CIRCLE ( 'NONE', #322, 0.3499999999999970912 ) ;
#270 = CARTESIAN_POINT ( 'NONE',  ( 1.047444401652940007E-13, 1.874699728327266587E-33, 30.00000000000000000 ) ) ;
#271 = PLANE ( 'NONE',  #19 ) ;
#272 = CC_DESIGN_PERSON_AND_ORGANIZATION_ASSIGNMENT ( #160, #202, ( #98 ) ) ;
#273 = DIRECTION ( 'NONE',  ( 4.275831445896958607E-31, 1.000000000000000000, 1.224646799147353207E-16 ) ) ;
#274 = CIRCLE ( 'NONE', #117, 0.3499999999999970912 ) ;
#275 = LOCAL_TIME ( 9, 48, 22.00000000000000000, #255 ) ;
#276 = DIRECTION ( 'NONE',  ( -4.275831445896958607E-31, -1.000000000000000000, -1.224646799147353207E-16 ) ) ;
#277 = CIRCLE ( 'NONE', #220, 0.2500000000000000000 ) ;
#278 = CARTESIAN_POINT ( 'NONE',  ( 1.046066055023262727E-13, -0.2500000000000036637, 30.00000000000000000 ) ) ;
#279 = EDGE_LOOP ( 'NONE', ( #258, #337, #131, #313 ) ) ;
#280 = CONICAL_SURFACE ( 'NONE', #225, 0.2500000000000000000, 0.7853981633974512766 ) ;
#281 = SECURITY_CLASSIFICATION_LEVEL ( 'unclassified' ) ;
#282 = ORIENTED_EDGE ( 'NONE', *, *, #104, .F. ) ;
#283 = CC_DESIGN_PERSON_AND_ORGANIZATION_ASSIGNMENT ( #152, #49, ( #317 ) ) ;
#284 = COORDINATED_UNIVERSAL_TIME_OFFSET ( 1, 0, .AHEAD. ) ;
#285 = ORIENTED_EDGE ( 'NONE', *, *, #146, .T. ) ;
#286 = PERSON_AND_ORGANIZATION_ROLE ( 'creator' ) ;
#287 = ORIENTED_EDGE ( 'NONE', *, *, #230, .T. ) ;
#288 = VECTOR ( 'NONE', #20, 1000.000000000000000 ) ;
#289 = EDGE_LOOP ( 'NONE', ( #236, #311, #212, #80 ) ) ;
#290 = EDGE_CURVE ( 'NONE', #59, #109, #252, .T. ) ;
#291 = DIRECTION ( 'NONE',  ( -3.491481338843133355E-15, 1.224646799147353207E-16, -1.000000000000000000 ) ) ;
#292 = CARTESIAN_POINT ( 'NONE',  ( 4.286263797015703315E-17, -0.3499999999999985345, -4.286263797015732897E-17 ) ) ;
#293 = FACE_OUTER_BOUND ( 'NONE', #289, .T. ) ;
#294 = VECTOR ( 'NONE', #147, 1000.000000000000000 ) ;
#295 = ADVANCED_FACE ( 'NONE', ( #198 ), #326, .T. ) ;
#296 = CARTESIAN_POINT ( 'NONE',  ( 1.047444401652940007E-13, 0.2499999999999963085, 30.00000000000000000 ) ) ;
#297 = DIRECTION ( 'NONE',  ( -3.491481338843133355E-15, 1.224646799147353207E-16, -1.000000000000000000 ) ) ;
#298 = CARTESIAN_POINT ( 'NONE',  ( 1.047444401652940007E-13, 0.2499999999999963085, 30.00000000000000000 ) ) ;
#299 = EDGE_CURVE ( 'NONE', #159, #185, #124, .T. ) ;
#300 = ORGANIZATION ( 'UNSPECIFIED', 'UNSPECIFIED', '' ) ;
#301 = FACE_OUTER_BOUND ( 'NONE', #83, .T. ) ;
#302 = DIRECTION ( 'NONE',  ( 1.903218546456022717E-15, 0.8571673007021097801, 0.5150380749100585964 ) ) ;
#303 = LINE ( 'NONE', #71, #251 ) ;
#304 = LOCAL_TIME ( 9, 48, 22.00000000000000000, #129 ) ;
#305 = PERSON ( 'UNSPECIFIED', 'UNSPECIFIED', 'UNSPECIFIED', ('UNSPECIFIED'), ('UNSPECIFIED'), ('UNSPECIFIED') ) ;
#306 = CALENDAR_DATE ( 2021, 3, 9 ) ;
#307 = DIRECTION ( 'NONE',  ( 0.0000000000000000000, 1.000000000000000000, 0.0000000000000000000 ) ) ;
#308 = CARTESIAN_POINT ( 'NONE',  ( 2.094888803305880013E-14, -7.347880794884119736E-16, 6.000000000000000000 ) ) ;
#309 = AXIS2_PLACEMENT_3D ( 'NONE', #171, #318, #267 ) ;
#310 = APPROVAL_ROLE ( '' ) ;
#311 = ORIENTED_EDGE ( 'NONE', *, *, #260, .T. ) ;
#312 = APPROVAL_DATE_TIME ( #5, #119 ) ;
#313 = ORIENTED_EDGE ( 'NONE', *, *, #130, .F. ) ;
#314 = CARTESIAN_POINT ( 'NONE',  ( 6.271495267020404194E-14, -0.3500000000000036970, 29.89999999999999858 ) ) ;
#315 = AXIS2_PLACEMENT_3D ( 'NONE', #114, #87, #196 ) ;
#316 = DIRECTION ( 'NONE',  ( 4.275831445896958607E-31, 1.000000000000000000, 1.224646799147353207E-16 ) ) ;
#317 = SECURITY_CLASSIFICATION ( '', '', #281 ) ;
#318 = DIRECTION ( 'NONE',  ( -3.491481338843133355E-15, 1.224646799147353207E-16, -1.000000000000000000 ) ) ;
#319 = DIRECTION ( 'NONE',  ( 0.0000000000000000000, 1.000000000000000000, 0.0000000000000000000 ) ) ;
#320 = EDGE_CURVE ( 'NONE', #185, #4, #179, .T. ) ;
#321 = LINE ( 'NONE', #292, #163 ) ;
#322 = AXIS2_PLACEMENT_3D ( 'NONE', #308, #218, #319 ) ;
#323 = AXIS2_PLACEMENT_3D ( 'NONE', #248, #22, #123 ) ;
#324 = CARTESIAN_POINT ( 'NONE',  ( 0.0000000000000000000, 0.0000000000000000000, 0.0000000000000000000 ) ) ;
#325 = EDGE_CURVE ( 'NONE', #153, #233, #303, .T. ) ;
#326 = CYLINDRICAL_SURFACE ( 'NONE', #63, 0.3499999999999967026 ) ;
#327 = MANIFOLD_SOLID_BREP ( 'Corps-Déplacer/Copier1[1]', #38 ) ;
#328 =( NAMED_UNIT ( * ) PLANE_ANGLE_UNIT ( ) SI_UNIT ( $, .RADIAN. ) );
#329 = APPROVAL_PERSON_ORGANIZATION ( #3, #119, #254 ) ;
#330 = CARTESIAN_POINT ( 'NONE',  ( 0.0000000000000000000, 0.0000000000000000000, 0.0000000000000000000 ) ) ;
#331 = DIRECTION ( 'NONE',  ( 5.502656983963589188E-31, 1.000000000000000000, 1.548860246407879853E-16 ) ) ;
#332 = ADVANCED_FACE ( 'NONE', ( #92 ), #280, .T. ) ;
#333 = CARTESIAN_POINT ( 'NONE',  ( 7.342627735031611997E-16, -0.3499999999999963141, 0.2103012166596461563 ) ) ;
#334 = AXIS2_PLACEMENT_3D ( 'NONE', #192, #35, #169 ) ;
#335 = EDGE_LOOP ( 'NONE', ( #6, #287, #2, #31 ) ) ;
#336 = PRODUCT_RELATED_PRODUCT_CATEGORY ( 'detail', '', ( #144 ) ) ;
#337 = ORIENTED_EDGE ( 'NONE', *, *, #199, .T. ) ;
ENDSEC;
END-ISO-10303-21;
