ISO-10303-21;
HEADER;
FILE_DESCRIPTION (( 'STEP AP203' ),
    '1' );
FILE_NAME ('54483.step',
    '2021-09-03T07:48:21',
    ( '' ),
    ( '' ),
    'SwSTEP 2.0',
    'SolidWorks 2019',
    '' );
FILE_SCHEMA (( 'CONFIG_CONTROL_DESIGN' ));
ENDSEC;

DATA;
#1 = DIRECTION ( 'NONE',  ( -2.962969145211166002E-31, -1.000000000000000000, -8.340016711427052663E-17 ) ) ;
#2 = CC_DESIGN_PERSON_AND_ORGANIZATION_ASSIGNMENT ( #9, #232, ( #319 ) ) ;
#3 = AXIS2_PLACEMENT_3D ( 'NONE', #318, #262, #290 ) ;
#4 = CONICAL_SURFACE ( 'NONE', #136, 0.2250000000000000056, 0.7853981633974512766 ) ;
#5 = CARTESIAN_POINT ( 'NONE',  ( 6.271189105320643294E-14, -0.3249999999999977907, 6.000000000000000000 ) ) ;
#6 = DIRECTION ( 'NONE',  ( 3.491481338843133355E-15, -1.224646799147353207E-16, 1.000000000000000000 ) ) ;
#7 = PERSON_AND_ORGANIZATION_ROLE ( 'creator' ) ;
#8 = CC_DESIGN_APPROVAL ( #329, ( #156 ) ) ;
#9 = PERSON_AND_ORGANIZATION ( #240, #278 ) ;
#10 = ORIENTED_EDGE ( 'NONE', *, *, #193, .T. ) ;
#11 = EDGE_LOOP ( 'NONE', ( #298, #148, #230, #192 ) ) ;
#12 = COORDINATED_UNIVERSAL_TIME_OFFSET ( 1, 0, .AHEAD. ) ;
#13 = CC_DESIGN_DATE_AND_TIME_ASSIGNMENT ( #333, #201, ( #156 ) ) ;
#14 = LINE ( 'NONE', #150, #82 ) ;
#15 = CONICAL_SURFACE ( 'NONE', #49, 0.3249999999999962919, 1.029744258676649649 ) ;
#16 = VERTEX_POINT ( 'NONE', #103 ) ;
#17 = CIRCLE ( 'NONE', #151, 0.3249999999999970690 ) ;
#18 = SECURITY_CLASSIFICATION_LEVEL ( 'unclassified' ) ;
#19 = CARTESIAN_POINT ( 'NONE',  ( 1.043952920314096810E-13, -3.661693929450586610E-15, 29.89999999999999858 ) ) ;
#20 = EDGE_CURVE ( 'NONE', #149, #191, #127, .T. ) ;
#21 = PERSON_AND_ORGANIZATION_ROLE ( 'classification_officer' ) ;
#22 = ORIENTED_EDGE ( 'NONE', *, *, #66, .T. ) ;
#23 = EDGE_LOOP ( 'NONE', ( #97, #68, #257, #74 ) ) ;
#24 = VECTOR ( 'NONE', #202, 1000.000000000000000 ) ;
#25 = CONICAL_SURFACE ( 'NONE', #228, 0.2250000000000000056, 0.7853981633974512766 ) ;
#26 = CARTESIAN_POINT ( 'NONE',  ( 0.0000000000000000000, 0.0000000000000000000, 0.0000000000000000000 ) ) ;
#27 = EDGE_CURVE ( 'NONE', #271, #149, #14, .T. ) ;
#28 = CARTESIAN_POINT ( 'NONE',  ( 1.043952920314096810E-13, 0.3249999999999962919, 29.89999999999999858 ) ) ;
#29 = CARTESIAN_POINT ( 'NONE',  ( 0.0000000000000000000, 0.0000000000000000000, 0.0000000000000000000 ) ) ;
#30 = CARTESIAN_POINT ( 'NONE',  ( 2.094888803305880013E-14, 0.3249999999999962919, 6.000000000000000000 ) ) ;
#31 = CARTESIAN_POINT ( 'NONE',  ( 1.047444401652940007E-13, -3.673940397442059178E-15, 30.00000000000000000 ) ) ;
#32 = DESIGN_CONTEXT ( 'detailed design', #235, 'design' ) ;
#33 = APPROVAL_DATE_TIME ( #267, #244 ) ;
#34 = EDGE_LOOP ( 'NONE', ( #75, #253, #172, #256 ) ) ;
#35 = AXIS2_PLACEMENT_3D ( 'NONE', #243, #112, #273 ) ;
#36 = MECHANICAL_CONTEXT ( 'NONE', #142, 'mechanical' ) ;
#37 = PRODUCT_DEFINITION ( 'UNKNOWN', '', #319, #32 ) ;
#38 = ORIENTED_EDGE ( 'NONE', *, *, #116, .F. ) ;
#39 = DATE_AND_TIME ( #272, #129 ) ;
#40 = VERTEX_POINT ( 'NONE', #330 ) ;
#41 = DIRECTION ( 'NONE',  ( 0.0000000000000000000, 1.000000000000000000, 0.0000000000000000000 ) ) ;
#42 = CLOSED_SHELL ( 'NONE', ( #332, #133, #203, #275, #304, #213 ) ) ;
#43 = PERSON_AND_ORGANIZATION ( #240, #278 ) ;
#44 = ORIENTED_EDGE ( 'NONE', *, *, #20, .T. ) ;
#45 = EDGE_CURVE ( 'NONE', #279, #152, #130, .T. ) ;
#46 = EDGE_LOOP ( 'NONE', ( #175, #117 ) ) ;
#47 = PERSON_AND_ORGANIZATION_ROLE ( 'design_supplier' ) ;
#48 = CARTESIAN_POINT ( 'NONE',  ( 1.389645219916505110E-31, 0.3249999999999985123, 3.980102097228879866E-17 ) ) ;
#49 = AXIS2_PLACEMENT_3D ( 'NONE', #200, #206, #180 ) ;
#50 = EDGE_CURVE ( 'NONE', #16, #153, #328, .T. ) ;
#51 = EDGE_LOOP ( 'NONE', ( #223, #313, #284, #302 ) ) ;
#52 = LOCAL_TIME ( 9, 48, 21.00000000000000000, #12 ) ;
#53 = ORIENTED_EDGE ( 'NONE', *, *, #45, .F. ) ;
#54 = DIRECTION ( 'NONE',  ( -3.491481338843133355E-15, 1.224646799147353207E-16, -1.000000000000000000 ) ) ;
#55 = CYLINDRICAL_SURFACE ( 'NONE', #105, 0.3249999999999985123 ) ;
#56 = APPROVAL_PERSON_ORGANIZATION ( #167, #189, #64 ) ;
#57 = CC_DESIGN_PERSON_AND_ORGANIZATION_ASSIGNMENT ( #327, #47, ( #319 ) ) ;
#58 = DIRECTION ( 'NONE',  ( -2.468850131082257455E-15, 0.7071067811865497932, -0.7071067811865453523 ) ) ;
#59 = CYLINDRICAL_SURFACE ( 'NONE', #104, 0.3249999999999966804 ) ;
#60 = DIRECTION ( 'NONE',  ( -3.491481338843133355E-15, 1.224646799147353207E-16, -1.000000000000000000 ) ) ;
#61 = EDGE_CURVE ( 'NONE', #279, #149, #70, .T. ) ;
#62 = CARTESIAN_POINT ( 'NONE',  ( 7.216164535109379972E-16, 0.3249999999999962919, 0.1952797011839570718 ) ) ;
#63 = CALENDAR_DATE ( 2021, 3, 9 ) ;
#64 = APPROVAL_ROLE ( '' ) ;
#65 = CIRCLE ( 'NONE', #299, 0.3249999999999962919 ) ;
#66 = EDGE_CURVE ( 'NONE', #149, #279, #145, .T. ) ;
#67 = CARTESIAN_POINT ( 'NONE',  ( 1.047444401652940007E-13, -3.673940397442059178E-15, 30.00000000000000000 ) ) ;
#68 = ORIENTED_EDGE ( 'NONE', *, *, #91, .T. ) ;
#69 = CC_DESIGN_PERSON_AND_ORGANIZATION_ASSIGNMENT ( #221, #196, ( #80 ) ) ;
#70 = CIRCLE ( 'NONE', #241, 0.3250000000000000111 ) ;
#71 = ORIENTED_EDGE ( 'NONE', *, *, #139, .T. ) ;
#72 = CARTESIAN_POINT ( 'NONE',  ( 1.043952920314096810E-13, -3.661693929450586610E-15, 29.89999999999999858 ) ) ;
#73 = CC_DESIGN_DATE_AND_TIME_ASSIGNMENT ( #114, #297, ( #37 ) ) ;
#74 = ORIENTED_EDGE ( 'NONE', *, *, #66, .F. ) ;
#75 = ORIENTED_EDGE ( 'NONE', *, *, #178, .F. ) ;
#76 = DATE_AND_TIME ( #101, #95 ) ;
#77 = DIRECTION ( 'NONE',  ( -3.491481338843133355E-15, 1.224646799147353207E-16, -1.000000000000000000 ) ) ;
#78 = CARTESIAN_POINT ( 'NONE',  ( 2.094888803305880013E-14, 2.437109646825484401E-33, 6.000000000000000000 ) ) ;
#79 = CC_DESIGN_PERSON_AND_ORGANIZATION_ASSIGNMENT ( #43, #7, ( #37 ) ) ;
#80 = PRODUCT ( '54483', '54483', '', ( #36 ) ) ;
#81 = LINE ( 'NONE', #185, #140 ) ;
#82 = VECTOR ( 'NONE', #236, 1000.000000000000114 ) ;
#83 = FACE_OUTER_BOUND ( 'NONE', #11, .T. ) ;
#84 = EDGE_CURVE ( 'NONE', #16, #40, #334, .T. ) ;
#85 = FACE_OUTER_BOUND ( 'NONE', #124, .T. ) ;
#86 = DIRECTION ( 'NONE',  ( -3.491481338843133355E-15, 1.224646799147353207E-16, -1.000000000000000000 ) ) ;
#87 = CIRCLE ( 'NONE', #111, 0.3249999999999970690 ) ;
#88 = UNCERTAINTY_MEASURE_WITH_UNIT (LENGTH_MEASURE( 1.000000000000000082E-05 ), #270, 'distance_accuracy_value', 'NONE');
#89 = APPROVAL_ROLE ( '' ) ;
#90 = EDGE_LOOP ( 'NONE', ( #169, #22, #164, #38 ) ) ;
#91 = EDGE_CURVE ( 'NONE', #271, #310, #165, .T. ) ;
#92 = APPROVAL_STATUS ( 'not_yet_approved' ) ;
#93 = AXIS2_PLACEMENT_3D ( 'NONE', #72, #77, #331 ) ;
#94 = VECTOR ( 'NONE', #307, 1000.000000000000000 ) ;
#95 = LOCAL_TIME ( 9, 48, 21.00000000000000000, #229 ) ;
#96 = COORDINATED_UNIVERSAL_TIME_OFFSET ( 1, 0, .AHEAD. ) ;
#97 = ORIENTED_EDGE ( 'NONE', *, *, #27, .F. ) ;
#98 = DIRECTION ( 'NONE',  ( -3.491481338843133355E-15, 1.224646799147353207E-16, -1.000000000000000000 ) ) ;
#99 = DIRECTION ( 'NONE',  ( -3.491481338843133355E-15, 1.224646799147353207E-16, -1.000000000000000000 ) ) ;
#100 = ADVANCED_FACE ( 'NONE', ( #227 ), #15, .T. ) ;
#101 = CALENDAR_DATE ( 2021, 3, 9 ) ;
#102 = DIRECTION ( 'NONE',  ( 0.0000000000000000000, 1.000000000000000000, 0.0000000000000000000 ) ) ;
#103 = CARTESIAN_POINT ( 'NONE',  ( 0.0000000000000000000, 0.0000000000000000000, 0.0000000000000000000 ) ) ;
#104 = AXIS2_PLACEMENT_3D ( 'NONE', #29, #86, #184 ) ;
#105 = AXIS2_PLACEMENT_3D ( 'NONE', #131, #207, #158 ) ;
#106 = DIRECTION ( 'NONE',  ( 1.798245827342160317E-15, -0.8571673007021098911, 0.5150380749100582634 ) ) ;
#107 = EDGE_CURVE ( 'NONE', #121, #153, #174, .T. ) ;
#108 = FACE_OUTER_BOUND ( 'NONE', #34, .T. ) ;
#109 = DIRECTION ( 'NONE',  ( 3.491481338843133355E-15, -1.224646799147353207E-16, 1.000000000000000000 ) ) ;
#110 = CARTESIAN_POINT ( 'NONE',  ( 1.085515275377098941E-14, -0.3249999999999978462, 6.000000000000000000 ) ) ;
#111 = AXIS2_PLACEMENT_3D ( 'NONE', #113, #238, #239 ) ;
#112 = DIRECTION ( 'NONE',  ( -3.491481338843133355E-15, 1.224646799147353207E-16, -1.000000000000000000 ) ) ;
#113 = CARTESIAN_POINT ( 'NONE',  ( 2.094888803305880013E-14, -7.347880794884119736E-16, 6.000000000000000000 ) ) ;
#114 = DATE_AND_TIME ( #324, #260 ) ;
#115 = DIRECTION ( 'NONE',  ( -3.491481338843133355E-15, 1.224646799147353207E-16, -1.000000000000000000 ) ) ;
#116 = EDGE_CURVE ( 'NONE', #191, #152, #216, .T. ) ;
#117 = ORIENTED_EDGE ( 'NONE', *, *, #116, .T. ) ;
#118 = CARTESIAN_POINT ( 'NONE',  ( 1.047444401652940007E-13, -3.673940397442059178E-15, 30.00000000000000000 ) ) ;
#119 = ADVANCED_FACE ( 'NONE', ( #85 ), #292, .T. ) ;
#120 = CARTESIAN_POINT ( 'NONE',  ( 2.094888803305880013E-14, -7.347880794884119736E-16, 6.000000000000000000 ) ) ;
#121 = VERTEX_POINT ( 'NONE', #294 ) ;
#122 = EDGE_LOOP ( 'NONE', ( #249, #251 ) ) ;
#123 = APPROVAL_ROLE ( '' ) ;
#124 = EDGE_LOOP ( 'NONE', ( #322, #195 ) ) ;
#125 = DIRECTION ( 'NONE',  ( -3.491481338843133355E-15, 1.224646799147353207E-16, -1.000000000000000000 ) ) ;
#126 = SHAPE_DEFINITION_REPRESENTATION ( #285, #274 ) ;
#127 = LINE ( 'NONE', #233, #182 ) ;
#128 = EDGE_CURVE ( 'NONE', #310, #271, #259, .T. ) ;
#129 = LOCAL_TIME ( 9, 48, 21.00000000000000000, #194 ) ;
#130 = LINE ( 'NONE', #48, #94 ) ;
#131 = CARTESIAN_POINT ( 'NONE',  ( 0.0000000000000000000, 0.0000000000000000000, 0.0000000000000000000 ) ) ;
#132 = DIRECTION ( 'NONE',  ( 4.275831445896958607E-31, 1.000000000000000000, 1.224646799147353207E-16 ) ) ;
#133 = ADVANCED_FACE ( 'NONE', ( #261 ), #138, .T. ) ;
#134 = AXIS2_PLACEMENT_3D ( 'NONE', #78, #337, #314 ) ;
#135 = CARTESIAN_POINT ( 'NONE',  ( 6.818154325386492910E-16, -2.391486609933845906E-17, 0.1952797011839570440 ) ) ;
#136 = AXIS2_PLACEMENT_3D ( 'NONE', #67, #220, #141 ) ;
#137 = DIRECTION ( 'NONE',  ( -3.491481338843133355E-15, 1.224646799147353207E-16, -1.000000000000000000 ) ) ;
#138 = CYLINDRICAL_SURFACE ( 'NONE', #323, 0.3249999999999985123 ) ;
#139 = EDGE_CURVE ( 'NONE', #153, #40, #288, .T. ) ;
#140 = VECTOR ( 'NONE', #137, 1000.000000000000000 ) ;
#141 = DIRECTION ( 'NONE',  ( 0.0000000000000000000, 1.000000000000000000, 0.0000000000000000000 ) ) ;
#142 = APPLICATION_CONTEXT ( 'configuration controlled 3d designs of mechanical parts and assemblies' ) ;
#143 = APPROVAL_DATE_TIME ( #39, #189 ) ;
#144 = ORIENTED_EDGE ( 'NONE', *, *, #84, .F. ) ;
#145 = CIRCLE ( 'NONE', #93, 0.3250000000000000111 ) ;
#146 = APPROVAL_PERSON_ORGANIZATION ( #217, #244, #89 ) ;
#147 = PERSON_AND_ORGANIZATION ( #240, #278 ) ;
#148 = ORIENTED_EDGE ( 'NONE', *, *, #178, .T. ) ;
#149 = VERTEX_POINT ( 'NONE', #317 ) ;
#150 = CARTESIAN_POINT ( 'NONE',  ( 1.047719947182748167E-13, -0.2250000000000036693, 30.00000000000000000 ) ) ;
#151 = AXIS2_PLACEMENT_3D ( 'NONE', #120, #246, #248 ) ;
#152 = VERTEX_POINT ( 'NONE', #30 ) ;
#153 = VERTEX_POINT ( 'NONE', #62 ) ;
#154 = CC_DESIGN_PERSON_AND_ORGANIZATION_ASSIGNMENT ( #226, #21, ( #156 ) ) ;
#155 = DIRECTION ( 'NONE',  ( 0.0000000000000000000, 1.000000000000000000, 0.0000000000000000000 ) ) ;
#156 = SECURITY_CLASSIFICATION ( '', '', #18 ) ;
#157 = DIRECTION ( 'NONE',  ( -4.275831445896958607E-31, -1.000000000000000000, -1.224646799147353207E-16 ) ) ;
#158 = DIRECTION ( 'NONE',  ( 4.275831445896958607E-31, 1.000000000000000000, 1.224646799147353207E-16 ) ) ;
#159 = CARTESIAN_POINT ( 'NONE',  ( 6.818154325386492910E-16, -2.391486609933845906E-17, 0.1952797011839570440 ) ) ;
#160 = VECTOR ( 'NONE', #58, 1000.000000000000114 ) ;
#161 = DIRECTION ( 'NONE',  ( 2.962969145211166002E-31, 1.000000000000000000, 8.340016711427052663E-17 ) ) ;
#162 = FACE_OUTER_BOUND ( 'NONE', #46, .T. ) ;
#163 = DIRECTION ( 'NONE',  ( -3.491481338843133355E-15, 1.224646799147353207E-16, -1.000000000000000000 ) ) ;
#164 = ORIENTED_EDGE ( 'NONE', *, *, #45, .T. ) ;
#165 = CIRCLE ( 'NONE', #205, 0.2250000000000000056 ) ;
#166 = CIRCLE ( 'NONE', #335, 0.3249999999999970690 ) ;
#167 = PERSON_AND_ORGANIZATION ( #240, #278 ) ;
#168 =( NAMED_UNIT ( * ) SI_UNIT ( $, .STERADIAN. ) SOLID_ANGLE_UNIT ( ) );
#169 = ORIENTED_EDGE ( 'NONE', *, *, #20, .F. ) ;
#170 = DIRECTION ( 'NONE',  ( 1.000000000000000000, 0.0000000000000000000, 0.0000000000000000000 ) ) ;
#171 = EDGE_LOOP ( 'NONE', ( #144, #277, #71 ) ) ;
#172 = ORIENTED_EDGE ( 'NONE', *, *, #107, .T. ) ;
#173 = ADVANCED_FACE ( 'NONE', ( #108 ), #59, .T. ) ;
#174 = LINE ( 'NONE', #280, #24 ) ;
#175 = ORIENTED_EDGE ( 'NONE', *, *, #312, .T. ) ;
#176 = AXIS2_PLACEMENT_3D ( 'NONE', #183, #6, #157 ) ;
#177 = CALENDAR_DATE ( 2021, 3, 9 ) ;
#178 = EDGE_CURVE ( 'NONE', #219, #40, #81, .T. ) ;
#179 = ORIENTED_EDGE ( 'NONE', *, *, #50, .F. ) ;
#180 = DIRECTION ( 'NONE',  ( -2.962969145211166002E-31, -1.000000000000000000, -8.340016711427052663E-17 ) ) ;
#181 = CARTESIAN_POINT ( 'NONE',  ( 1.046035438853283861E-13, -0.2250000000000036693, 30.00000000000000000 ) ) ;
#182 = VECTOR ( 'NONE', #98, 1000.000000000000000 ) ;
#183 = CARTESIAN_POINT ( 'NONE',  ( 2.094888803305880013E-14, 2.437109646825484401E-33, 6.000000000000000000 ) ) ;
#184 = DIRECTION ( 'NONE',  ( 4.275831445896958607E-31, 1.000000000000000000, 1.224646799147353207E-16 ) ) ;
#185 = CARTESIAN_POINT ( 'NONE',  ( 3.980102097228843504E-17, -0.3249999999999966804, -3.980102097228870621E-17 ) ) ;
#186 = AXIS2_PLACEMENT_3D ( 'NONE', #211, #109, #1 ) ;
#187 = LINE ( 'NONE', #316, #160 ) ;
#188 =( GEOMETRIC_REPRESENTATION_CONTEXT ( 3 ) GLOBAL_UNCERTAINTY_ASSIGNED_CONTEXT ( ( #88 ) ) GLOBAL_UNIT_ASSIGNED_CONTEXT ( ( #270, #247, #168 ) ) REPRESENTATION_CONTEXT ( 'NONE', 'WORKASPACE' ) );
#189 = APPROVAL ( #92, 'UNSPECIFIED' ) ;
#190 = COORDINATED_UNIVERSAL_TIME_OFFSET ( 1, 0, .AHEAD. ) ;
#191 = VERTEX_POINT ( 'NONE', #5 ) ;
#192 = ORIENTED_EDGE ( 'NONE', *, *, #107, .F. ) ;
#193 = EDGE_CURVE ( 'NONE', #40, #153, #65, .T. ) ;
#194 = COORDINATED_UNIVERSAL_TIME_OFFSET ( 1, 0, .AHEAD. ) ;
#195 = ORIENTED_EDGE ( 'NONE', *, *, #308, .F. ) ;
#196 = PERSON_AND_ORGANIZATION_ROLE ( 'design_owner' ) ;
#197 = APPROVAL_STATUS ( 'not_yet_approved' ) ;
#198 = CARTESIAN_POINT ( 'NONE',  ( 7.216164535109378986E-16, 0.3249999999999962919, 0.1952797011839570718 ) ) ;
#199 = ADVANCED_FACE ( 'NONE', ( #265 ), #255, .T. ) ;
#200 = CARTESIAN_POINT ( 'NONE',  ( 6.818154325386492910E-16, -2.391486609933845906E-17, 0.1952797011839570440 ) ) ;
#201 = DATE_TIME_ROLE ( 'classification_date' ) ;
#202 = DIRECTION ( 'NONE',  ( -3.491481338843133355E-15, 1.224646799147353207E-16, -1.000000000000000000 ) ) ;
#203 = ADVANCED_FACE ( 'NONE', ( #162 ), #245, .F. ) ;
#204 = EDGE_LOOP ( 'NONE', ( #179, #258, #10 ) ) ;
#205 = AXIS2_PLACEMENT_3D ( 'NONE', #309, #99, #102 ) ;
#206 = DIRECTION ( 'NONE',  ( 3.491481338843133355E-15, -1.224646799147353207E-16, 1.000000000000000000 ) ) ;
#207 = DIRECTION ( 'NONE',  ( -3.491481338843133355E-15, 1.224646799147353207E-16, -1.000000000000000000 ) ) ;
#208 = DIRECTION ( 'NONE',  ( 0.0000000000000000000, 1.000000000000000000, 0.0000000000000000000 ) ) ;
#209 = EDGE_CURVE ( 'NONE', #121, #219, #87, .T. ) ;
#210 = AXIS2_PLACEMENT_3D ( 'NONE', #159, #336, #263 ) ;
#211 = CARTESIAN_POINT ( 'NONE',  ( 6.818154325386492910E-16, -2.391486609933845906E-17, 0.1952797011839570440 ) ) ;
#212 = DIRECTION ( 'NONE',  ( -3.491481338843133355E-15, 1.224646799147353207E-16, -1.000000000000000000 ) ) ;
#213 = ADVANCED_FACE ( 'NONE', ( #287 ), #214, .F. ) ;
#214 = PLANE ( 'NONE',  #3 ) ;
#215 = MANIFOLD_SOLID_BREP ( 'Corps-Déplacer/Copier1[1]', #42 ) ;
#216 = CIRCLE ( 'NONE', #282, 0.3249999999999970690 ) ;
#217 = PERSON_AND_ORGANIZATION ( #240, #278 ) ;
#218 = CARTESIAN_POINT ( 'NONE',  ( 1.047444401652940007E-13, 0.2249999999999963141, 30.00000000000000000 ) ) ;
#219 = VERTEX_POINT ( 'NONE', #110 ) ;
#220 = DIRECTION ( 'NONE',  ( -3.491481338843133355E-15, 1.224646799147353207E-16, -1.000000000000000000 ) ) ;
#221 = PERSON_AND_ORGANIZATION ( #240, #278 ) ;
#222 = AXIS2_PLACEMENT_3D ( 'NONE', #31, #212, #208 ) ;
#223 = ORIENTED_EDGE ( 'NONE', *, *, #128, .T. ) ;
#224 = FACE_OUTER_BOUND ( 'NONE', #23, .T. ) ;
#225 = MANIFOLD_SOLID_BREP ( 'Corps-Déplacer/Copier1[2]', #311 ) ;
#226 = PERSON_AND_ORGANIZATION ( #240, #278 ) ;
#227 = FACE_OUTER_BOUND ( 'NONE', #171, .T. ) ;
#228 = AXIS2_PLACEMENT_3D ( 'NONE', #118, #115, #41 ) ;
#229 = COORDINATED_UNIVERSAL_TIME_OFFSET ( 1, 0, .AHEAD. ) ;
#230 = ORIENTED_EDGE ( 'NONE', *, *, #139, .F. ) ;
#231 = DIRECTION ( 'NONE',  ( 0.0000000000000000000, 1.000000000000000000, 0.0000000000000000000 ) ) ;
#232 = PERSON_AND_ORGANIZATION_ROLE ( 'creator' ) ;
#233 = CARTESIAN_POINT ( 'NONE',  ( 3.980102097228866307E-17, -0.3249999999999985123, -3.980102097228893424E-17 ) ) ;
#234 = CC_DESIGN_APPROVAL ( #244, ( #319 ) ) ;
#235 = APPLICATION_CONTEXT ( 'configuration controlled 3d designs of mechanical parts and assemblies' ) ;
#236 = DIRECTION ( 'NONE',  ( -2.382254525458708792E-15, -0.7071067811865495711, -0.7071067811865455743 ) ) ;
#237 = EDGE_CURVE ( 'NONE', #310, #279, #187, .T. ) ;
#238 = DIRECTION ( 'NONE',  ( -3.491481338843133355E-15, 1.224646799147353207E-16, -1.000000000000000000 ) ) ;
#239 = DIRECTION ( 'NONE',  ( 0.0000000000000000000, 1.000000000000000000, 0.0000000000000000000 ) ) ;
#240 = PERSON ( 'UNSPECIFIED', 'UNSPECIFIED', 'UNSPECIFIED', ('UNSPECIFIED'), ('UNSPECIFIED'), ('UNSPECIFIED') ) ;
#241 = AXIS2_PLACEMENT_3D ( 'NONE', #19, #125, #231 ) ;
#242 = CC_DESIGN_APPROVAL ( #189, ( #37 ) ) ;
#243 = CARTESIAN_POINT ( 'NONE',  ( 0.0000000000000000000, 0.0000000000000000000, 0.0000000000000000000 ) ) ;
#244 = APPROVAL ( #250, 'UNSPECIFIED' ) ;
#245 = PLANE ( 'NONE',  #176 ) ;
#246 = DIRECTION ( 'NONE',  ( -3.491481338843133355E-15, 1.224646799147353207E-16, -1.000000000000000000 ) ) ;
#247 =( NAMED_UNIT ( * ) PLANE_ANGLE_UNIT ( ) SI_UNIT ( $, .RADIAN. ) );
#248 = DIRECTION ( 'NONE',  ( 0.0000000000000000000, 1.000000000000000000, 0.0000000000000000000 ) ) ;
#249 = ORIENTED_EDGE ( 'NONE', *, *, #128, .F. ) ;
#250 = APPROVAL_STATUS ( 'not_yet_approved' ) ;
#251 = ORIENTED_EDGE ( 'NONE', *, *, #91, .F. ) ;
#252 = APPROVAL_DATE_TIME ( #76, #329 ) ;
#253 = ORIENTED_EDGE ( 'NONE', *, *, #308, .T. ) ;
#254 = ORIENTED_EDGE ( 'NONE', *, *, #61, .T. ) ;
#255 = CONICAL_SURFACE ( 'NONE', #186, 0.3249999999999962919, 1.029744258676649649 ) ;
#256 = ORIENTED_EDGE ( 'NONE', *, *, #193, .F. ) ;
#257 = ORIENTED_EDGE ( 'NONE', *, *, #237, .T. ) ;
#258 = ORIENTED_EDGE ( 'NONE', *, *, #84, .T. ) ;
#259 = CIRCLE ( 'NONE', #222, 0.2250000000000000056 ) ;
#260 = LOCAL_TIME ( 9, 48, 21.00000000000000000, #96 ) ;
#261 = FACE_OUTER_BOUND ( 'NONE', #326, .T. ) ;
#262 = DIRECTION ( 'NONE',  ( -3.491481338843133355E-15, 1.224646799147353207E-16, -1.000000000000000000 ) ) ;
#263 = DIRECTION ( 'NONE',  ( 2.962969145211166002E-31, 1.000000000000000000, 8.340016711427052663E-17 ) ) ;
#264 = VECTOR ( 'NONE', #106, 1000.000000000000000 ) ;
#265 = FACE_OUTER_BOUND ( 'NONE', #204, .T. ) ;
#266 = FACE_OUTER_BOUND ( 'NONE', #90, .T. ) ;
#267 = DATE_AND_TIME ( #63, #301 ) ;
#268 = PRODUCT_RELATED_PRODUCT_CATEGORY ( 'detail', '', ( #80 ) ) ;
#269 = VECTOR ( 'NONE', #281, 999.9999999999998863 ) ;
#270 =( LENGTH_UNIT ( ) NAMED_UNIT ( * ) SI_UNIT ( .MILLI., .METRE. ) );
#271 = VERTEX_POINT ( 'NONE', #181 ) ;
#272 = CALENDAR_DATE ( 2021, 3, 9 ) ;
#273 = DIRECTION ( 'NONE',  ( 4.275831445896958607E-31, 1.000000000000000000, 1.224646799147353207E-16 ) ) ;
#274 = ADVANCED_BREP_SHAPE_REPRESENTATION ( '54483', ( #215, #225, #293 ), #188 ) ;
#275 = ADVANCED_FACE ( 'NONE', ( #266 ), #55, .T. ) ;
#276 = APPLICATION_PROTOCOL_DEFINITION ( 'international standard', 'config_control_design', 1994, #142 ) ;
#277 = ORIENTED_EDGE ( 'NONE', *, *, #50, .T. ) ;
#278 = ORGANIZATION ( 'UNSPECIFIED', 'UNSPECIFIED', '' ) ;
#279 = VERTEX_POINT ( 'NONE', #28 ) ;
#280 = CARTESIAN_POINT ( 'NONE',  ( 1.389645219916497228E-31, 0.3249999999999966804, 3.980102097228857063E-17 ) ) ;
#281 = DIRECTION ( 'NONE',  ( 1.903218546456022717E-15, 0.8571673007021097801, 0.5150380749100585964 ) ) ;
#282 = AXIS2_PLACEMENT_3D ( 'NONE', #286, #54, #155 ) ;
#283 = CC_DESIGN_SECURITY_CLASSIFICATION ( #156, ( #319 ) ) ;
#284 = ORIENTED_EDGE ( 'NONE', *, *, #61, .F. ) ;
#285 = PRODUCT_DEFINITION_SHAPE ( 'NONE', 'NONE',  #37 ) ;
#286 = CARTESIAN_POINT ( 'NONE',  ( 2.094888803305880013E-14, -7.347880794884119736E-16, 6.000000000000000000 ) ) ;
#287 = FACE_OUTER_BOUND ( 'NONE', #122, .T. ) ;
#288 = CIRCLE ( 'NONE', #210, 0.3249999999999962919 ) ;
#289 = APPROVAL_PERSON_ORGANIZATION ( #147, #329, #123 ) ;
#290 = DIRECTION ( 'NONE',  ( 4.275831445896958607E-31, 1.000000000000000000, 1.224646799147353207E-16 ) ) ;
#291 = CYLINDRICAL_SURFACE ( 'NONE', #35, 0.3249999999999966804 ) ;
#292 = PLANE ( 'NONE',  #134 ) ;
#293 = AXIS2_PLACEMENT_3D ( 'NONE', #300, #320, #170 ) ;
#294 = CARTESIAN_POINT ( 'NONE',  ( 2.094888803305880013E-14, 0.3249999999999962919, 6.000000000000000000 ) ) ;
#295 = DIRECTION ( 'NONE',  ( 0.0000000000000000000, 1.000000000000000000, 0.0000000000000000000 ) ) ;
#296 = ADVANCED_FACE ( 'NONE', ( #83 ), #291, .T. ) ;
#297 = DATE_TIME_ROLE ( 'creation_date' ) ;
#298 = ORIENTED_EDGE ( 'NONE', *, *, #209, .T. ) ;
#299 = AXIS2_PLACEMENT_3D ( 'NONE', #135, #60, #161 ) ;
#300 = CARTESIAN_POINT ( 'NONE',  ( 0.0000000000000000000, 0.0000000000000000000, 0.0000000000000000000 ) ) ;
#301 = LOCAL_TIME ( 9, 48, 21.00000000000000000, #190 ) ;
#302 = ORIENTED_EDGE ( 'NONE', *, *, #237, .F. ) ;
#303 = CARTESIAN_POINT ( 'NONE',  ( 2.094888803305880013E-14, -7.347880794884119736E-16, 6.000000000000000000 ) ) ;
#304 = ADVANCED_FACE ( 'NONE', ( #224 ), #25, .T. ) ;
#305 = APPLICATION_PROTOCOL_DEFINITION ( 'international standard', 'config_control_design', 1994, #235 ) ;
#306 = CARTESIAN_POINT ( 'NONE',  ( 6.818154325386491924E-16, -0.3249999999999962919, 0.1952797011839570163 ) ) ;
#307 = DIRECTION ( 'NONE',  ( -3.491481338843133355E-15, 1.224646799147353207E-16, -1.000000000000000000 ) ) ;
#308 = EDGE_CURVE ( 'NONE', #219, #121, #166, .T. ) ;
#309 = CARTESIAN_POINT ( 'NONE',  ( 1.047444401652940007E-13, -3.673940397442059178E-15, 30.00000000000000000 ) ) ;
#310 = VERTEX_POINT ( 'NONE', #218 ) ;
#311 = CLOSED_SHELL ( 'NONE', ( #296, #100, #199, #173, #119 ) ) ;
#312 = EDGE_CURVE ( 'NONE', #152, #191, #17, .T. ) ;
#313 = ORIENTED_EDGE ( 'NONE', *, *, #27, .T. ) ;
#314 = DIRECTION ( 'NONE',  ( -4.275831445896958607E-31, -1.000000000000000000, -1.224646799147353207E-16 ) ) ;
#315 = DIRECTION ( 'NONE',  ( -3.491481338843133355E-15, 1.224646799147353207E-16, -1.000000000000000000 ) ) ;
#316 = CARTESIAN_POINT ( 'NONE',  ( 1.047444401652940007E-13, 0.2249999999999963141, 30.00000000000000000 ) ) ;
#317 = CARTESIAN_POINT ( 'NONE',  ( 6.271189105320615526E-14, -0.3250000000000037303, 29.89999999999999858 ) ) ;
#318 = CARTESIAN_POINT ( 'NONE',  ( 1.047444401652940007E-13, 1.687229755494534386E-33, 30.00000000000000000 ) ) ;
#319 = PRODUCT_DEFINITION_FORMATION_WITH_SPECIFIED_SOURCE ( 'ANY', '', #80, .NOT_KNOWN. ) ;
#320 = DIRECTION ( 'NONE',  ( 0.0000000000000000000, 0.0000000000000000000, 1.000000000000000000 ) ) ;
#321 = FACE_OUTER_BOUND ( 'NONE', #51, .T. ) ;
#322 = ORIENTED_EDGE ( 'NONE', *, *, #209, .F. ) ;
#323 = AXIS2_PLACEMENT_3D ( 'NONE', #26, #315, #132 ) ;
#324 = CALENDAR_DATE ( 2021, 3, 9 ) ;
#325 = ORIENTED_EDGE ( 'NONE', *, *, #312, .F. ) ;
#326 = EDGE_LOOP ( 'NONE', ( #254, #44, #325, #53 ) ) ;
#327 = PERSON_AND_ORGANIZATION ( #240, #278 ) ;
#328 = LINE ( 'NONE', #198, #269 ) ;
#329 = APPROVAL ( #197, 'UNSPECIFIED' ) ;
#330 = CARTESIAN_POINT ( 'NONE',  ( 6.818154325386491924E-16, -0.3249999999999962919, 0.1952797011839570163 ) ) ;
#331 = DIRECTION ( 'NONE',  ( 0.0000000000000000000, 1.000000000000000000, 0.0000000000000000000 ) ) ;
#332 = ADVANCED_FACE ( 'NONE', ( #321 ), #4, .T. ) ;
#333 = DATE_AND_TIME ( #177, #52 ) ;
#334 = LINE ( 'NONE', #306, #264 ) ;
#335 = AXIS2_PLACEMENT_3D ( 'NONE', #303, #163, #295 ) ;
#336 = DIRECTION ( 'NONE',  ( -3.491481338843133355E-15, 1.224646799147353207E-16, -1.000000000000000000 ) ) ;
#337 = DIRECTION ( 'NONE',  ( 3.491481338843133355E-15, -1.224646799147353207E-16, 1.000000000000000000 ) ) ;
ENDSEC;
END-ISO-10303-21;
