ISO-10303-21;
HEADER;
FILE_DESCRIPTION (( 'STEP AP203' ),
    '1' );
FILE_NAME ('54482.step',
    '2021-09-03T07:48:20',
    ( '' ),
    ( '' ),
    'SwSTEP 2.0',
    'SolidWorks 2019',
    '' );
FILE_SCHEMA (( 'CONFIG_CONTROL_DESIGN' ));
ENDSEC;

DATA;
#1 = CLOSED_SHELL ( 'NONE', ( #122, #84, #58, #35, #104, #266 ) ) ;
#2 = ORIENTED_EDGE ( 'NONE', *, *, #186, .T. ) ;
#3 = EDGE_CURVE ( 'NONE', #270, #56, #91, .T. ) ;
#4 = VECTOR ( 'NONE', #170, 1000.000000000000000 ) ;
#5 = EDGE_LOOP ( 'NONE', ( #6, #212, #86 ) ) ;
#6 = ORIENTED_EDGE ( 'NONE', *, *, #171, .F. ) ;
#7 = DIRECTION ( 'NONE',  ( 3.209883240645433084E-31, 1.000000000000000000, 9.035018104045982860E-17 ) ) ;
#8 = AXIS2_PLACEMENT_3D ( 'NONE', #123, #9, #37 ) ;
#9 = DIRECTION ( 'NONE',  ( -3.491481338843133355E-15, 1.224646799147353207E-16, -1.000000000000000000 ) ) ;
#10 = PRODUCT_DEFINITION_SHAPE ( 'NONE', 'NONE',  #281 ) ;
#11 = DIRECTION ( 'NONE',  ( 0.0000000000000000000, 1.000000000000000000, 0.0000000000000000000 ) ) ;
#12 = FACE_OUTER_BOUND ( 'NONE', #51, .T. ) ;
#13 = CIRCLE ( 'NONE', #146, 0.1999999999999999833 ) ;
#14 = LOCAL_TIME ( 9, 48, 20.00000000000000000, #249 ) ;
#15 = DIRECTION ( 'NONE',  ( 0.0000000000000000000, 1.000000000000000000, 0.0000000000000000000 ) ) ;
#16 = CARTESIAN_POINT ( 'NONE',  ( 1.043952920314096810E-13, 0.2999999999999962697, 29.89999999999999858 ) ) ;
#17 = EDGE_CURVE ( 'NONE', #161, #270, #115, .T. ) ;
#18 = DIRECTION ( 'NONE',  ( -3.491481338843133355E-15, 1.224646799147353207E-16, -1.000000000000000000 ) ) ;
#19 = CIRCLE ( 'NONE', #195, 0.2999999999999970468 ) ;
#20 = CARTESIAN_POINT ( 'NONE',  ( 2.094888803305880013E-14, -7.347880794884119736E-16, 6.000000000000000000 ) ) ;
#21 = CARTESIAN_POINT ( 'NONE',  ( 2.094888803305880013E-14, 0.2999999999999962697, 6.000000000000000000 ) ) ;
#22 = EDGE_CURVE ( 'NONE', #59, #166, #87, .T. ) ;
#23 = DIRECTION ( 'NONE',  ( -3.491481338843133355E-15, 1.224646799147353207E-16, -1.000000000000000000 ) ) ;
#24 = PERSON_AND_ORGANIZATION ( #76, #72 ) ;
#25 = ORIENTED_EDGE ( 'NONE', *, *, #248, .T. ) ;
#26 = COORDINATED_UNIVERSAL_TIME_OFFSET ( 1, 0, .AHEAD. ) ;
#27 = ORIENTED_EDGE ( 'NONE', *, *, #41, .F. ) ;
#28 = SHAPE_DEFINITION_REPRESENTATION ( #10, #238 ) ;
#29 = CONICAL_SURFACE ( 'NONE', #311, 0.2999999999999962697, 1.029744258676649649 ) ;
#30 = ORIENTED_EDGE ( 'NONE', *, *, #201, .T. ) ;
#31 = ORIENTED_EDGE ( 'NONE', *, *, #305, .T. ) ;
#32 = APPROVAL_ROLE ( '' ) ;
#33 = VERTEX_POINT ( 'NONE', #69 ) ;
#34 = DIRECTION ( 'NONE',  ( -3.491481338843133355E-15, 1.224646799147353207E-16, -1.000000000000000000 ) ) ;
#35 = ADVANCED_FACE ( 'NONE', ( #148 ), #300, .T. ) ;
#36 = CARTESIAN_POINT ( 'NONE',  ( 6.270882943620857150E-14, -0.2999999999999978240, 6.000000000000000000 ) ) ;
#37 = DIRECTION ( 'NONE',  ( 4.275831445896959482E-31, 1.000000000000000000, 1.224646799147353207E-16 ) ) ;
#38 = DIRECTION ( 'NONE',  ( -3.491481338843133355E-15, 1.224646799147353207E-16, -1.000000000000000000 ) ) ;
#39 = AXIS2_PLACEMENT_3D ( 'NONE', #101, #312, #205 ) ;
#40 = CARTESIAN_POINT ( 'NONE',  ( 2.094888803305880013E-14, 0.2999999999999962697, 6.000000000000000000 ) ) ;
#41 = EDGE_CURVE ( 'NONE', #166, #59, #93, .T. ) ;
#42 = FACE_OUTER_BOUND ( 'NONE', #141, .T. ) ;
#43 = AXIS2_PLACEMENT_3D ( 'NONE', #330, #38, #15 ) ;
#44 = AXIS2_PLACEMENT_3D ( 'NONE', #120, #227, #70 ) ;
#45 = CC_DESIGN_PERSON_AND_ORGANIZATION_ASSIGNMENT ( #216, #162, ( #281 ) ) ;
#46 = CARTESIAN_POINT ( 'NONE',  ( 0.0000000000000000000, 0.0000000000000000000, 0.0000000000000000000 ) ) ;
#47 =( NAMED_UNIT ( * ) SI_UNIT ( $, .STERADIAN. ) SOLID_ANGLE_UNIT ( ) );
#48 = FACE_OUTER_BOUND ( 'NONE', #272, .T. ) ;
#49 = VECTOR ( 'NONE', #95, 1000.000000000000000 ) ;
#50 = APPROVAL_DATE_TIME ( #164, #110 ) ;
#51 = EDGE_LOOP ( 'NONE', ( #190, #143, #83, #62 ) ) ;
#52 = PRODUCT_RELATED_PRODUCT_CATEGORY ( 'detail', '', ( #64 ) ) ;
#53 = APPROVAL_ROLE ( '' ) ;
#54 = ORIENTED_EDGE ( 'NONE', *, *, #67, .F. ) ;
#55 = DATE_AND_TIME ( #140, #297 ) ;
#56 = VERTEX_POINT ( 'NONE', #229 ) ;
#57 = COORDINATED_UNIVERSAL_TIME_OFFSET ( 1, 0, .AHEAD. ) ;
#58 = ADVANCED_FACE ( 'NONE', ( #224 ), #92, .F. ) ;
#59 = VERTEX_POINT ( 'NONE', #197 ) ;
#60 = CC_DESIGN_APPROVAL ( #254, ( #245 ) ) ;
#61 = DATE_AND_TIME ( #298, #139 ) ;
#62 = ORIENTED_EDGE ( 'NONE', *, *, #22, .F. ) ;
#63 = CARTESIAN_POINT ( 'NONE',  ( 1.047444401652940007E-13, 0.1999999999999962919, 30.00000000000000000 ) ) ;
#64 = PRODUCT ( '54482', '54482', '', ( #213 ) ) ;
#65 = CYLINDRICAL_SURFACE ( 'NONE', #8, 0.2999999999999984901 ) ;
#66 = APPROVAL_PERSON_ORGANIZATION ( #184, #301, #32 ) ;
#67 = EDGE_CURVE ( 'NONE', #33, #56, #304, .T. ) ;
#68 = LINE ( 'NONE', #172, #49 ) ;
#69 = CARTESIAN_POINT ( 'NONE',  ( 1.082586746629086497E-14, -0.2999999999999978240, 6.000000000000000000 ) ) ;
#70 = DIRECTION ( 'NONE',  ( 0.0000000000000000000, 1.000000000000000000, 0.0000000000000000000 ) ) ;
#71 = EDGE_CURVE ( 'NONE', #247, #166, #149, .T. ) ;
#72 = ORGANIZATION ( 'UNSPECIFIED', 'UNSPECIFIED', '' ) ;
#73 = CARTESIAN_POINT ( 'NONE',  ( 2.094888803305880013E-14, 2.249639673992752542E-33, 6.000000000000000000 ) ) ;
#74 = CYLINDRICAL_SURFACE ( 'NONE', #169, 0.2999999999999966582 ) ;
#75 = DIRECTION ( 'NONE',  ( -3.491481338843133355E-15, 1.224646799147353207E-16, -1.000000000000000000 ) ) ;
#76 = PERSON ( 'UNSPECIFIED', 'UNSPECIFIED', 'UNSPECIFIED', ('UNSPECIFIED'), ('UNSPECIFIED'), ('UNSPECIFIED') ) ;
#77 = DIRECTION ( 'NONE',  ( 4.275831445896959482E-31, 1.000000000000000000, 1.224646799147353207E-16 ) ) ;
#78 = PERSON_AND_ORGANIZATION ( #76, #72 ) ;
#79 = AXIS2_PLACEMENT_3D ( 'NONE', #322, #88, #7 ) ;
#80 = PERSON_AND_ORGANIZATION_ROLE ( 'design_supplier' ) ;
#81 = EDGE_LOOP ( 'NONE', ( #217, #290, #106, #319 ) ) ;
#82 = SECURITY_CLASSIFICATION_LEVEL ( 'unclassified' ) ;
#83 = ORIENTED_EDGE ( 'NONE', *, *, #71, .T. ) ;
#84 = ADVANCED_FACE ( 'NONE', ( #259 ), #65, .T. ) ;
#85 = PERSON_AND_ORGANIZATION ( #76, #72 ) ;
#86 = ORIENTED_EDGE ( 'NONE', *, *, #3, .T. ) ;
#87 = CIRCLE ( 'NONE', #107, 0.2999999999999999889 ) ;
#88 = DIRECTION ( 'NONE',  ( -3.491481338843133355E-15, 1.224646799147353207E-16, -1.000000000000000000 ) ) ;
#89 = ORIENTED_EDGE ( 'NONE', *, *, #71, .F. ) ;
#90 = CARTESIAN_POINT ( 'NONE',  ( 6.661074955485575520E-16, 0.2999999999999962697, 0.1802581857082679040 ) ) ;
#91 = CIRCLE ( 'NONE', #79, 0.2999999999999962697 ) ;
#92 = PLANE ( 'NONE',  #191 ) ;
#93 = CIRCLE ( 'NONE', #303, 0.2999999999999999889 ) ;
#94 = CARTESIAN_POINT ( 'NONE',  ( 3.673940397442006497E-17, -0.2999999999999966582, -3.673940397442031765E-17 ) ) ;
#95 = DIRECTION ( 'NONE',  ( -3.491481338843133355E-15, 1.224646799147353207E-16, -1.000000000000000000 ) ) ;
#96 = CARTESIAN_POINT ( 'NONE',  ( 0.0000000000000000000, 0.0000000000000000000, 0.0000000000000000000 ) ) ;
#97 = CONICAL_SURFACE ( 'NONE', #114, 0.2999999999999962697, 1.029744258676649649 ) ;
#98 = CARTESIAN_POINT ( 'NONE',  ( 6.293680915741372837E-16, -2.207526101477393851E-17, 0.1802581857082678762 ) ) ;
#99 = EDGE_CURVE ( 'NONE', #59, #185, #68, .T. ) ;
#100 = FACE_OUTER_BOUND ( 'NONE', #296, .T. ) ;
#101 = CARTESIAN_POINT ( 'NONE',  ( 2.094888803305880013E-14, -7.347880794884119736E-16, 6.000000000000000000 ) ) ;
#102 = AXIS2_PLACEMENT_3D ( 'NONE', #336, #142, #240 ) ;
#103 = CARTESIAN_POINT ( 'NONE',  ( 1.047689331012769553E-13, -0.2000000000000036748, 30.00000000000000000 ) ) ;
#104 = ADVANCED_FACE ( 'NONE', ( #12 ), #316, .T. ) ;
#105 = PERSON_AND_ORGANIZATION ( #76, #72 ) ;
#106 = ORIENTED_EDGE ( 'NONE', *, *, #179, .T. ) ;
#107 = AXIS2_PLACEMENT_3D ( 'NONE', #256, #168, #119 ) ;
#108 = COORDINATED_UNIVERSAL_TIME_OFFSET ( 1, 0, .AHEAD. ) ;
#109 = ORIENTED_EDGE ( 'NONE', *, *, #334, .T. ) ;
#110 = APPROVAL ( #189, 'UNSPECIFIED' ) ;
#111 = ORIENTED_EDGE ( 'NONE', *, *, #215, .T. ) ;
#112 = PERSON_AND_ORGANIZATION ( #76, #72 ) ;
#113 = ORIENTED_EDGE ( 'NONE', *, *, #17, .F. ) ;
#114 = AXIS2_PLACEMENT_3D ( 'NONE', #306, #174, #280 ) ;
#115 = LINE ( 'NONE', #302, #121 ) ;
#116 = UNCERTAINTY_MEASURE_WITH_UNIT (LENGTH_MEASURE( 1.000000000000000082E-05 ), #200, 'distance_accuracy_value', 'NONE');
#117 = CC_DESIGN_PERSON_AND_ORGANIZATION_ASSIGNMENT ( #105, #182, ( #245 ) ) ;
#118 = LINE ( 'NONE', #326, #178 ) ;
#119 = DIRECTION ( 'NONE',  ( 0.0000000000000000000, 1.000000000000000000, 0.0000000000000000000 ) ) ;
#120 = CARTESIAN_POINT ( 'NONE',  ( 1.047444401652940007E-13, -3.673940397442059178E-15, 30.00000000000000000 ) ) ;
#121 = VECTOR ( 'NONE', #151, 1000.000000000000000 ) ;
#122 = ADVANCED_FACE ( 'NONE', ( #199 ), #132, .T. ) ;
#123 = CARTESIAN_POINT ( 'NONE',  ( 0.0000000000000000000, 0.0000000000000000000, 0.0000000000000000000 ) ) ;
#124 = CARTESIAN_POINT ( 'NONE',  ( 6.293680915741371851E-16, -0.2999999999999962697, 0.1802581857082678485 ) ) ;
#125 = DIRECTION ( 'NONE',  ( -3.491481338843133355E-15, 1.224646799147353207E-16, -1.000000000000000000 ) ) ;
#126 = AXIS2_PLACEMENT_3D ( 'NONE', #203, #75, #309 ) ;
#127 = FACE_OUTER_BOUND ( 'NONE', #137, .T. ) ;
#128 = DIRECTION ( 'NONE',  ( 3.491481338843133355E-15, -1.224646799147353207E-16, 1.000000000000000000 ) ) ;
#129 = DIRECTION ( 'NONE',  ( -3.491481338843133355E-15, 1.224646799147353207E-16, -1.000000000000000000 ) ) ;
#130 = APPLICATION_CONTEXT ( 'configuration controlled 3d designs of mechanical parts and assemblies' ) ;
#131 = ADVANCED_FACE ( 'NONE', ( #255 ), #97, .T. ) ;
#132 = CONICAL_SURFACE ( 'NONE', #157, 0.1999999999999999833, 0.7853981633974512766 ) ;
#133 = DIRECTION ( 'NONE',  ( -3.491481338843133355E-15, 1.224646799147353207E-16, -1.000000000000000000 ) ) ;
#134 = CALENDAR_DATE ( 2021, 3, 9 ) ;
#135 = ORIENTED_EDGE ( 'NONE', *, *, #171, .T. ) ;
#136 = COORDINATED_UNIVERSAL_TIME_OFFSET ( 1, 0, .AHEAD. ) ;
#137 = EDGE_LOOP ( 'NONE', ( #54, #31, #214, #321 ) ) ;
#138 = CIRCLE ( 'NONE', #43, 0.1999999999999999833 ) ;
#139 = LOCAL_TIME ( 9, 48, 20.00000000000000000, #57 ) ;
#140 = CALENDAR_DATE ( 2021, 3, 9 ) ;
#141 = EDGE_LOOP ( 'NONE', ( #163, #135, #25 ) ) ;
#142 = DIRECTION ( 'NONE',  ( 0.0000000000000000000, 0.0000000000000000000, 1.000000000000000000 ) ) ;
#143 = ORIENTED_EDGE ( 'NONE', *, *, #204, .T. ) ;
#144 = ORIENTED_EDGE ( 'NONE', *, *, #204, .F. ) ;
#145 = EDGE_CURVE ( 'NONE', #247, #250, #138, .T. ) ;
#146 = AXIS2_PLACEMENT_3D ( 'NONE', #232, #133, #237 ) ;
#147 = LINE ( 'NONE', #124, #4 ) ;
#148 = FACE_OUTER_BOUND ( 'NONE', #81, .T. ) ;
#149 = LINE ( 'NONE', #63, #165 ) ;
#150 = EDGE_CURVE ( 'NONE', #293, #270, #283, .T. ) ;
#151 = DIRECTION ( 'NONE',  ( -3.491481338843133355E-15, 1.224646799147353207E-16, -1.000000000000000000 ) ) ;
#152 = CC_DESIGN_APPROVAL ( #301, ( #281 ) ) ;
#153 = APPROVAL_PERSON_ORGANIZATION ( #24, #254, #294 ) ;
#154 = APPLICATION_CONTEXT ( 'configuration controlled 3d designs of mechanical parts and assemblies' ) ;
#155 = CARTESIAN_POINT ( 'NONE',  ( 1.043952920314096810E-13, -3.661693929450586610E-15, 29.89999999999999858 ) ) ;
#156 = CLOSED_SHELL ( 'NONE', ( #288, #131, #233, #228, #324 ) ) ;
#157 = AXIS2_PLACEMENT_3D ( 'NONE', #226, #34, #198 ) ;
#158 = DIRECTION ( 'NONE',  ( 3.209883240645433084E-31, 1.000000000000000000, 9.035018104045982860E-17 ) ) ;
#159 = CARTESIAN_POINT ( 'NONE',  ( 6.661074955485575520E-16, 0.2999999999999962697, 0.1802581857082679040 ) ) ;
#160 = DATE_AND_TIME ( #211, #14 ) ;
#161 = VERTEX_POINT ( 'NONE', #40 ) ;
#162 = PERSON_AND_ORGANIZATION_ROLE ( 'creator' ) ;
#163 = ORIENTED_EDGE ( 'NONE', *, *, #150, .F. ) ;
#164 = DATE_AND_TIME ( #134, #282 ) ;
#165 = VECTOR ( 'NONE', #279, 1000.000000000000114 ) ;
#166 = VERTEX_POINT ( 'NONE', #16 ) ;
#167 = ORIENTED_EDGE ( 'NONE', *, *, #305, .F. ) ;
#168 = DIRECTION ( 'NONE',  ( -3.491481338843133355E-15, 1.224646799147353207E-16, -1.000000000000000000 ) ) ;
#169 = AXIS2_PLACEMENT_3D ( 'NONE', #234, #176, #77 ) ;
#170 = DIRECTION ( 'NONE',  ( 1.798245827342160317E-15, -0.8571673007021098911, 0.5150380749100582634 ) ) ;
#171 = EDGE_CURVE ( 'NONE', #293, #56, #147, .T. ) ;
#172 = CARTESIAN_POINT ( 'NONE',  ( 3.673940397442029300E-17, -0.2999999999999984901, -3.673940397442053952E-17 ) ) ;
#173 = CARTESIAN_POINT ( 'NONE',  ( 2.094888803305880013E-14, 2.249639673992752542E-33, 6.000000000000000000 ) ) ;
#174 = DIRECTION ( 'NONE',  ( 3.491481338843133355E-15, -1.224646799147353207E-16, 1.000000000000000000 ) ) ;
#175 = CC_DESIGN_PERSON_AND_ORGANIZATION_ASSIGNMENT ( #78, #80, ( #307 ) ) ;
#176 = DIRECTION ( 'NONE',  ( -3.491481338843133355E-15, 1.224646799147353207E-16, -1.000000000000000000 ) ) ;
#177 = DIRECTION ( 'NONE',  ( 3.491481338843133355E-15, -1.224646799147353207E-16, 1.000000000000000000 ) ) ;
#178 = VECTOR ( 'NONE', #278, 1000.000000000000000 ) ;
#179 = EDGE_CURVE ( 'NONE', #166, #209, #118, .T. ) ;
#180 = DIRECTION ( 'NONE',  ( -2.382254525458708792E-15, -0.7071067811865495711, -0.7071067811865455743 ) ) ;
#181 = FACE_OUTER_BOUND ( 'NONE', #188, .T. ) ;
#182 = PERSON_AND_ORGANIZATION_ROLE ( 'classification_officer' ) ;
#183 = CIRCLE ( 'NONE', #231, 0.2999999999999962697 ) ;
#184 = PERSON_AND_ORGANIZATION ( #76, #72 ) ;
#185 = VERTEX_POINT ( 'NONE', #36 ) ;
#186 = EDGE_CURVE ( 'NONE', #185, #209, #252, .T. ) ;
#187 = APPROVAL_STATUS ( 'not_yet_approved' ) ;
#188 = EDGE_LOOP ( 'NONE', ( #109, #251, #274, #113 ) ) ;
#189 = APPROVAL_STATUS ( 'not_yet_approved' ) ;
#190 = ORIENTED_EDGE ( 'NONE', *, *, #201, .F. ) ;
#191 = AXIS2_PLACEMENT_3D ( 'NONE', #173, #329, #222 ) ;
#192 = APPLICATION_PROTOCOL_DEFINITION ( 'international standard', 'config_control_design', 1994, #154 ) ;
#193 = DIRECTION ( 'NONE',  ( 4.275831445896959482E-31, 1.000000000000000000, 1.224646799147353207E-16 ) ) ;
#194 = DIRECTION ( 'NONE',  ( -3.491481338843133355E-15, 1.224646799147353207E-16, -1.000000000000000000 ) ) ;
#195 = AXIS2_PLACEMENT_3D ( 'NONE', #20, #129, #287 ) ;
#196 = CIRCLE ( 'NONE', #276, 0.2999999999999970468 ) ;
#197 = CARTESIAN_POINT ( 'NONE',  ( 6.270882943620825596E-14, -0.3000000000000036526, 29.89999999999999858 ) ) ;
#198 = DIRECTION ( 'NONE',  ( 0.0000000000000000000, 1.000000000000000000, 0.0000000000000000000 ) ) ;
#199 = FACE_OUTER_BOUND ( 'NONE', #241, .T. ) ;
#200 =( LENGTH_UNIT ( ) NAMED_UNIT ( * ) SI_UNIT ( .MILLI., .METRE. ) );
#201 = EDGE_CURVE ( 'NONE', #250, #59, #262, .T. ) ;
#202 = DIRECTION ( 'NONE',  ( -3.209883240645433084E-31, -1.000000000000000000, -9.035018104045982860E-17 ) ) ;
#203 = CARTESIAN_POINT ( 'NONE',  ( 1.047444401652940007E-13, 1.499759782661802356E-33, 30.00000000000000000 ) ) ;
#204 = EDGE_CURVE ( 'NONE', #250, #247, #13, .T. ) ;
#205 = DIRECTION ( 'NONE',  ( 0.0000000000000000000, 1.000000000000000000, 0.0000000000000000000 ) ) ;
#206 = CC_DESIGN_APPROVAL ( #110, ( #307 ) ) ;
#207 = CARTESIAN_POINT ( 'NONE',  ( 1.047444401652940007E-13, 0.1999999999999962919, 30.00000000000000000 ) ) ;
#208 = APPROVAL_DATE_TIME ( #55, #301 ) ;
#209 = VERTEX_POINT ( 'NONE', #21 ) ;
#210 = AXIS2_PLACEMENT_3D ( 'NONE', #73, #177, #284 ) ;
#211 = CALENDAR_DATE ( 2021, 3, 9 ) ;
#212 = ORIENTED_EDGE ( 'NONE', *, *, #150, .T. ) ;
#213 = MECHANICAL_CONTEXT ( 'NONE', #154, 'mechanical' ) ;
#214 = ORIENTED_EDGE ( 'NONE', *, *, #17, .T. ) ;
#215 = EDGE_CURVE ( 'NONE', #209, #185, #196, .T. ) ;
#216 = PERSON_AND_ORGANIZATION ( #76, #72 ) ;
#217 = ORIENTED_EDGE ( 'NONE', *, *, #99, .F. ) ;
#218 = DESIGN_CONTEXT ( 'detailed design', #130, 'design' ) ;
#219 =( GEOMETRIC_REPRESENTATION_CONTEXT ( 3 ) GLOBAL_UNCERTAINTY_ASSIGNED_CONTEXT ( ( #116 ) ) GLOBAL_UNIT_ASSIGNED_CONTEXT ( ( #200, #308, #47 ) ) REPRESENTATION_CONTEXT ( 'NONE', 'WORKASPACE' ) );
#220 = MANIFOLD_SOLID_BREP ( 'Corps-Déplacer/Copier1[1]', #1 ) ;
#221 = ORIENTED_EDGE ( 'NONE', *, *, #334, .F. ) ;
#222 = DIRECTION ( 'NONE',  ( -4.275831445896958607E-31, -1.000000000000000000, -1.224646799147353207E-16 ) ) ;
#223 = MANIFOLD_SOLID_BREP ( 'Corps-Déplacer/Copier1[2]', #156 ) ;
#224 = FACE_OUTER_BOUND ( 'NONE', #315, .T. ) ;
#225 = CIRCLE ( 'NONE', #39, 0.2999999999999970468 ) ;
#226 = CARTESIAN_POINT ( 'NONE',  ( 1.047444401652940007E-13, -3.673940397442059178E-15, 30.00000000000000000 ) ) ;
#227 = DIRECTION ( 'NONE',  ( -3.491481338843133355E-15, 1.224646799147353207E-16, -1.000000000000000000 ) ) ;
#228 = ADVANCED_FACE ( 'NONE', ( #127 ), #313, .T. ) ;
#229 = CARTESIAN_POINT ( 'NONE',  ( 6.293680915741371851E-16, -0.2999999999999962697, 0.1802581857082678485 ) ) ;
#230 = DIRECTION ( 'NONE',  ( 0.0000000000000000000, 1.000000000000000000, 0.0000000000000000000 ) ) ;
#231 = AXIS2_PLACEMENT_3D ( 'NONE', #263, #23, #158 ) ;
#232 = CARTESIAN_POINT ( 'NONE',  ( 1.047444401652940007E-13, -3.673940397442059178E-15, 30.00000000000000000 ) ) ;
#233 = ADVANCED_FACE ( 'NONE', ( #42 ), #29, .T. ) ;
#234 = CARTESIAN_POINT ( 'NONE',  ( 0.0000000000000000000, 0.0000000000000000000, 0.0000000000000000000 ) ) ;
#235 = CARTESIAN_POINT ( 'NONE',  ( 2.094888803305880013E-14, -7.347880794884119736E-16, 6.000000000000000000 ) ) ;
#236 = APPROVAL_PERSON_ORGANIZATION ( #85, #110, #53 ) ;
#237 = DIRECTION ( 'NONE',  ( 0.0000000000000000000, 1.000000000000000000, 0.0000000000000000000 ) ) ;
#238 = ADVANCED_BREP_SHAPE_REPRESENTATION ( '54482', ( #220, #223, #102 ), #219 ) ;
#239 = CC_DESIGN_DATE_AND_TIME_ASSIGNMENT ( #320, #246, ( #281 ) ) ;
#240 = DIRECTION ( 'NONE',  ( 1.000000000000000000, 0.0000000000000000000, 0.0000000000000000000 ) ) ;
#241 = EDGE_LOOP ( 'NONE', ( #273, #30, #27, #89 ) ) ;
#242 = PERSON_AND_ORGANIZATION_ROLE ( 'creator' ) ;
#243 = ORIENTED_EDGE ( 'NONE', *, *, #179, .F. ) ;
#244 = AXIS2_PLACEMENT_3D ( 'NONE', #46, #286, #331 ) ;
#245 = SECURITY_CLASSIFICATION ( '', '', #82 ) ;
#246 = DATE_TIME_ROLE ( 'creation_date' ) ;
#247 = VERTEX_POINT ( 'NONE', #207 ) ;
#248 = EDGE_CURVE ( 'NONE', #56, #270, #183, .T. ) ;
#249 = COORDINATED_UNIVERSAL_TIME_OFFSET ( 1, 0, .AHEAD. ) ;
#250 = VERTEX_POINT ( 'NONE', #310 ) ;
#251 = ORIENTED_EDGE ( 'NONE', *, *, #67, .T. ) ;
#252 = CIRCLE ( 'NONE', #291, 0.2999999999999970468 ) ;
#253 = DIRECTION ( 'NONE',  ( 1.903218546456022717E-15, 0.8571673007021097801, 0.5150380749100585964 ) ) ;
#254 = APPROVAL ( #187, 'UNSPECIFIED' ) ;
#255 = FACE_OUTER_BOUND ( 'NONE', #5, .T. ) ;
#256 = CARTESIAN_POINT ( 'NONE',  ( 1.043952920314096810E-13, -3.661693929450586610E-15, 29.89999999999999858 ) ) ;
#257 = VECTOR ( 'NONE', #253, 999.9999999999998863 ) ;
#258 = DIRECTION ( 'NONE',  ( -3.491481338843133355E-15, 1.224646799147353207E-16, -1.000000000000000000 ) ) ;
#259 = FACE_OUTER_BOUND ( 'NONE', #295, .T. ) ;
#260 = CC_DESIGN_PERSON_AND_ORGANIZATION_ASSIGNMENT ( #289, #242, ( #307 ) ) ;
#261 = AXIS2_PLACEMENT_3D ( 'NONE', #275, #328, #193 ) ;
#262 = LINE ( 'NONE', #103, #335 ) ;
#263 = CARTESIAN_POINT ( 'NONE',  ( 6.293680915741372837E-16, -2.207526101477393851E-17, 0.1802581857082678762 ) ) ;
#264 = CARTESIAN_POINT ( 'NONE',  ( 2.094888803305880013E-14, -7.347880794884119736E-16, 6.000000000000000000 ) ) ;
#265 = LOCAL_TIME ( 9, 48, 20.00000000000000000, #136 ) ;
#266 = ADVANCED_FACE ( 'NONE', ( #100 ), #332, .F. ) ;
#267 = APPLICATION_PROTOCOL_DEFINITION ( 'international standard', 'config_control_design', 1994, #130 ) ;
#268 = ORIENTED_EDGE ( 'NONE', *, *, #145, .F. ) ;
#269 = PERSON_AND_ORGANIZATION_ROLE ( 'design_owner' ) ;
#270 = VERTEX_POINT ( 'NONE', #159 ) ;
#271 = APPROVAL_DATE_TIME ( #61, #254 ) ;
#272 = EDGE_LOOP ( 'NONE', ( #221, #167 ) ) ;
#273 = ORIENTED_EDGE ( 'NONE', *, *, #145, .T. ) ;
#274 = ORIENTED_EDGE ( 'NONE', *, *, #3, .F. ) ;
#275 = CARTESIAN_POINT ( 'NONE',  ( 0.0000000000000000000, 0.0000000000000000000, 0.0000000000000000000 ) ) ;
#276 = AXIS2_PLACEMENT_3D ( 'NONE', #264, #18, #230 ) ;
#277 = CC_DESIGN_SECURITY_CLASSIFICATION ( #245, ( #307 ) ) ;
#278 = DIRECTION ( 'NONE',  ( -3.491481338843133355E-15, 1.224646799147353207E-16, -1.000000000000000000 ) ) ;
#279 = DIRECTION ( 'NONE',  ( -2.468850131082257455E-15, 0.7071067811865497932, -0.7071067811865453523 ) ) ;
#280 = DIRECTION ( 'NONE',  ( -3.209883240645433084E-31, -1.000000000000000000, -9.035018104045982860E-17 ) ) ;
#281 = PRODUCT_DEFINITION ( 'UNKNOWN', '', #307, #218 ) ;
#282 = LOCAL_TIME ( 9, 48, 20.00000000000000000, #108 ) ;
#283 = LINE ( 'NONE', #90, #257 ) ;
#284 = DIRECTION ( 'NONE',  ( -4.275831445896958607E-31, -1.000000000000000000, -1.224646799147353207E-16 ) ) ;
#285 = DIRECTION ( 'NONE',  ( 0.0000000000000000000, 1.000000000000000000, 0.0000000000000000000 ) ) ;
#286 = DIRECTION ( 'NONE',  ( -3.491481338843133355E-15, 1.224646799147353207E-16, -1.000000000000000000 ) ) ;
#287 = DIRECTION ( 'NONE',  ( 0.0000000000000000000, 1.000000000000000000, 0.0000000000000000000 ) ) ;
#288 = ADVANCED_FACE ( 'NONE', ( #181 ), #74, .T. ) ;
#289 = PERSON_AND_ORGANIZATION ( #76, #72 ) ;
#290 = ORIENTED_EDGE ( 'NONE', *, *, #22, .T. ) ;
#291 = AXIS2_PLACEMENT_3D ( 'NONE', #235, #125, #285 ) ;
#292 = APPROVAL_STATUS ( 'not_yet_approved' ) ;
#293 = VERTEX_POINT ( 'NONE', #96 ) ;
#294 = APPROVAL_ROLE ( '' ) ;
#295 = EDGE_LOOP ( 'NONE', ( #325, #337, #299, #243 ) ) ;
#296 = EDGE_LOOP ( 'NONE', ( #268, #144 ) ) ;
#297 = LOCAL_TIME ( 9, 48, 20.00000000000000000, #26 ) ;
#298 = CALENDAR_DATE ( 2021, 3, 9 ) ;
#299 = ORIENTED_EDGE ( 'NONE', *, *, #215, .F. ) ;
#300 = CYLINDRICAL_SURFACE ( 'NONE', #261, 0.2999999999999984901 ) ;
#301 = APPROVAL ( #292, 'UNSPECIFIED' ) ;
#302 = CARTESIAN_POINT ( 'NONE',  ( 1.282749433769073438E-31, 0.2999999999999966582, 3.673940397442018823E-17 ) ) ;
#303 = AXIS2_PLACEMENT_3D ( 'NONE', #155, #194, #11 ) ;
#304 = LINE ( 'NONE', #94, #323 ) ;
#305 = EDGE_CURVE ( 'NONE', #33, #161, #19, .T. ) ;
#306 = CARTESIAN_POINT ( 'NONE',  ( 6.293680915741372837E-16, -2.207526101477393851E-17, 0.1802581857082678762 ) ) ;
#307 = PRODUCT_DEFINITION_FORMATION_WITH_SPECIFIED_SOURCE ( 'ANY', '', #64, .NOT_KNOWN. ) ;
#308 =( NAMED_UNIT ( * ) PLANE_ANGLE_UNIT ( ) SI_UNIT ( $, .RADIAN. ) );
#309 = DIRECTION ( 'NONE',  ( 4.275831445896958607E-31, 1.000000000000000000, 1.224646799147353207E-16 ) ) ;
#310 = CARTESIAN_POINT ( 'NONE',  ( 1.046004822683305372E-13, -0.2000000000000036748, 30.00000000000000000 ) ) ;
#311 = AXIS2_PLACEMENT_3D ( 'NONE', #98, #128, #202 ) ;
#312 = DIRECTION ( 'NONE',  ( -3.491481338843133355E-15, 1.224646799147353207E-16, -1.000000000000000000 ) ) ;
#313 = CYLINDRICAL_SURFACE ( 'NONE', #244, 0.2999999999999966582 ) ;
#314 = CALENDAR_DATE ( 2021, 3, 9 ) ;
#315 = EDGE_LOOP ( 'NONE', ( #111, #2 ) ) ;
#316 = CONICAL_SURFACE ( 'NONE', #44, 0.1999999999999999833, 0.7853981633974512766 ) ;
#317 = CC_DESIGN_PERSON_AND_ORGANIZATION_ASSIGNMENT ( #112, #269, ( #64 ) ) ;
#318 = DATE_TIME_ROLE ( 'classification_date' ) ;
#319 = ORIENTED_EDGE ( 'NONE', *, *, #186, .F. ) ;
#320 = DATE_AND_TIME ( #314, #265 ) ;
#321 = ORIENTED_EDGE ( 'NONE', *, *, #248, .F. ) ;
#322 = CARTESIAN_POINT ( 'NONE',  ( 6.293680915741372837E-16, -2.207526101477393851E-17, 0.1802581857082678762 ) ) ;
#323 = VECTOR ( 'NONE', #258, 1000.000000000000000 ) ;
#324 = ADVANCED_FACE ( 'NONE', ( #48 ), #333, .T. ) ;
#325 = ORIENTED_EDGE ( 'NONE', *, *, #41, .T. ) ;
#326 = CARTESIAN_POINT ( 'NONE',  ( 1.282749433769081320E-31, 0.2999999999999984901, 3.673940397442041009E-17 ) ) ;
#327 = CC_DESIGN_DATE_AND_TIME_ASSIGNMENT ( #160, #318, ( #245 ) ) ;
#328 = DIRECTION ( 'NONE',  ( -3.491481338843133355E-15, 1.224646799147353207E-16, -1.000000000000000000 ) ) ;
#329 = DIRECTION ( 'NONE',  ( 3.491481338843133355E-15, -1.224646799147353207E-16, 1.000000000000000000 ) ) ;
#330 = CARTESIAN_POINT ( 'NONE',  ( 1.047444401652940007E-13, -3.673940397442059178E-15, 30.00000000000000000 ) ) ;
#331 = DIRECTION ( 'NONE',  ( 4.275831445896959482E-31, 1.000000000000000000, 1.224646799147353207E-16 ) ) ;
#332 = PLANE ( 'NONE',  #126 ) ;
#333 = PLANE ( 'NONE',  #210 ) ;
#334 = EDGE_CURVE ( 'NONE', #161, #33, #225, .T. ) ;
#335 = VECTOR ( 'NONE', #180, 1000.000000000000114 ) ;
#336 = CARTESIAN_POINT ( 'NONE',  ( 0.0000000000000000000, 0.0000000000000000000, 0.0000000000000000000 ) ) ;
#337 = ORIENTED_EDGE ( 'NONE', *, *, #99, .T. ) ;
ENDSEC;
END-ISO-10303-21;
