ISO-10303-21;
HEADER;
FILE_DESCRIPTION (( 'STEP AP203' ),
    '1' );
FILE_NAME ('54481.step',
    '2021-09-03T07:48:19',
    ( '' ),
    ( '' ),
    'SwSTEP 2.0',
    'SolidWorks 2019',
    '' );
FILE_SCHEMA (( 'CONFIG_CONTROL_DESIGN' ));
ENDSEC;

DATA;
#1 = DIRECTION ( 'NONE',  ( 0.0000000000000000000, 1.000000000000000000, 0.0000000000000000000 ) ) ;
#2 = VECTOR ( 'NONE', #329, 1000.000000000000114 ) ;
#3 = FACE_OUTER_BOUND ( 'NONE', #296, .T. ) ;
#4 = CYLINDRICAL_SURFACE ( 'NONE', #81, 0.2749999999999966915 ) ;
#5 = CARTESIAN_POINT ( 'NONE',  ( 5.769207506096251778E-16, -2.023565593020942412E-17, 0.1652366702325786807 ) ) ;
#6 = COORDINATED_UNIVERSAL_TIME_OFFSET ( 1, 0, .AHEAD. ) ;
#7 = EDGE_LOOP ( 'NONE', ( #46, #236, #63, #75 ) ) ;
#8 = LOCAL_TIME ( 9, 48, 19.00000000000000000, #6 ) ;
#9 = AXIS2_PLACEMENT_3D ( 'NONE', #184, #186, #62 ) ;
#10 = AXIS2_PLACEMENT_3D ( 'NONE', #203, #59, #83 ) ;
#11 = PERSON_AND_ORGANIZATION ( #330, #275 ) ;
#12 = PRODUCT_DEFINITION ( 'UNKNOWN', '', #187, #294 ) ;
#13 = ORIENTED_EDGE ( 'NONE', *, *, #111, .T. ) ;
#14 = DATE_TIME_ROLE ( 'creation_date' ) ;
#15 = VERTEX_POINT ( 'NONE', #22 ) ;
#16 = DIRECTION ( 'NONE',  ( -3.491481338843133355E-15, 1.224646799147353207E-16, -1.000000000000000000 ) ) ;
#17 = AXIS2_PLACEMENT_3D ( 'NONE', #316, #127, #155 ) ;
#18 = CALENDAR_DATE ( 2021, 3, 9 ) ;
#19 = ORIENTED_EDGE ( 'NONE', *, *, #180, .F. ) ;
#20 = EDGE_CURVE ( 'NONE', #199, #311, #105, .T. ) ;
#21 = CARTESIAN_POINT ( 'NONE',  ( 1.175853647621657311E-31, 0.2749999999999985789, 3.367778697655204002E-17 ) ) ;
#22 = CARTESIAN_POINT ( 'NONE',  ( 1.079658217881073737E-14, -0.2749999999999978573, 6.000000000000000000 ) ) ;
#23 = SECURITY_CLASSIFICATION_LEVEL ( 'unclassified' ) ;
#24 = ORIENTED_EDGE ( 'NONE', *, *, #189, .F. ) ;
#25 = CC_DESIGN_PERSON_AND_ORGANIZATION_ASSIGNMENT ( #224, #171, ( #187 ) ) ;
#26 = PERSON_AND_ORGANIZATION_ROLE ( 'creator' ) ;
#27 = VERTEX_POINT ( 'NONE', #332 ) ;
#28 = CLOSED_SHELL ( 'NONE', ( #282, #158, #88, #247, #256 ) ) ;
#29 = DIRECTION ( 'NONE',  ( -3.491481338843133355E-15, 1.224646799147353207E-16, -1.000000000000000000 ) ) ;
#30 = CARTESIAN_POINT ( 'NONE',  ( 0.0000000000000000000, 0.0000000000000000000, 0.0000000000000000000 ) ) ;
#31 = LOCAL_TIME ( 9, 48, 19.00000000000000000, #138 ) ;
#32 = CC_DESIGN_PERSON_AND_ORGANIZATION_ASSIGNMENT ( #42, #211, ( #248 ) ) ;
#33 = DIRECTION ( 'NONE',  ( 3.491481338843133355E-15, -1.224646799147353207E-16, 1.000000000000000000 ) ) ;
#34 = CYLINDRICAL_SURFACE ( 'NONE', #17, 0.2749999999999985789 ) ;
#35 = CARTESIAN_POINT ( 'NONE',  ( 2.094888803305880013E-14, 2.062169701160020341E-33, 6.000000000000000000 ) ) ;
#36 = APPROVAL_PERSON_ORGANIZATION ( #11, #78, #159 ) ;
#37 = DIRECTION ( 'NONE',  ( 3.491481338843133355E-15, -1.224646799147353207E-16, 1.000000000000000000 ) ) ;
#38 =( LENGTH_UNIT ( ) NAMED_UNIT ( * ) SI_UNIT ( .MILLI., .METRE. ) );
#39 =( NAMED_UNIT ( * ) SI_UNIT ( $, .STERADIAN. ) SOLID_ANGLE_UNIT ( ) );
#40 = VERTEX_POINT ( 'NONE', #93 ) ;
#41 = PERSON_AND_ORGANIZATION ( #330, #275 ) ;
#42 = PERSON_AND_ORGANIZATION ( #330, #275 ) ;
#43 = ADVANCED_FACE ( 'NONE', ( #336 ), #77, .T. ) ;
#44 = CARTESIAN_POINT ( 'NONE',  ( 0.0000000000000000000, 0.0000000000000000000, 0.0000000000000000000 ) ) ;
#45 = PERSON_AND_ORGANIZATION ( #330, #275 ) ;
#46 = ORIENTED_EDGE ( 'NONE', *, *, #53, .T. ) ;
#47 = EDGE_CURVE ( 'NONE', #15, #144, #121, .T. ) ;
#48 = DIRECTION ( 'NONE',  ( -3.501690807976839435E-31, -1.000000000000000000, -9.856383386231990715E-17 ) ) ;
#49 = AXIS2_PLACEMENT_3D ( 'NONE', #178, #106, #286 ) ;
#50 = DIRECTION ( 'NONE',  ( -3.491481338843133355E-15, 1.224646799147353207E-16, -1.000000000000000000 ) ) ;
#51 = ORIENTED_EDGE ( 'NONE', *, *, #53, .F. ) ;
#52 = CARTESIAN_POINT ( 'NONE',  ( 1.047444401652940007E-13, -3.673940397442059178E-15, 30.00000000000000000 ) ) ;
#53 = EDGE_CURVE ( 'NONE', #27, #15, #177, .T. ) ;
#54 = FACE_OUTER_BOUND ( 'NONE', #161, .T. ) ;
#55 = LOCAL_TIME ( 9, 48, 19.00000000000000000, #302 ) ;
#56 = DIRECTION ( 'NONE',  ( 3.501690807976839435E-31, 1.000000000000000000, 9.856383386231990715E-17 ) ) ;
#57 = EDGE_CURVE ( 'NONE', #151, #173, #245, .T. ) ;
#58 = DIRECTION ( 'NONE',  ( -3.491481338843133355E-15, 1.224646799147353207E-16, -1.000000000000000000 ) ) ;
#59 = DIRECTION ( 'NONE',  ( 3.491481338843133355E-15, -1.224646799147353207E-16, 1.000000000000000000 ) ) ;
#60 = LOCAL_TIME ( 9, 48, 19.00000000000000000, #240 ) ;
#61 = DIRECTION ( 'NONE',  ( 1.798245827342160317E-15, -0.8571673007021098911, 0.5150380749100582634 ) ) ;
#62 = DIRECTION ( 'NONE',  ( 0.0000000000000000000, 1.000000000000000000, 0.0000000000000000000 ) ) ;
#63 = ORIENTED_EDGE ( 'NONE', *, *, #149, .F. ) ;
#64 = DATE_AND_TIME ( #320, #31 ) ;
#65 = ORIENTED_EDGE ( 'NONE', *, *, #297, .F. ) ;
#66 = DIRECTION ( 'NONE',  ( 3.501690807976839435E-31, 1.000000000000000000, 9.856383386231990715E-17 ) ) ;
#67 = APPLICATION_PROTOCOL_DEFINITION ( 'international standard', 'config_control_design', 1994, #207 ) ;
#68 = ORIENTED_EDGE ( 'NONE', *, *, #82, .F. ) ;
#69 = CONICAL_SURFACE ( 'NONE', #310, 0.1750000000000000167, 0.7853981633974512766 ) ;
#70 = DATE_AND_TIME ( #276, #153 ) ;
#71 = DIRECTION ( 'NONE',  ( 3.491481338843133355E-15, -1.224646799147353207E-16, 1.000000000000000000 ) ) ;
#72 = EDGE_CURVE ( 'NONE', #199, #151, #219, .T. ) ;
#73 = ORIENTED_EDGE ( 'NONE', *, *, #149, .T. ) ;
#74 = CARTESIAN_POINT ( 'NONE',  ( 1.175853647621649429E-31, 0.2749999999999966915, 3.367778697655181199E-17 ) ) ;
#75 = ORIENTED_EDGE ( 'NONE', *, *, #111, .F. ) ;
#76 = VECTOR ( 'NONE', #179, 1000.000000000000000 ) ;
#77 = CYLINDRICAL_SURFACE ( 'NONE', #237, 0.2749999999999985789 ) ;
#78 = APPROVAL ( #295, 'UNSPECIFIED' ) ;
#79 = DIRECTION ( 'NONE',  ( 4.275831445896958607E-31, 1.000000000000000000, 1.224646799147353454E-16 ) ) ;
#80 = FACE_OUTER_BOUND ( 'NONE', #139, .T. ) ;
#81 = AXIS2_PLACEMENT_3D ( 'NONE', #229, #128, #79 ) ;
#82 = EDGE_CURVE ( 'NONE', #173, #266, #324, .T. ) ;
#83 = DIRECTION ( 'NONE',  ( -3.501690807976839435E-31, -1.000000000000000000, -9.856383386231990715E-17 ) ) ;
#84 = DIRECTION ( 'NONE',  ( 4.275831445896958607E-31, 1.000000000000000000, 1.224646799147353207E-16 ) ) ;
#85 = FACE_OUTER_BOUND ( 'NONE', #7, .T. ) ;
#86 = CC_DESIGN_SECURITY_CLASSIFICATION ( #129, ( #187 ) ) ;
#87 = CARTESIAN_POINT ( 'NONE',  ( 5.769207506096250792E-16, -0.2749999999999963030, 0.1652366702325786529 ) ) ;
#88 = ADVANCED_FACE ( 'NONE', ( #306 ), #123, .T. ) ;
#89 = VERTEX_POINT ( 'NONE', #145 ) ;
#90 = APPROVAL_PERSON_ORGANIZATION ( #45, #176, #150 ) ;
#91 = MANIFOLD_SOLID_BREP ( 'Corps-Déplacer/Copier1[1]', #254 ) ;
#92 = CARTESIAN_POINT ( 'NONE',  ( 2.094888803305880013E-14, -7.347880794884119736E-16, 6.000000000000000000 ) ) ;
#93 = CARTESIAN_POINT ( 'NONE',  ( 6.270576781921035666E-14, -0.2750000000000036859, 29.89999999999999858 ) ) ;
#94 = EDGE_LOOP ( 'NONE', ( #309, #168, #13, #122 ) ) ;
#95 = APPROVAL_STATUS ( 'not_yet_approved' ) ;
#96 = DIRECTION ( 'NONE',  ( 4.275831445896957731E-31, 1.000000000000000000, 1.224646799147353207E-16 ) ) ;
#97 = EDGE_CURVE ( 'NONE', #311, #40, #120, .T. ) ;
#98 = AXIS2_PLACEMENT_3D ( 'NONE', #175, #33, #126 ) ;
#99 = ORIENTED_EDGE ( 'NONE', *, *, #136, .F. ) ;
#100 = DIRECTION ( 'NONE',  ( 4.275831445896958607E-31, 1.000000000000000000, 1.224646799147353454E-16 ) ) ;
#101 = CARTESIAN_POINT ( 'NONE',  ( 6.105985375861770082E-16, 0.2749999999999963030, 0.1652366702325787085 ) ) ;
#102 = CARTESIAN_POINT ( 'NONE',  ( 1.043952920314096810E-13, 0.2749999999999963030, 29.89999999999999858 ) ) ;
#103 = AXIS2_PLACEMENT_3D ( 'NONE', #35, #37, #288 ) ;
#104 = CARTESIAN_POINT ( 'NONE',  ( 2.094888803305880013E-14, 0.2749999999999963030, 6.000000000000000000 ) ) ;
#105 = CIRCLE ( 'NONE', #174, 0.1750000000000000167 ) ;
#106 = DIRECTION ( 'NONE',  ( -3.491481338843133355E-15, 1.224646799147353207E-16, -1.000000000000000000 ) ) ;
#107 = CALENDAR_DATE ( 2021, 3, 9 ) ;
#108 = ORIENTED_EDGE ( 'NONE', *, *, #97, .T. ) ;
#109 = ORIENTED_EDGE ( 'NONE', *, *, #136, .T. ) ;
#110 =( NAMED_UNIT ( * ) PLANE_ANGLE_UNIT ( ) SI_UNIT ( $, .RADIAN. ) );
#111 = EDGE_CURVE ( 'NONE', #27, #321, #196, .T. ) ;
#112 = DIRECTION ( 'NONE',  ( 0.0000000000000000000, 1.000000000000000000, 0.0000000000000000000 ) ) ;
#113 = APPROVAL_PERSON_ORGANIZATION ( #290, #142, #235 ) ;
#114 = ORIENTED_EDGE ( 'NONE', *, *, #328, .T. ) ;
#115 = DIRECTION ( 'NONE',  ( -3.491481338843133355E-15, 1.224646799147353207E-16, -1.000000000000000000 ) ) ;
#116 = DATE_TIME_ROLE ( 'classification_date' ) ;
#117 = CARTESIAN_POINT ( 'NONE',  ( 1.047444401652940007E-13, -3.673940397442059178E-15, 30.00000000000000000 ) ) ;
#118 = AXIS2_PLACEMENT_3D ( 'NONE', #213, #16, #66 ) ;
#119 = COORDINATED_UNIVERSAL_TIME_OFFSET ( 1, 0, .AHEAD. ) ;
#120 = LINE ( 'NONE', #250, #164 ) ;
#121 = LINE ( 'NONE', #255, #214 ) ;
#122 = ORIENTED_EDGE ( 'NONE', *, *, #318, .F. ) ;
#123 = CONICAL_SURFACE ( 'NONE', #188, 0.2749999999999963030, 1.029744258676649649 ) ;
#124 = DIRECTION ( 'NONE',  ( -3.491481338843133355E-15, 1.224646799147353207E-16, -1.000000000000000000 ) ) ;
#125 = ADVANCED_BREP_SHAPE_REPRESENTATION ( '54481', ( #91, #194, #227 ), #192 ) ;
#126 = DIRECTION ( 'NONE',  ( -4.275831445896958607E-31, -1.000000000000000000, -1.224646799147353207E-16 ) ) ;
#127 = DIRECTION ( 'NONE',  ( -3.491481338843133355E-15, 1.224646799147353207E-16, -1.000000000000000000 ) ) ;
#128 = DIRECTION ( 'NONE',  ( -3.491481338843133355E-15, 1.224646799147353207E-16, -1.000000000000000000 ) ) ;
#129 = SECURITY_CLASSIFICATION ( '', '', #23 ) ;
#130 = DIRECTION ( 'NONE',  ( 1.903218546456022717E-15, 0.8571673007021097801, 0.5150380749100585964 ) ) ;
#131 = CC_DESIGN_PERSON_AND_ORGANIZATION_ASSIGNMENT ( #41, #135, ( #12 ) ) ;
#132 = LINE ( 'NONE', #87, #140 ) ;
#133 = EDGE_LOOP ( 'NONE', ( #212, #293 ) ) ;
#134 = AXIS2_PLACEMENT_3D ( 'NONE', #272, #244, #160 ) ;
#135 = PERSON_AND_ORGANIZATION_ROLE ( 'creator' ) ;
#136 = EDGE_CURVE ( 'NONE', #89, #321, #202, .T. ) ;
#137 = CARTESIAN_POINT ( 'NONE',  ( 2.094888803305880013E-14, -7.347880794884119736E-16, 6.000000000000000000 ) ) ;
#138 = COORDINATED_UNIVERSAL_TIME_OFFSET ( 1, 0, .AHEAD. ) ;
#139 = EDGE_LOOP ( 'NONE', ( #225, #114, #148, #279 ) ) ;
#140 = VECTOR ( 'NONE', #61, 1000.000000000000000 ) ;
#141 = DIRECTION ( 'NONE',  ( 0.0000000000000000000, 1.000000000000000000, 0.0000000000000000000 ) ) ;
#142 = APPROVAL ( #264, 'UNSPECIFIED' ) ;
#143 = APPROVAL_DATE_TIME ( #70, #176 ) ;
#144 = VERTEX_POINT ( 'NONE', #263 ) ;
#145 = CARTESIAN_POINT ( 'NONE',  ( 0.0000000000000000000, 0.0000000000000000000, 0.0000000000000000000 ) ) ;
#146 = CONICAL_SURFACE ( 'NONE', #209, 0.1750000000000000167, 0.7853981633974512766 ) ;
#147 = DATE_AND_TIME ( #107, #8 ) ;
#148 = ORIENTED_EDGE ( 'NONE', *, *, #72, .T. ) ;
#149 = EDGE_CURVE ( 'NONE', #321, #144, #280, .T. ) ;
#150 = APPROVAL_ROLE ( '' ) ;
#151 = VERTEX_POINT ( 'NONE', #102 ) ;
#152 = DIRECTION ( 'NONE',  ( 0.0000000000000000000, 1.000000000000000000, 0.0000000000000000000 ) ) ;
#153 = LOCAL_TIME ( 9, 48, 19.00000000000000000, #119 ) ;
#154 = DIRECTION ( 'NONE',  ( -3.491481338843133355E-15, 1.224646799147353207E-16, -1.000000000000000000 ) ) ;
#155 = DIRECTION ( 'NONE',  ( 4.275831445896957731E-31, 1.000000000000000000, 1.224646799147353207E-16 ) ) ;
#156 = FACE_OUTER_BOUND ( 'NONE', #273, .T. ) ;
#157 = CIRCLE ( 'NONE', #258, 0.2750000000000000222 ) ;
#158 = ADVANCED_FACE ( 'NONE', ( #261 ), #315, .T. ) ;
#159 = APPROVAL_ROLE ( '' ) ;
#160 = DIRECTION ( 'NONE',  ( 0.0000000000000000000, 1.000000000000000000, 0.0000000000000000000 ) ) ;
#161 = EDGE_LOOP ( 'NONE', ( #170, #322 ) ) ;
#162 = APPLICATION_PROTOCOL_DEFINITION ( 'international standard', 'config_control_design', 1994, #260 ) ;
#163 = ORIENTED_EDGE ( 'NONE', *, *, #57, .T. ) ;
#164 = VECTOR ( 'NONE', #223, 1000.000000000000114 ) ;
#165 = VECTOR ( 'NONE', #130, 999.9999999999998863 ) ;
#166 = ORIENTED_EDGE ( 'NONE', *, *, #265, .T. ) ;
#167 = PERSON_AND_ORGANIZATION ( #330, #275 ) ;
#168 = ORIENTED_EDGE ( 'NONE', *, *, #189, .T. ) ;
#169 = ADVANCED_FACE ( 'NONE', ( #54 ), #287, .F. ) ;
#170 = ORIENTED_EDGE ( 'NONE', *, *, #20, .F. ) ;
#171 = PERSON_AND_ORGANIZATION_ROLE ( 'design_supplier' ) ;
#172 = ORIENTED_EDGE ( 'NONE', *, *, #72, .F. ) ;
#173 = VERTEX_POINT ( 'NONE', #104 ) ;
#174 = AXIS2_PLACEMENT_3D ( 'NONE', #117, #50, #220 ) ;
#175 = CARTESIAN_POINT ( 'NONE',  ( 2.094888803305880013E-14, 2.062169701160020341E-33, 6.000000000000000000 ) ) ;
#176 = APPROVAL ( #95, 'UNSPECIFIED' ) ;
#177 = CIRCLE ( 'NONE', #267, 0.2749999999999970801 ) ;
#178 = CARTESIAN_POINT ( 'NONE',  ( 2.094888803305880013E-14, -7.347880794884119736E-16, 6.000000000000000000 ) ) ;
#179 = DIRECTION ( 'NONE',  ( -3.491481338843133355E-15, 1.224646799147353207E-16, -1.000000000000000000 ) ) ;
#180 = EDGE_CURVE ( 'NONE', #40, #266, #317, .T. ) ;
#181 = CARTESIAN_POINT ( 'NONE',  ( 1.047444401652940007E-13, -3.673940397442059178E-15, 30.00000000000000000 ) ) ;
#182 = CARTESIAN_POINT ( 'NONE',  ( 0.0000000000000000000, 0.0000000000000000000, 0.0000000000000000000 ) ) ;
#183 = CIRCLE ( 'NONE', #9, 0.1750000000000000167 ) ;
#184 = CARTESIAN_POINT ( 'NONE',  ( 1.047444401652940007E-13, -3.673940397442059178E-15, 30.00000000000000000 ) ) ;
#185 = MECHANICAL_CONTEXT ( 'NONE', #207, 'mechanical' ) ;
#186 = DIRECTION ( 'NONE',  ( -3.491481338843133355E-15, 1.224646799147353207E-16, -1.000000000000000000 ) ) ;
#187 = PRODUCT_DEFINITION_FORMATION_WITH_SPECIFIED_SOURCE ( 'ANY', '', #248, .NOT_KNOWN. ) ;
#188 = AXIS2_PLACEMENT_3D ( 'NONE', #278, #71, #48 ) ;
#189 = EDGE_CURVE ( 'NONE', #15, #27, #314, .T. ) ;
#190 = DIRECTION ( 'NONE',  ( -3.491481338843133355E-15, 1.224646799147353207E-16, -1.000000000000000000 ) ) ;
#191 = AXIS2_PLACEMENT_3D ( 'NONE', #30, #124, #100 ) ;
#192 =( GEOMETRIC_REPRESENTATION_CONTEXT ( 3 ) GLOBAL_UNCERTAINTY_ASSIGNED_CONTEXT ( ( #271 ) ) GLOBAL_UNIT_ASSIGNED_CONTEXT ( ( #38, #110, #39 ) ) REPRESENTATION_CONTEXT ( 'NONE', 'WORKASPACE' ) );
#193 = CARTESIAN_POINT ( 'NONE',  ( 1.047444401652940007E-13, 0.1749999999999963252, 30.00000000000000000 ) ) ;
#194 = MANIFOLD_SOLID_BREP ( 'Corps-Déplacer/Copier1[2]', #28 ) ;
#195 = ADVANCED_FACE ( 'NONE', ( #3 ), #34, .T. ) ;
#196 = LINE ( 'NONE', #74, #246 ) ;
#197 = DIRECTION ( 'NONE',  ( -3.491481338843133355E-15, 1.224646799147353207E-16, -1.000000000000000000 ) ) ;
#198 = CIRCLE ( 'NONE', #118, 0.2749999999999963030 ) ;
#199 = VERTEX_POINT ( 'NONE', #230 ) ;
#200 = FACE_OUTER_BOUND ( 'NONE', #133, .T. ) ;
#201 = CC_DESIGN_DATE_AND_TIME_ASSIGNMENT ( #326, #14, ( #12 ) ) ;
#202 = LINE ( 'NONE', #101, #165 ) ;
#203 = CARTESIAN_POINT ( 'NONE',  ( 5.769207506096251778E-16, -2.023565593020942412E-17, 0.1652366702325786807 ) ) ;
#204 = CC_DESIGN_DATE_AND_TIME_ASSIGNMENT ( #300, #116, ( #129 ) ) ;
#205 = FACE_OUTER_BOUND ( 'NONE', #277, .T. ) ;
#206 = DIRECTION ( 'NONE',  ( 0.0000000000000000000, 1.000000000000000000, 0.0000000000000000000 ) ) ;
#207 = APPLICATION_CONTEXT ( 'configuration controlled 3d designs of mechanical parts and assemblies' ) ;
#208 = CARTESIAN_POINT ( 'NONE',  ( 1.045974206513326506E-13, -0.1750000000000037081, 30.00000000000000000 ) ) ;
#209 = AXIS2_PLACEMENT_3D ( 'NONE', #181, #337, #1 ) ;
#210 = EDGE_LOOP ( 'NONE', ( #65, #109, #73 ) ) ;
#211 = PERSON_AND_ORGANIZATION_ROLE ( 'design_owner' ) ;
#212 = ORIENTED_EDGE ( 'NONE', *, *, #82, .T. ) ;
#213 = CARTESIAN_POINT ( 'NONE',  ( 5.769207506096251778E-16, -2.023565593020942412E-17, 0.1652366702325786807 ) ) ;
#214 = VECTOR ( 'NONE', #307, 1000.000000000000000 ) ;
#215 = DIRECTION ( 'NONE',  ( 0.0000000000000000000, 0.0000000000000000000, 1.000000000000000000 ) ) ;
#216 = ADVANCED_FACE ( 'NONE', ( #80 ), #69, .T. ) ;
#217 = ORIENTED_EDGE ( 'NONE', *, *, #333, .F. ) ;
#218 = APPROVAL_DATE_TIME ( #147, #142 ) ;
#219 = LINE ( 'NONE', #193, #2 ) ;
#220 = DIRECTION ( 'NONE',  ( 0.0000000000000000000, 1.000000000000000000, 0.0000000000000000000 ) ) ;
#221 = AXIS2_PLACEMENT_3D ( 'NONE', #228, #58, #84 ) ;
#222 = SHAPE_DEFINITION_REPRESENTATION ( #283, #125 ) ;
#223 = DIRECTION ( 'NONE',  ( -2.382254525458708792E-15, -0.7071067811865495711, -0.7071067811865455743 ) ) ;
#224 = PERSON_AND_ORGANIZATION ( #330, #275 ) ;
#225 = ORIENTED_EDGE ( 'NONE', *, *, #97, .F. ) ;
#226 = ORIENTED_EDGE ( 'NONE', *, *, #20, .T. ) ;
#227 = AXIS2_PLACEMENT_3D ( 'NONE', #182, #215, #325 ) ;
#228 = CARTESIAN_POINT ( 'NONE',  ( 1.047444401652940007E-13, 1.312289809829070327E-33, 30.00000000000000000 ) ) ;
#229 = CARTESIAN_POINT ( 'NONE',  ( 0.0000000000000000000, 0.0000000000000000000, 0.0000000000000000000 ) ) ;
#230 = CARTESIAN_POINT ( 'NONE',  ( 1.047444401652940007E-13, 0.1749999999999963252, 30.00000000000000000 ) ) ;
#231 = ADVANCED_FACE ( 'NONE', ( #156 ), #146, .T. ) ;
#232 = CC_DESIGN_APPROVAL ( #142, ( #187 ) ) ;
#233 = DIRECTION ( 'NONE',  ( -3.491481338843133355E-15, 1.224646799147353207E-16, -1.000000000000000000 ) ) ;
#234 = CARTESIAN_POINT ( 'NONE',  ( 1.043952920314096810E-13, -3.661693929450586610E-15, 29.89999999999999858 ) ) ;
#235 = APPROVAL_ROLE ( '' ) ;
#236 = ORIENTED_EDGE ( 'NONE', *, *, #47, .T. ) ;
#237 = AXIS2_PLACEMENT_3D ( 'NONE', #44, #197, #96 ) ;
#238 = CC_DESIGN_PERSON_AND_ORGANIZATION_ASSIGNMENT ( #167, #252, ( #129 ) ) ;
#239 = ORIENTED_EDGE ( 'NONE', *, *, #57, .F. ) ;
#240 = COORDINATED_UNIVERSAL_TIME_OFFSET ( 1, 0, .AHEAD. ) ;
#241 = DIRECTION ( 'NONE',  ( -3.491481338843133355E-15, 1.224646799147353207E-16, -1.000000000000000000 ) ) ;
#242 = PRODUCT_RELATED_PRODUCT_CATEGORY ( 'detail', '', ( #248 ) ) ;
#243 = AXIS2_PLACEMENT_3D ( 'NONE', #92, #190, #304 ) ;
#244 = DIRECTION ( 'NONE',  ( -3.491481338843133355E-15, 1.224646799147353207E-16, -1.000000000000000000 ) ) ;
#245 = LINE ( 'NONE', #21, #274 ) ;
#246 = VECTOR ( 'NONE', #233, 1000.000000000000000 ) ;
#247 = ADVANCED_FACE ( 'NONE', ( #262 ), #4, .T. ) ;
#248 = PRODUCT ( '54481', '54481', '', ( #185 ) ) ;
#249 = ORIENTED_EDGE ( 'NONE', *, *, #297, .T. ) ;
#250 = CARTESIAN_POINT ( 'NONE',  ( 1.047658714842790812E-13, -0.1750000000000037081, 30.00000000000000000 ) ) ;
#251 = AXIS2_PLACEMENT_3D ( 'NONE', #137, #241, #112 ) ;
#252 = PERSON_AND_ORGANIZATION_ROLE ( 'classification_officer' ) ;
#253 = ORIENTED_EDGE ( 'NONE', *, *, #180, .T. ) ;
#254 = CLOSED_SHELL ( 'NONE', ( #231, #195, #291, #43, #216, #169 ) ) ;
#255 = CARTESIAN_POINT ( 'NONE',  ( 3.367778697655169489E-17, -0.2749999999999966915, -3.367778697655192292E-17 ) ) ;
#256 = ADVANCED_FACE ( 'NONE', ( #205 ), #259, .T. ) ;
#257 = CYLINDRICAL_SURFACE ( 'NONE', #191, 0.2749999999999966915 ) ;
#258 = AXIS2_PLACEMENT_3D ( 'NONE', #234, #154, #206 ) ;
#259 = PLANE ( 'NONE',  #103 ) ;
#260 = APPLICATION_CONTEXT ( 'configuration controlled 3d designs of mechanical parts and assemblies' ) ;
#261 = FACE_OUTER_BOUND ( 'NONE', #210, .T. ) ;
#262 = FACE_OUTER_BOUND ( 'NONE', #94, .T. ) ;
#263 = CARTESIAN_POINT ( 'NONE',  ( 5.769207506096250792E-16, -0.2749999999999963030, 0.1652366702325786529 ) ) ;
#264 = APPROVAL_STATUS ( 'not_yet_approved' ) ;
#265 = EDGE_CURVE ( 'NONE', #40, #151, #157, .T. ) ;
#266 = VERTEX_POINT ( 'NONE', #285 ) ;
#267 = AXIS2_PLACEMENT_3D ( 'NONE', #331, #29, #141 ) ;
#268 = AXIS2_PLACEMENT_3D ( 'NONE', #5, #313, #56 ) ;
#269 = CIRCLE ( 'NONE', #251, 0.2749999999999970801 ) ;
#270 = APPROVAL_DATE_TIME ( #64, #78 ) ;
#271 = UNCERTAINTY_MEASURE_WITH_UNIT (LENGTH_MEASURE( 1.000000000000000082E-05 ), #38, 'distance_accuracy_value', 'NONE');
#272 = CARTESIAN_POINT ( 'NONE',  ( 1.043952920314096810E-13, -3.661693929450586610E-15, 29.89999999999999858 ) ) ;
#273 = EDGE_LOOP ( 'NONE', ( #226, #108, #217, #172 ) ) ;
#274 = VECTOR ( 'NONE', #115, 1000.000000000000000 ) ;
#275 = ORGANIZATION ( 'UNSPECIFIED', 'UNSPECIFIED', '' ) ;
#276 = CALENDAR_DATE ( 2021, 3, 9 ) ;
#277 = EDGE_LOOP ( 'NONE', ( #51, #24 ) ) ;
#278 = CARTESIAN_POINT ( 'NONE',  ( 5.769207506096251778E-16, -2.023565593020942412E-17, 0.1652366702325786807 ) ) ;
#279 = ORIENTED_EDGE ( 'NONE', *, *, #265, .F. ) ;
#280 = CIRCLE ( 'NONE', #268, 0.2749999999999963030 ) ;
#281 = ORIENTED_EDGE ( 'NONE', *, *, #308, .F. ) ;
#282 = ADVANCED_FACE ( 'NONE', ( #85 ), #257, .T. ) ;
#283 = PRODUCT_DEFINITION_SHAPE ( 'NONE', 'NONE',  #12 ) ;
#284 = CARTESIAN_POINT ( 'NONE',  ( 3.367778697655191676E-17, -0.2749999999999985789, -3.367778697655215095E-17 ) ) ;
#285 = CARTESIAN_POINT ( 'NONE',  ( 6.270576781921069744E-14, -0.2749999999999978573, 6.000000000000000000 ) ) ;
#286 = DIRECTION ( 'NONE',  ( 0.0000000000000000000, 1.000000000000000000, 0.0000000000000000000 ) ) ;
#287 = PLANE ( 'NONE',  #221 ) ;
#288 = DIRECTION ( 'NONE',  ( -4.275831445896958607E-31, -1.000000000000000000, -1.224646799147353207E-16 ) ) ;
#289 = CC_DESIGN_APPROVAL ( #176, ( #129 ) ) ;
#290 = PERSON_AND_ORGANIZATION ( #330, #275 ) ;
#291 = ADVANCED_FACE ( 'NONE', ( #200 ), #312, .F. ) ;
#292 = CARTESIAN_POINT ( 'NONE',  ( 6.105985375861770082E-16, 0.2749999999999963030, 0.1652366702325787085 ) ) ;
#293 = ORIENTED_EDGE ( 'NONE', *, *, #308, .T. ) ;
#294 = DESIGN_CONTEXT ( 'detailed design', #260, 'design' ) ;
#295 = APPROVAL_STATUS ( 'not_yet_approved' ) ;
#296 = EDGE_LOOP ( 'NONE', ( #301, #253, #68, #239 ) ) ;
#297 = EDGE_CURVE ( 'NONE', #89, #144, #132, .T. ) ;
#298 = CIRCLE ( 'NONE', #134, 0.2750000000000000222 ) ;
#299 = EDGE_LOOP ( 'NONE', ( #99, #249, #323 ) ) ;
#300 = DATE_AND_TIME ( #334, #55 ) ;
#301 = ORIENTED_EDGE ( 'NONE', *, *, #333, .T. ) ;
#302 = COORDINATED_UNIVERSAL_TIME_OFFSET ( 1, 0, .AHEAD. ) ;
#303 = CC_DESIGN_APPROVAL ( #78, ( #12 ) ) ;
#304 = DIRECTION ( 'NONE',  ( 0.0000000000000000000, 1.000000000000000000, 0.0000000000000000000 ) ) ;
#305 = CC_DESIGN_PERSON_AND_ORGANIZATION_ASSIGNMENT ( #327, #26, ( #187 ) ) ;
#306 = FACE_OUTER_BOUND ( 'NONE', #299, .T. ) ;
#307 = DIRECTION ( 'NONE',  ( -3.491481338843133355E-15, 1.224646799147353207E-16, -1.000000000000000000 ) ) ;
#308 = EDGE_CURVE ( 'NONE', #266, #173, #269, .T. ) ;
#309 = ORIENTED_EDGE ( 'NONE', *, *, #47, .F. ) ;
#310 = AXIS2_PLACEMENT_3D ( 'NONE', #52, #319, #152 ) ;
#311 = VERTEX_POINT ( 'NONE', #208 ) ;
#312 = PLANE ( 'NONE',  #98 ) ;
#313 = DIRECTION ( 'NONE',  ( -3.491481338843133355E-15, 1.224646799147353207E-16, -1.000000000000000000 ) ) ;
#314 = CIRCLE ( 'NONE', #49, 0.2749999999999970801 ) ;
#315 = CONICAL_SURFACE ( 'NONE', #10, 0.2749999999999963030, 1.029744258676649649 ) ;
#316 = CARTESIAN_POINT ( 'NONE',  ( 0.0000000000000000000, 0.0000000000000000000, 0.0000000000000000000 ) ) ;
#317 = LINE ( 'NONE', #284, #76 ) ;
#318 = EDGE_CURVE ( 'NONE', #144, #321, #198, .T. ) ;
#319 = DIRECTION ( 'NONE',  ( -3.491481338843133355E-15, 1.224646799147353207E-16, -1.000000000000000000 ) ) ;
#320 = CALENDAR_DATE ( 2021, 3, 9 ) ;
#321 = VERTEX_POINT ( 'NONE', #292 ) ;
#322 = ORIENTED_EDGE ( 'NONE', *, *, #328, .F. ) ;
#323 = ORIENTED_EDGE ( 'NONE', *, *, #318, .T. ) ;
#324 = CIRCLE ( 'NONE', #243, 0.2749999999999970801 ) ;
#325 = DIRECTION ( 'NONE',  ( 1.000000000000000000, 0.0000000000000000000, 0.0000000000000000000 ) ) ;
#326 = DATE_AND_TIME ( #18, #60 ) ;
#327 = PERSON_AND_ORGANIZATION ( #330, #275 ) ;
#328 = EDGE_CURVE ( 'NONE', #311, #199, #183, .T. ) ;
#329 = DIRECTION ( 'NONE',  ( -2.468850131082257455E-15, 0.7071067811865497932, -0.7071067811865453523 ) ) ;
#330 = PERSON ( 'UNSPECIFIED', 'UNSPECIFIED', 'UNSPECIFIED', ('UNSPECIFIED'), ('UNSPECIFIED'), ('UNSPECIFIED') ) ;
#331 = CARTESIAN_POINT ( 'NONE',  ( 2.094888803305880013E-14, -7.347880794884119736E-16, 6.000000000000000000 ) ) ;
#332 = CARTESIAN_POINT ( 'NONE',  ( 2.094888803305880013E-14, 0.2749999999999963030, 6.000000000000000000 ) ) ;
#333 = EDGE_CURVE ( 'NONE', #151, #40, #298, .T. ) ;
#334 = CALENDAR_DATE ( 2021, 3, 9 ) ;
#335 = EDGE_LOOP ( 'NONE', ( #19, #166, #163, #281 ) ) ;
#336 = FACE_OUTER_BOUND ( 'NONE', #335, .T. ) ;
#337 = DIRECTION ( 'NONE',  ( -3.491481338843133355E-15, 1.224646799147353207E-16, -1.000000000000000000 ) ) ;
ENDSEC;
END-ISO-10303-21;
