ISO-10303-21;
HEADER;
FILE_DESCRIPTION (( 'STEP AP203' ),
    '1' );
FILE_NAME ('54480.step',
    '2021-09-03T07:48:18',
    ( '' ),
    ( '' ),
    'SwSTEP 2.0',
    'SolidWorks 2019',
    '' );
FILE_SCHEMA (( 'CONFIG_CONTROL_DESIGN' ));
ENDSEC;

DATA;
#1 = PERSON_AND_ORGANIZATION_ROLE ( 'design_supplier' ) ;
#2 = LOCAL_TIME ( 9, 48, 18.00000000000000000, #102 ) ;
#3 = ORIENTED_EDGE ( 'NONE', *, *, #191, .T. ) ;
#4 = ADVANCED_FACE ( 'NONE', ( #236 ), #247, .T. ) ;
#5 = EDGE_LOOP ( 'NONE', ( #95, #6, #103, #108 ) ) ;
#6 = ORIENTED_EDGE ( 'NONE', *, *, #139, .T. ) ;
#7 = CC_DESIGN_DATE_AND_TIME_ASSIGNMENT ( #188, #230, ( #157 ) ) ;
#8 = FACE_OUTER_BOUND ( 'NONE', #233, .T. ) ;
#9 = DIRECTION ( 'NONE',  ( 0.0000000000000000000, 1.000000000000000000, 0.0000000000000000000 ) ) ;
#10 = CARTESIAN_POINT ( 'NONE',  ( 1.047444401652940007E-13, -3.673940397442059178E-15, 30.00000000000000000 ) ) ;
#11 = DIRECTION ( 'NONE',  ( -3.491481338843133355E-15, 1.224646799147353207E-16, -1.000000000000000000 ) ) ;
#12 = APPROVAL_PERSON_ORGANIZATION ( #285, #126, #107 ) ;
#13 = DIRECTION ( 'NONE',  ( -3.491481338843133355E-15, 1.224646799147353207E-16, -1.000000000000000000 ) ) ;
#14 = DIRECTION ( 'NONE',  ( 4.275831445896958607E-31, 1.000000000000000000, 1.224646799147353207E-16 ) ) ;
#15 = CARTESIAN_POINT ( 'NONE',  ( 2.094888803305880013E-14, -7.347880794884119736E-16, 6.000000000000000000 ) ) ;
#16 = AXIS2_PLACEMENT_3D ( 'NONE', #15, #152, #249 ) ;
#17 = ORIENTED_EDGE ( 'NONE', *, *, #21, .F. ) ;
#18 = PLANE ( 'NONE',  #86 ) ;
#19 = COORDINATED_UNIVERSAL_TIME_OFFSET ( 1, 0, .AHEAD. ) ;
#20 = APPROVAL_ROLE ( '' ) ;
#21 = EDGE_CURVE ( 'NONE', #208, #227, #143, .T. ) ;
#22 = VERTEX_POINT ( 'NONE', #197 ) ;
#23 = CALENDAR_DATE ( 2021, 3, 9 ) ;
#24 = EDGE_LOOP ( 'NONE', ( #261, #75, #28 ) ) ;
#25 = SHAPE_DEFINITION_REPRESENTATION ( #182, #133 ) ;
#26 = ORIENTED_EDGE ( 'NONE', *, *, #84, .T. ) ;
#27 = CIRCLE ( 'NONE', #31, 0.2499999999999940326 ) ;
#28 = ORIENTED_EDGE ( 'NONE', *, *, #218, .T. ) ;
#29 = DIRECTION ( 'NONE',  ( -3.491481338843133355E-15, 1.224646799147353207E-16, -1.000000000000000000 ) ) ;
#30 = CARTESIAN_POINT ( 'NONE',  ( 5.244734096451078457E-16, -0.2499999999999932832, 0.1502151547568880141 ) ) ;
#31 = AXIS2_PLACEMENT_3D ( 'NONE', #83, #29, #142 ) ;
#32 = DIRECTION ( 'NONE',  ( 3.851859888774575052E-31, 1.000000000000000000, 1.084202172485533523E-16 ) ) ;
#33 = LINE ( 'NONE', #60, #168 ) ;
#34 = FACE_OUTER_BOUND ( 'NONE', #204, .T. ) ;
#35 = ADVANCED_FACE ( 'NONE', ( #242 ), #298, .T. ) ;
#36 = PLANE ( 'NONE',  #47 ) ;
#37 = VECTOR ( 'NONE', #64, 1000.000000000000000 ) ;
#38 = DIRECTION ( 'NONE',  ( -3.491481338843133355E-15, 1.224646799147353207E-16, -1.000000000000000000 ) ) ;
#39 = AXIS2_PLACEMENT_3D ( 'NONE', #109, #293, #62 ) ;
#40 = CARTESIAN_POINT ( 'NONE',  ( 1.076729689133060662E-14, -0.2499999999999948097, 6.000000000000000000 ) ) ;
#41 =( GEOMETRIC_REPRESENTATION_CONTEXT ( 3 ) GLOBAL_UNCERTAINTY_ASSIGNED_CONTEXT ( ( #282 ) ) GLOBAL_UNIT_ASSIGNED_CONTEXT ( ( #100, #332, #224 ) ) REPRESENTATION_CONTEXT ( 'NONE', 'WORKASPACE' ) );
#42 = VERTEX_POINT ( 'NONE', #65 ) ;
#43 = CARTESIAN_POINT ( 'NONE',  ( 1.068957861474220384E-31, 0.2499999999999955036, 3.061616997868328167E-17 ) ) ;
#44 = EDGE_CURVE ( 'NONE', #42, #98, #187, .T. ) ;
#45 = PERSON_AND_ORGANIZATION_ROLE ( 'design_owner' ) ;
#46 = APPROVAL_STATUS ( 'not_yet_approved' ) ;
#47 = AXIS2_PLACEMENT_3D ( 'NONE', #123, #223, #226 ) ;
#48 = DATE_AND_TIME ( #23, #279 ) ;
#49 = ORIENTED_EDGE ( 'NONE', *, *, #326, .T. ) ;
#50 = VECTOR ( 'NONE', #325, 1000.000000000000000 ) ;
#51 = APPLICATION_PROTOCOL_DEFINITION ( 'international standard', 'config_control_design', 1994, #115 ) ;
#52 = PERSON ( 'UNSPECIFIED', 'UNSPECIFIED', 'UNSPECIFIED', ('UNSPECIFIED'), ('UNSPECIFIED'), ('UNSPECIFIED') ) ;
#53 = PERSON_AND_ORGANIZATION ( #52, #73 ) ;
#54 = ORIENTED_EDGE ( 'NONE', *, *, #106, .T. ) ;
#55 = CIRCLE ( 'NONE', #90, 0.2499999999999940326 ) ;
#56 = VERTEX_POINT ( 'NONE', #194 ) ;
#57 = APPROVAL ( #312, 'UNSPECIFIED' ) ;
#58 = CLOSED_SHELL ( 'NONE', ( #337, #122, #228, #173, #4, #221 ) ) ;
#59 = PRODUCT ( '54480', '54480', '', ( #72 ) ) ;
#60 = CARTESIAN_POINT ( 'NONE',  ( 1.047444401652940007E-13, 0.1499999999999932498, 30.00000000000000000 ) ) ;
#61 = DIRECTION ( 'NONE',  ( 3.491481338843133355E-15, -1.224646799147353207E-16, 1.000000000000000000 ) ) ;
#62 = DIRECTION ( 'NONE',  ( -3.851859888774575052E-31, -1.000000000000000000, -1.084202172485533523E-16 ) ) ;
#63 = AXIS2_PLACEMENT_3D ( 'NONE', #297, #327, #241 ) ;
#64 = DIRECTION ( 'NONE',  ( -3.491481338843133355E-15, 1.224646799147353207E-16, -1.000000000000000000 ) ) ;
#65 = CARTESIAN_POINT ( 'NONE',  ( 1.043952920314096936E-13, 0.2499999999999932832, 29.90000000000000213 ) ) ;
#66 = DIRECTION ( 'NONE',  ( -3.491481338843133355E-15, 1.224646799147353207E-16, -1.000000000000000000 ) ) ;
#67 = FACE_OUTER_BOUND ( 'NONE', #210, .T. ) ;
#68 = ORIENTED_EDGE ( 'NONE', *, *, #21, .T. ) ;
#69 = FACE_OUTER_BOUND ( 'NONE', #5, .T. ) ;
#70 = ORIENTED_EDGE ( 'NONE', *, *, #80, .F. ) ;
#71 = CC_DESIGN_DATE_AND_TIME_ASSIGNMENT ( #77, #127, ( #99 ) ) ;
#72 = MECHANICAL_CONTEXT ( 'NONE', #105, 'mechanical' ) ;
#73 = ORGANIZATION ( 'UNSPECIFIED', 'UNSPECIFIED', '' ) ;
#74 = APPLICATION_PROTOCOL_DEFINITION ( 'international standard', 'config_control_design', 1994, #105 ) ;
#75 = ORIENTED_EDGE ( 'NONE', *, *, #118, .T. ) ;
#76 = CONICAL_SURFACE ( 'NONE', #314, 0.2499999999999932832, 1.029744258676648760 ) ;
#77 = DATE_AND_TIME ( #163, #291 ) ;
#78 = ORIENTED_EDGE ( 'NONE', *, *, #166, .F. ) ;
#79 = APPROVAL_DATE_TIME ( #101, #96 ) ;
#80 = EDGE_CURVE ( 'NONE', #289, #56, #27, .T. ) ;
#81 = EDGE_LOOP ( 'NONE', ( #135, #180, #161 ) ) ;
#82 = FACE_OUTER_BOUND ( 'NONE', #81, .T. ) ;
#83 = CARTESIAN_POINT ( 'NONE',  ( 2.094888803305880013E-14, -7.347880794884119736E-16, 6.000000000000000000 ) ) ;
#84 = EDGE_CURVE ( 'NONE', #289, #22, #85, .T. ) ;
#85 = LINE ( 'NONE', #145, #37 ) ;
#86 = AXIS2_PLACEMENT_3D ( 'NONE', #276, #309, #202 ) ;
#87 = CYLINDRICAL_SURFACE ( 'NONE', #63, 0.2499999999999955036 ) ;
#88 = MANIFOLD_SOLID_BREP ( 'Corps-Déplacer/Copier1[2]', #104 ) ;
#89 = CARTESIAN_POINT ( 'NONE',  ( 2.094888803305880013E-14, 0.2499999999999932832, 6.000000000000000000 ) ) ;
#90 = AXIS2_PLACEMENT_3D ( 'NONE', #171, #169, #172 ) ;
#91 = VECTOR ( 'NONE', #198, 1000.000000000000000 ) ;
#92 = DIRECTION ( 'NONE',  ( -3.491481338843133355E-15, 1.224646799147353207E-16, -1.000000000000000000 ) ) ;
#93 = LINE ( 'NONE', #43, #175 ) ;
#94 = AXIS2_PLACEMENT_3D ( 'NONE', #174, #239, #267 ) ;
#95 = ORIENTED_EDGE ( 'NONE', *, *, #269, .T. ) ;
#96 = APPROVAL ( #207, 'UNSPECIFIED' ) ;
#97 = DIRECTION ( 'NONE',  ( -3.491481338843133355E-15, 1.224646799147353207E-16, -1.000000000000000000 ) ) ;
#98 = VERTEX_POINT ( 'NONE', #274 ) ;
#99 = SECURITY_CLASSIFICATION ( '', '', #185 ) ;
#100 =( LENGTH_UNIT ( ) NAMED_UNIT ( * ) SI_UNIT ( .MILLI., .METRE. ) );
#101 = DATE_AND_TIME ( #158, #2 ) ;
#102 = COORDINATED_UNIVERSAL_TIME_OFFSET ( 1, 0, .AHEAD. ) ;
#103 = ORIENTED_EDGE ( 'NONE', *, *, #44, .F. ) ;
#104 = CLOSED_SHELL ( 'NONE', ( #275, #146, #112, #277, #35 ) ) ;
#105 = APPLICATION_CONTEXT ( 'configuration controlled 3d designs of mechanical parts and assemblies' ) ;
#106 = EDGE_CURVE ( 'NONE', #98, #280, #114, .T. ) ;
#107 = APPROVAL_ROLE ( '' ) ;
#108 = ORIENTED_EDGE ( 'NONE', *, *, #181, .F. ) ;
#109 = CARTESIAN_POINT ( 'NONE',  ( 5.244734096451079443E-16, -1.839605084564472484E-17, 0.1502151547568880419 ) ) ;
#110 = AXIS2_PLACEMENT_3D ( 'NONE', #304, #97, #306 ) ;
#111 = LINE ( 'NONE', #144, #211 ) ;
#112 = ADVANCED_FACE ( 'NONE', ( #138 ), #76, .T. ) ;
#113 = AXIS2_PLACEMENT_3D ( 'NONE', #217, #11, #321 ) ;
#114 = LINE ( 'NONE', #140, #129 ) ;
#115 = APPLICATION_CONTEXT ( 'configuration controlled 3d designs of mechanical parts and assemblies' ) ;
#116 = DIRECTION ( 'NONE',  ( 3.491481338843133355E-15, -1.224646799147353207E-16, 1.000000000000000000 ) ) ;
#117 = CARTESIAN_POINT ( 'NONE',  ( 1.068957861474212501E-31, 0.2499999999999936717, 3.061616997868305364E-17 ) ) ;
#118 = EDGE_CURVE ( 'NONE', #313, #22, #219, .T. ) ;
#119 = CARTESIAN_POINT ( 'NONE',  ( 6.270270620221281076E-14, -0.2499999999999948097, 6.000000000000000000 ) ) ;
#120 = FACE_OUTER_BOUND ( 'NONE', #316, .T. ) ;
#121 = CARTESIAN_POINT ( 'NONE',  ( 0.0000000000000000000, 0.0000000000000000000, 0.0000000000000000000 ) ) ;
#122 = ADVANCED_FACE ( 'NONE', ( #8 ), #87, .T. ) ;
#123 = CARTESIAN_POINT ( 'NONE',  ( 2.094888803305880013E-14, 1.874699728327265219E-33, 6.000000000000000000 ) ) ;
#124 = EDGE_LOOP ( 'NONE', ( #153, #70 ) ) ;
#125 = CYLINDRICAL_SURFACE ( 'NONE', #324, 0.2499999999999936717 ) ;
#126 = APPROVAL ( #46, 'UNSPECIFIED' ) ;
#127 = DATE_TIME_ROLE ( 'classification_date' ) ;
#128 = PERSON_AND_ORGANIZATION ( #52, #73 ) ;
#129 = VECTOR ( 'NONE', #220, 1000.000000000000000 ) ;
#130 = PERSON_AND_ORGANIZATION_ROLE ( 'creator' ) ;
#131 = ORIENTED_EDGE ( 'NONE', *, *, #191, .F. ) ;
#132 = AXIS2_PLACEMENT_3D ( 'NONE', #253, #246, #147 ) ;
#133 = ADVANCED_BREP_SHAPE_REPRESENTATION ( '54480', ( #322, #88, #183 ), #41 ) ;
#134 = PERSON_AND_ORGANIZATION ( #52, #73 ) ;
#135 = ORIENTED_EDGE ( 'NONE', *, *, #118, .F. ) ;
#136 = PRODUCT_DEFINITION_FORMATION_WITH_SPECIFIED_SOURCE ( 'ANY', '', #59, .NOT_KNOWN. ) ;
#137 = ORIENTED_EDGE ( 'NONE', *, *, #331, .F. ) ;
#138 = FACE_OUTER_BOUND ( 'NONE', #24, .T. ) ;
#139 = EDGE_CURVE ( 'NONE', #208, #98, #111, .T. ) ;
#140 = CARTESIAN_POINT ( 'NONE',  ( 3.061616997868317074E-17, -0.2499999999999955036, -3.061616997868338028E-17 ) ) ;
#141 = AXIS2_PLACEMENT_3D ( 'NONE', #222, #336, #148 ) ;
#142 = DIRECTION ( 'NONE',  ( 0.0000000000000000000, 1.000000000000000000, 0.0000000000000000000 ) ) ;
#143 = CIRCLE ( 'NONE', #333, 0.1499999999999969136 ) ;
#144 = CARTESIAN_POINT ( 'NONE',  ( 1.047628098672812071E-13, -0.1500000000000006051, 30.00000000000000000 ) ) ;
#145 = CARTESIAN_POINT ( 'NONE',  ( 3.061616997868294887E-17, -0.2499999999999936717, -3.061616997868315841E-17 ) ) ;
#146 = ADVANCED_FACE ( 'NONE', ( #82 ), #255, .T. ) ;
#147 = DIRECTION ( 'NONE',  ( 3.851859888774575052E-31, 1.000000000000000000, 1.084202172485533523E-16 ) ) ;
#148 = DIRECTION ( 'NONE',  ( 0.0000000000000000000, 1.000000000000000000, 0.0000000000000000000 ) ) ;
#149 = CARTESIAN_POINT ( 'NONE',  ( 1.045943590343348017E-13, -0.1500000000000006051, 30.00000000000000000 ) ) ;
#150 = CONICAL_SURFACE ( 'NONE', #330, 0.1499999999999969136, 0.7853981633974689291 ) ;
#151 = CC_DESIGN_APPROVAL ( #57, ( #157 ) ) ;
#152 = DIRECTION ( 'NONE',  ( -3.491481338843133355E-15, 1.224646799147353207E-16, -1.000000000000000000 ) ) ;
#153 = ORIENTED_EDGE ( 'NONE', *, *, #326, .F. ) ;
#154 = DIRECTION ( 'NONE',  ( -3.491481338843133355E-15, 1.224646799147353207E-16, -1.000000000000000000 ) ) ;
#155 = DESIGN_CONTEXT ( 'detailed design', #115, 'design' ) ;
#156 = CALENDAR_DATE ( 2021, 3, 9 ) ;
#157 = PRODUCT_DEFINITION ( 'UNKNOWN', '', #136, #155 ) ;
#158 = CALENDAR_DATE ( 2021, 3, 9 ) ;
#159 = EDGE_LOOP ( 'NONE', ( #335, #68, #190, #264 ) ) ;
#160 = CARTESIAN_POINT ( 'NONE',  ( 0.0000000000000000000, 0.0000000000000000000, 0.0000000000000000000 ) ) ;
#161 = ORIENTED_EDGE ( 'NONE', *, *, #177, .T. ) ;
#162 = CC_DESIGN_SECURITY_CLASSIFICATION ( #99, ( #136 ) ) ;
#163 = CALENDAR_DATE ( 2021, 3, 9 ) ;
#164 = ORIENTED_EDGE ( 'NONE', *, *, #205, .F. ) ;
#165 = ORIENTED_EDGE ( 'NONE', *, *, #80, .T. ) ;
#166 = EDGE_CURVE ( 'NONE', #252, #280, #55, .T. ) ;
#167 = CARTESIAN_POINT ( 'NONE',  ( 5.550895796237909424E-16, 0.2499999999999932832, 0.1502151547568880696 ) ) ;
#168 = VECTOR ( 'NONE', #243, 1000.000000000000000 ) ;
#169 = DIRECTION ( 'NONE',  ( -3.491481338843133355E-15, 1.224646799147353207E-16, -1.000000000000000000 ) ) ;
#170 = AXIS2_PLACEMENT_3D ( 'NONE', #229, #154, #14 ) ;
#171 = CARTESIAN_POINT ( 'NONE',  ( 2.094888803305880013E-14, -7.347880794884119736E-16, 6.000000000000000000 ) ) ;
#172 = DIRECTION ( 'NONE',  ( 0.0000000000000000000, 1.000000000000000000, 0.0000000000000000000 ) ) ;
#173 = ADVANCED_FACE ( 'NONE', ( #292 ), #215, .T. ) ;
#174 = CARTESIAN_POINT ( 'NONE',  ( 1.047444401652940007E-13, -3.673940397442059178E-15, 30.00000000000000000 ) ) ;
#175 = VECTOR ( 'NONE', #38, 1000.000000000000000 ) ;
#176 = DIRECTION ( 'NONE',  ( 0.0000000000000000000, 1.000000000000000000, 0.0000000000000000000 ) ) ;
#177 = EDGE_CURVE ( 'NONE', #186, #22, #250, .T. ) ;
#178 = CYLINDRICAL_SURFACE ( 'NONE', #170, 0.2499999999999936717 ) ;
#179 = ORIENTED_EDGE ( 'NONE', *, *, #84, .F. ) ;
#180 = ORIENTED_EDGE ( 'NONE', *, *, #265, .T. ) ;
#181 = EDGE_CURVE ( 'NONE', #227, #42, #33, .T. ) ;
#182 = PRODUCT_DEFINITION_SHAPE ( 'NONE', 'NONE',  #157 ) ;
#183 = AXIS2_PLACEMENT_3D ( 'NONE', #160, #310, #286 ) ;
#184 = COORDINATED_UNIVERSAL_TIME_OFFSET ( 1, 0, .AHEAD. ) ;
#185 = SECURITY_CLASSIFICATION_LEVEL ( 'unclassified' ) ;
#186 = VERTEX_POINT ( 'NONE', #167 ) ;
#187 = CIRCLE ( 'NONE', #113, 0.2499999999999969746 ) ;
#188 = DATE_AND_TIME ( #156, #195 ) ;
#189 = ORIENTED_EDGE ( 'NONE', *, *, #205, .T. ) ;
#190 = ORIENTED_EDGE ( 'NONE', *, *, #181, .T. ) ;
#191 = EDGE_CURVE ( 'NONE', #56, #186, #244, .T. ) ;
#192 = DIRECTION ( 'NONE',  ( 4.275831445896958607E-31, 1.000000000000000000, 1.224646799147353207E-16 ) ) ;
#193 = DIRECTION ( 'NONE',  ( -3.851859888774575052E-31, -1.000000000000000000, -1.084202172485533523E-16 ) ) ;
#194 = CARTESIAN_POINT ( 'NONE',  ( 2.094888803305880013E-14, 0.2499999999999932832, 6.000000000000000000 ) ) ;
#195 = LOCAL_TIME ( 9, 48, 18.00000000000000000, #258 ) ;
#196 = DIRECTION ( 'NONE',  ( -3.491481338843133355E-15, 1.224646799147353207E-16, -1.000000000000000000 ) ) ;
#197 = CARTESIAN_POINT ( 'NONE',  ( 5.244734096451078457E-16, -0.2499999999999932832, 0.1502151547568880141 ) ) ;
#198 = DIRECTION ( 'NONE',  ( -3.491481338843133355E-15, 1.224646799147353207E-16, -1.000000000000000000 ) ) ;
#199 = FACE_OUTER_BOUND ( 'NONE', #225, .T. ) ;
#200 = DIRECTION ( 'NONE',  ( 1.903218546456025083E-15, 0.8571673007021093360, 0.5150380749100591515 ) ) ;
#201 = ORIENTED_EDGE ( 'NONE', *, *, #213, .T. ) ;
#202 = DIRECTION ( 'NONE',  ( 4.275831445896958607E-31, 1.000000000000000000, 1.224646799147353207E-16 ) ) ;
#203 = LOCAL_TIME ( 9, 48, 18.00000000000000000, #257 ) ;
#204 = EDGE_LOOP ( 'NONE', ( #266, #17 ) ) ;
#205 = EDGE_CURVE ( 'NONE', #42, #252, #93, .T. ) ;
#206 = AXIS2_PLACEMENT_3D ( 'NONE', #319, #13, #192 ) ;
#207 = APPROVAL_STATUS ( 'not_yet_approved' ) ;
#208 = VERTEX_POINT ( 'NONE', #149 ) ;
#209 = APPROVAL_DATE_TIME ( #48, #57 ) ;
#210 = EDGE_LOOP ( 'NONE', ( #49, #26, #308, #131 ) ) ;
#211 = VECTOR ( 'NONE', #296, 999.9999999999998863 ) ;
#212 = EDGE_LOOP ( 'NONE', ( #237, #201, #189, #137 ) ) ;
#213 = EDGE_CURVE ( 'NONE', #98, #42, #268, .T. ) ;
#214 = AXIS2_PLACEMENT_3D ( 'NONE', #271, #272, #32 ) ;
#215 = CYLINDRICAL_SURFACE ( 'NONE', #206, 0.2499999999999955036 ) ;
#216 = DIRECTION ( 'NONE',  ( -4.275831445896958607E-31, -1.000000000000000000, -1.224646799147353207E-16 ) ) ;
#217 = CARTESIAN_POINT ( 'NONE',  ( 1.043952920314096936E-13, -3.661693929450586610E-15, 29.90000000000000213 ) ) ;
#218 = EDGE_CURVE ( 'NONE', #22, #186, #256, .T. ) ;
#219 = LINE ( 'NONE', #30, #50 ) ;
#220 = DIRECTION ( 'NONE',  ( -3.491481338843133355E-15, 1.224646799147353207E-16, -1.000000000000000000 ) ) ;
#221 = ADVANCED_FACE ( 'NONE', ( #34 ), #18, .F. ) ;
#222 = CARTESIAN_POINT ( 'NONE',  ( 2.094888803305880013E-14, -7.347880794884119736E-16, 6.000000000000000000 ) ) ;
#223 = DIRECTION ( 'NONE',  ( 3.491481338843133355E-15, -1.224646799147353207E-16, 1.000000000000000000 ) ) ;
#224 =( NAMED_UNIT ( * ) SI_UNIT ( $, .STERADIAN. ) SOLID_ANGLE_UNIT ( ) );
#225 = EDGE_LOOP ( 'NONE', ( #179, #165, #3, #318 ) ) ;
#226 = DIRECTION ( 'NONE',  ( -4.275831445896958607E-31, -1.000000000000000000, -1.224646799147353207E-16 ) ) ;
#227 = VERTEX_POINT ( 'NONE', #251 ) ;
#228 = ADVANCED_FACE ( 'NONE', ( #120 ), #36, .F. ) ;
#229 = CARTESIAN_POINT ( 'NONE',  ( 0.0000000000000000000, 0.0000000000000000000, 0.0000000000000000000 ) ) ;
#230 = DATE_TIME_ROLE ( 'creation_date' ) ;
#231 = DATE_AND_TIME ( #290, #203 ) ;
#232 = PERSON_AND_ORGANIZATION ( #52, #73 ) ;
#233 = EDGE_LOOP ( 'NONE', ( #259, #54, #78, #164 ) ) ;
#234 = AXIS2_PLACEMENT_3D ( 'NONE', #329, #92, #248 ) ;
#235 = PERSON_AND_ORGANIZATION ( #52, #73 ) ;
#236 = FACE_OUTER_BOUND ( 'NONE', #159, .T. ) ;
#237 = ORIENTED_EDGE ( 'NONE', *, *, #106, .F. ) ;
#238 = CC_DESIGN_PERSON_AND_ORGANIZATION_ASSIGNMENT ( #128, #317, ( #157 ) ) ;
#239 = DIRECTION ( 'NONE',  ( -3.491481338843133355E-15, 1.224646799147353207E-16, -1.000000000000000000 ) ) ;
#240 = VECTOR ( 'NONE', #200, 1000.000000000000114 ) ;
#241 = DIRECTION ( 'NONE',  ( 4.275831445896958607E-31, 1.000000000000000000, 1.224646799147353207E-16 ) ) ;
#242 = FACE_OUTER_BOUND ( 'NONE', #124, .T. ) ;
#243 = DIRECTION ( 'NONE',  ( -2.468850131082214068E-15, 0.7071067811865622277, -0.7071067811865328068 ) ) ;
#244 = LINE ( 'NONE', #117, #91 ) ;
#245 = CC_DESIGN_PERSON_AND_ORGANIZATION_ASSIGNMENT ( #53, #130, ( #136 ) ) ;
#246 = DIRECTION ( 'NONE',  ( -3.491481338843133355E-15, 1.224646799147353207E-16, -1.000000000000000000 ) ) ;
#247 = CONICAL_SURFACE ( 'NONE', #94, 0.1499999999999969136, 0.7853981633974689291 ) ;
#248 = DIRECTION ( 'NONE',  ( 0.0000000000000000000, 1.000000000000000000, 0.0000000000000000000 ) ) ;
#249 = DIRECTION ( 'NONE',  ( 0.0000000000000000000, 1.000000000000000000, 0.0000000000000000000 ) ) ;
#250 = CIRCLE ( 'NONE', #214, 0.2499999999999932832 ) ;
#251 = CARTESIAN_POINT ( 'NONE',  ( 1.047444401652940007E-13, 0.1499999999999932498, 30.00000000000000000 ) ) ;
#252 = VERTEX_POINT ( 'NONE', #89 ) ;
#253 = CARTESIAN_POINT ( 'NONE',  ( 5.244734096451079443E-16, -1.839605084564472484E-17, 0.1502151547568880419 ) ) ;
#254 = PERSON_AND_ORGANIZATION ( #52, #73 ) ;
#255 = CONICAL_SURFACE ( 'NONE', #39, 0.2499999999999932832, 1.029744258676648760 ) ;
#256 = CIRCLE ( 'NONE', #132, 0.2499999999999932832 ) ;
#257 = COORDINATED_UNIVERSAL_TIME_OFFSET ( 1, 0, .AHEAD. ) ;
#258 = COORDINATED_UNIVERSAL_TIME_OFFSET ( 1, 0, .AHEAD. ) ;
#259 = ORIENTED_EDGE ( 'NONE', *, *, #44, .T. ) ;
#260 = APPROVAL_ROLE ( '' ) ;
#261 = ORIENTED_EDGE ( 'NONE', *, *, #265, .F. ) ;
#262 = CC_DESIGN_APPROVAL ( #126, ( #99 ) ) ;
#263 = APPROVAL_DATE_TIME ( #231, #126 ) ;
#264 = ORIENTED_EDGE ( 'NONE', *, *, #213, .F. ) ;
#265 = EDGE_CURVE ( 'NONE', #313, #186, #300, .T. ) ;
#266 = ORIENTED_EDGE ( 'NONE', *, *, #269, .F. ) ;
#267 = DIRECTION ( 'NONE',  ( 0.0000000000000000000, 1.000000000000000000, 0.0000000000000000000 ) ) ;
#268 = CIRCLE ( 'NONE', #234, 0.2499999999999969746 ) ;
#269 = EDGE_CURVE ( 'NONE', #227, #208, #294, .T. ) ;
#270 = CIRCLE ( 'NONE', #16, 0.2499999999999940326 ) ;
#271 = CARTESIAN_POINT ( 'NONE',  ( 5.244734096451079443E-16, -1.839605084564472484E-17, 0.1502151547568880419 ) ) ;
#272 = DIRECTION ( 'NONE',  ( -3.491481338843133355E-15, 1.224646799147353207E-16, -1.000000000000000000 ) ) ;
#273 = CARTESIAN_POINT ( 'NONE',  ( 2.094888803305880013E-14, 1.874699728327265219E-33, 6.000000000000000000 ) ) ;
#274 = CARTESIAN_POINT ( 'NONE',  ( 6.270270620221244473E-14, -0.2500000000000006661, 29.90000000000000213 ) ) ;
#275 = ADVANCED_FACE ( 'NONE', ( #67 ), #125, .T. ) ;
#276 = CARTESIAN_POINT ( 'NONE',  ( 1.047444401652940007E-13, 1.124819836996315033E-33, 30.00000000000000000 ) ) ;
#277 = ADVANCED_FACE ( 'NONE', ( #199 ), #178, .T. ) ;
#278 = CARTESIAN_POINT ( 'NONE',  ( 0.0000000000000000000, 0.0000000000000000000, 0.0000000000000000000 ) ) ;
#279 = LOCAL_TIME ( 9, 48, 18.00000000000000000, #184 ) ;
#280 = VERTEX_POINT ( 'NONE', #119 ) ;
#281 = DIRECTION ( 'NONE',  ( 4.275831445896958607E-31, 1.000000000000000000, 1.224646799147353207E-16 ) ) ;
#282 = UNCERTAINTY_MEASURE_WITH_UNIT (LENGTH_MEASURE( 1.000000000000000082E-05 ), #100, 'distance_accuracy_value', 'NONE');
#283 = AXIS2_PLACEMENT_3D ( 'NONE', #273, #61, #216 ) ;
#284 = PRODUCT_RELATED_PRODUCT_CATEGORY ( 'detail', '', ( #59 ) ) ;
#285 = PERSON_AND_ORGANIZATION ( #52, #73 ) ;
#286 = DIRECTION ( 'NONE',  ( 1.000000000000000000, 0.0000000000000000000, 0.0000000000000000000 ) ) ;
#287 = ORIENTED_EDGE ( 'NONE', *, *, #331, .T. ) ;
#288 = PERSON_AND_ORGANIZATION ( #52, #73 ) ;
#289 = VERTEX_POINT ( 'NONE', #40 ) ;
#290 = CALENDAR_DATE ( 2021, 3, 9 ) ;
#291 = LOCAL_TIME ( 9, 48, 18.00000000000000000, #19 ) ;
#292 = FACE_OUTER_BOUND ( 'NONE', #212, .T. ) ;
#293 = DIRECTION ( 'NONE',  ( 3.491481338843133355E-15, -1.224646799147353207E-16, 1.000000000000000000 ) ) ;
#294 = CIRCLE ( 'NONE', #110, 0.1499999999999969136 ) ;
#295 = APPROVAL_PERSON_ORGANIZATION ( #288, #57, #260 ) ;
#296 = DIRECTION ( 'NONE',  ( -2.382254525458663827E-15, -0.7071067811865621167, -0.7071067811865330288 ) ) ;
#297 = CARTESIAN_POINT ( 'NONE',  ( 0.0000000000000000000, 0.0000000000000000000, 0.0000000000000000000 ) ) ;
#298 = PLANE ( 'NONE',  #283 ) ;
#299 = CC_DESIGN_PERSON_AND_ORGANIZATION_ASSIGNMENT ( #134, #45, ( #59 ) ) ;
#300 = LINE ( 'NONE', #334, #240 ) ;
#301 = CIRCLE ( 'NONE', #141, 0.2499999999999940326 ) ;
#302 = DIRECTION ( 'NONE',  ( -3.491481338843133355E-15, 1.224646799147353207E-16, -1.000000000000000000 ) ) ;
#303 = CC_DESIGN_PERSON_AND_ORGANIZATION_ASSIGNMENT ( #254, #315, ( #99 ) ) ;
#304 = CARTESIAN_POINT ( 'NONE',  ( 1.047444401652940007E-13, -3.673940397442059178E-15, 30.00000000000000000 ) ) ;
#305 = ORIENTED_EDGE ( 'NONE', *, *, #166, .T. ) ;
#306 = DIRECTION ( 'NONE',  ( 0.0000000000000000000, 1.000000000000000000, 0.0000000000000000000 ) ) ;
#307 = CC_DESIGN_APPROVAL ( #96, ( #136 ) ) ;
#308 = ORIENTED_EDGE ( 'NONE', *, *, #177, .F. ) ;
#309 = DIRECTION ( 'NONE',  ( -3.491481338843133355E-15, 1.224646799147353207E-16, -1.000000000000000000 ) ) ;
#310 = DIRECTION ( 'NONE',  ( 0.0000000000000000000, 0.0000000000000000000, 1.000000000000000000 ) ) ;
#311 = APPROVAL_PERSON_ORGANIZATION ( #235, #96, #20 ) ;
#312 = APPROVAL_STATUS ( 'not_yet_approved' ) ;
#313 = VERTEX_POINT ( 'NONE', #278 ) ;
#314 = AXIS2_PLACEMENT_3D ( 'NONE', #323, #116, #193 ) ;
#315 = PERSON_AND_ORGANIZATION_ROLE ( 'classification_officer' ) ;
#316 = EDGE_LOOP ( 'NONE', ( #305, #287 ) ) ;
#317 = PERSON_AND_ORGANIZATION_ROLE ( 'creator' ) ;
#318 = ORIENTED_EDGE ( 'NONE', *, *, #218, .F. ) ;
#319 = CARTESIAN_POINT ( 'NONE',  ( 0.0000000000000000000, 0.0000000000000000000, 0.0000000000000000000 ) ) ;
#320 = CC_DESIGN_PERSON_AND_ORGANIZATION_ASSIGNMENT ( #232, #1, ( #136 ) ) ;
#321 = DIRECTION ( 'NONE',  ( 0.0000000000000000000, 1.000000000000000000, 0.0000000000000000000 ) ) ;
#322 = MANIFOLD_SOLID_BREP ( 'Corps-Déplacer/Copier1[1]', #58 ) ;
#323 = CARTESIAN_POINT ( 'NONE',  ( 5.244734096451079443E-16, -1.839605084564472484E-17, 0.1502151547568880419 ) ) ;
#324 = AXIS2_PLACEMENT_3D ( 'NONE', #121, #66, #281 ) ;
#325 = DIRECTION ( 'NONE',  ( 1.798245827342162684E-15, -0.8571673007021094470, 0.5150380749100589295 ) ) ;
#326 = EDGE_CURVE ( 'NONE', #56, #289, #270, .T. ) ;
#327 = DIRECTION ( 'NONE',  ( -3.491481338843133355E-15, 1.224646799147353207E-16, -1.000000000000000000 ) ) ;
#328 = CARTESIAN_POINT ( 'NONE',  ( 1.047444401652940007E-13, -3.673940397442059178E-15, 30.00000000000000000 ) ) ;
#329 = CARTESIAN_POINT ( 'NONE',  ( 1.043952920314096936E-13, -3.661693929450586610E-15, 29.90000000000000213 ) ) ;
#330 = AXIS2_PLACEMENT_3D ( 'NONE', #328, #302, #176 ) ;
#331 = EDGE_CURVE ( 'NONE', #280, #252, #301, .T. ) ;
#332 =( NAMED_UNIT ( * ) PLANE_ANGLE_UNIT ( ) SI_UNIT ( $, .RADIAN. ) );
#333 = AXIS2_PLACEMENT_3D ( 'NONE', #10, #196, #9 ) ;
#334 = CARTESIAN_POINT ( 'NONE',  ( 5.550895796237909424E-16, 0.2499999999999932832, 0.1502151547568880696 ) ) ;
#335 = ORIENTED_EDGE ( 'NONE', *, *, #139, .F. ) ;
#336 = DIRECTION ( 'NONE',  ( -3.491481338843133355E-15, 1.224646799147353207E-16, -1.000000000000000000 ) ) ;
#337 = ADVANCED_FACE ( 'NONE', ( #69 ), #150, .T. ) ;
ENDSEC;
END-ISO-10303-21;
