ISO-10303-21;
HEADER;
FILE_DESCRIPTION (( 'STEP AP203' ),
    '1' );
FILE_NAME ('54324.step',
    '2021-09-02T13:38:19',
    ( '' ),
    ( '' ),
    'SwSTEP 2.0',
    'SolidWorks 2019',
    '' );
FILE_SCHEMA (( 'CONFIG_CONTROL_DESIGN' ));
ENDSEC;

DATA;
#1 = CYLINDRICAL_SURFACE ( 'NONE', #174, 3.999999999999998224 ) ;
#2 = CARTESIAN_POINT ( 'NONE',  ( 4.085033166446466404E-13, 3.199999999999986411, 117.0000000000000000 ) ) ;
#3 = EDGE_CURVE ( 'NONE', #152, #300, #324, .T. ) ;
#4 = DIRECTION ( 'NONE',  ( 0.0000000000000000000, 1.000000000000000000, 0.0000000000000000000 ) ) ;
#5 = CARTESIAN_POINT ( 'NONE',  ( 1.356161962034371401E-13, -4.000000000000005329, 75.00000000000000000 ) ) ;
#6 = CYLINDRICAL_SURFACE ( 'NONE', #7, 3.999999999999991562 ) ;
#7 = AXIS2_PLACEMENT_3D ( 'NONE', #112, #321, #269 ) ;
#8 = APPROVAL_DATE_TIME ( #250, #275 ) ;
#9 = LINE ( 'NONE', #116, #93 ) ;
#10 = APPROVAL_STATUS ( 'not_yet_approved' ) ;
#11 = APPLICATION_CONTEXT ( 'configuration controlled 3d designs of mechanical parts and assemblies' ) ;
#12 = AXIS2_PLACEMENT_3D ( 'NONE', #311, #242, #26 ) ;
#13 = EDGE_CURVE ( 'NONE', #97, #185, #176, .T. ) ;
#14 = LOCAL_TIME ( 15, 38, 19.00000000000000000, #306 ) ;
#15 = EDGE_LOOP ( 'NONE', ( #70, #154 ) ) ;
#16 = CARTESIAN_POINT ( 'NONE',  ( 0.0000000000000000000, 0.0000000000000000000, 0.0000000000000000000 ) ) ;
#17 = EDGE_LOOP ( 'NONE', ( #335, #178, #285 ) ) ;
#18 = COORDINATED_UNIVERSAL_TIME_OFFSET ( 1, 0, .AHEAD. ) ;
#19 = ORIENTED_EDGE ( 'NONE', *, *, #238, .T. ) ;
#20 = CC_DESIGN_PERSON_AND_ORGANIZATION_ASSIGNMENT ( #48, #46, ( #223 ) ) ;
#21 = CONICAL_SURFACE ( 'NONE', #266, 3.999999999999986233, 1.029744258676649649 ) ;
#22 = CC_DESIGN_APPROVAL ( #166, ( #223 ) ) ;
#23 = CYLINDRICAL_SURFACE ( 'NONE', #222, 3.999999999999991562 ) ;
#24 = EDGE_CURVE ( 'NONE', #260, #300, #9, .T. ) ;
#25 = ADVANCED_BREP_SHAPE_REPRESENTATION ( '54324', ( #320, #314, #167 ), #203 ) ;
#26 = DIRECTION ( 'NONE',  ( 0.0000000000000000000, 1.000000000000000000, 0.0000000000000000000 ) ) ;
#27 = EDGE_CURVE ( 'NONE', #185, #300, #155, .T. ) ;
#28 = DIRECTION ( 'NONE',  ( 3.491481338843133355E-15, -1.224646799147353454E-16, 1.000000000000000000 ) ) ;
#29 = CARTESIAN_POINT ( 'NONE',  ( 0.0000000000000000000, 0.0000000000000000000, 0.0000000000000000000 ) ) ;
#30 = CARTESIAN_POINT ( 'NONE',  ( 8.391574554321902235E-15, -3.999999999999986233, 2.403442476110258852 ) ) ;
#31 = CARTESIAN_POINT ( 'NONE',  ( 8.391574554321903813E-15, -2.943368135303218590E-16, 2.403442476110259296 ) ) ;
#32 = CC_DESIGN_APPROVAL ( #128, ( #35 ) ) ;
#33 = FACE_OUTER_BOUND ( 'NONE', #172, .T. ) ;
#34 = DIRECTION ( 'NONE',  ( 0.0000000000000000000, 1.000000000000000000, 0.0000000000000000000 ) ) ;
#35 = PRODUCT_DEFINITION ( 'UNKNOWN', '', #223, #193 ) ;
#36 = EDGE_CURVE ( 'NONE', #121, #296, #43, .T. ) ;
#37 = ORIENTED_EDGE ( 'NONE', *, *, #214, .T. ) ;
#38 = CALENDAR_DATE ( 2021, 2, 9 ) ;
#39 = DIRECTION ( 'NONE',  ( -3.491481338843133355E-15, 1.224646799147353454E-16, -1.000000000000000000 ) ) ;
#40 = DATE_TIME_ROLE ( 'creation_date' ) ;
#41 = EDGE_LOOP ( 'NONE', ( #213, #19, #145 ) ) ;
#42 = APPROVAL_STATUS ( 'not_yet_approved' ) ;
#43 = CIRCLE ( 'NONE', #210, 3.999999999999995559 ) ;
#44 = APPROVAL_PERSON_ORGANIZATION ( #257, #275, #329 ) ;
#45 = ORIENTED_EDGE ( 'NONE', *, *, #120, .F. ) ;
#46 = PERSON_AND_ORGANIZATION_ROLE ( 'design_supplier' ) ;
#47 = ORIENTED_EDGE ( 'NONE', *, *, #88, .T. ) ;
#48 = PERSON_AND_ORGANIZATION ( #304, #245 ) ;
#49 = ADVANCED_FACE ( 'NONE', ( #196 ), #1, .T. ) ;
#50 = ORIENTED_EDGE ( 'NONE', *, *, #288, .T. ) ;
#51 = VECTOR ( 'NONE', #337, 1000.000000000000000 ) ;
#52 = SECURITY_CLASSIFICATION ( '', '', #325 ) ;
#53 = CARTESIAN_POINT ( 'NONE',  ( 2.618611004132350143E-13, 3.999999999999986233, 75.00000000000000000 ) ) ;
#54 = CARTESIAN_POINT ( 'NONE',  ( 0.0000000000000000000, 0.0000000000000000000, 0.0000000000000000000 ) ) ;
#55 = LINE ( 'NONE', #133, #62 ) ;
#56 = VECTOR ( 'NONE', #243, 999.9999999999998863 ) ;
#57 = DIRECTION ( 'NONE',  ( -3.491481338843133355E-15, 1.224646799147353454E-16, -1.000000000000000000 ) ) ;
#58 = PRODUCT ( '54324', '54324', '', ( #74 ) ) ;
#59 = DIRECTION ( 'NONE',  ( -3.491481338843133355E-15, 1.224646799147353454E-16, -1.000000000000000000 ) ) ;
#60 = DIRECTION ( 'NONE',  ( 0.0000000000000000000, 1.000000000000000000, 0.0000000000000000000 ) ) ;
#61 = DIRECTION ( 'NONE',  ( 4.275831445896959482E-31, 1.000000000000000000, 1.224646799147353454E-16 ) ) ;
#62 = VECTOR ( 'NONE', #59, 1000.000000000000000 ) ;
#63 = EDGE_CURVE ( 'NONE', #206, #251, #286, .T. ) ;
#64 = ORIENTED_EDGE ( 'NONE', *, *, #24, .T. ) ;
#65 = CONICAL_SURFACE ( 'NONE', #87, 3.999999999999986233, 1.029744258676649649 ) ;
#66 = PERSON_AND_ORGANIZATION_ROLE ( 'classification_officer' ) ;
#67 = DIRECTION ( 'NONE',  ( 1.798245827342160317E-15, -0.8571673007021098911, 0.5150380749100582634 ) ) ;
#68 = ORIENTED_EDGE ( 'NONE', *, *, #63, .T. ) ;
#69 = PERSON_AND_ORGANIZATION ( #304, #245 ) ;
#70 = ORIENTED_EDGE ( 'NONE', *, *, #88, .F. ) ;
#71 = CALENDAR_DATE ( 2021, 2, 9 ) ;
#72 = AXIS2_PLACEMENT_3D ( 'NONE', #168, #228, #274 ) ;
#73 = AXIS2_PLACEMENT_3D ( 'NONE', #165, #136, #197 ) ;
#74 = MECHANICAL_CONTEXT ( 'NONE', #126, 'mechanical' ) ;
#75 = ADVANCED_FACE ( 'NONE', ( #268 ), #21, .T. ) ;
#76 = EDGE_LOOP ( 'NONE', ( #115, #307, #68, #333 ) ) ;
#77 = FACE_OUTER_BOUND ( 'NONE', #258, .T. ) ;
#78 = CONICAL_SURFACE ( 'NONE', #249, 3.200000000000000622, 0.7853981633974510546 ) ;
#79 = FACE_OUTER_BOUND ( 'NONE', #15, .T. ) ;
#80 = CARTESIAN_POINT ( 'NONE',  ( 2.618611004132350143E-13, -9.184850993605150311E-15, 75.00000000000000000 ) ) ;
#81 = CARTESIAN_POINT ( 'NONE',  ( 2.618611004132350143E-13, -9.184850993605150311E-15, 75.00000000000000000 ) ) ;
#82 = CONICAL_SURFACE ( 'NONE', #326, 3.200000000000000622, 0.7853981633974510546 ) ;
#83 = PLANE ( 'NONE',  #199 ) ;
#84 = EDGE_CURVE ( 'NONE', #119, #206, #298, .T. ) ;
#85 = CARTESIAN_POINT ( 'NONE',  ( 3.342754747130624641E-13, -4.000000000000014211, 116.2000000000000171 ) ) ;
#86 = LINE ( 'NONE', #226, #56 ) ;
#87 = AXIS2_PLACEMENT_3D ( 'NONE', #315, #239, #241 ) ;
#88 = EDGE_CURVE ( 'NONE', #97, #260, #148, .T. ) ;
#89 = DIRECTION ( 'NONE',  ( 0.0000000000000000000, 1.000000000000000000, 0.0000000000000000000 ) ) ;
#90 = PERSON_AND_ORGANIZATION ( #304, #245 ) ;
#91 = CC_DESIGN_PERSON_AND_ORGANIZATION_ASSIGNMENT ( #69, #332, ( #35 ) ) ;
#92 = CARTESIAN_POINT ( 'NONE',  ( 8.391574554321902235E-15, -3.999999999999986233, 2.403442476110258852 ) ) ;
#93 = VECTOR ( 'NONE', #233, 1000.000000000000000 ) ;
#94 = COORDINATED_UNIVERSAL_TIME_OFFSET ( 1, 0, .AHEAD. ) ;
#95 = DIRECTION ( 'NONE',  ( -3.491481338843133355E-15, 1.224646799147353454E-16, -1.000000000000000000 ) ) ;
#96 = PERSON_AND_ORGANIZATION ( #304, #245 ) ;
#97 = VERTEX_POINT ( 'NONE', #108 ) ;
#98 = APPROVAL_ROLE ( '' ) ;
#99 = EDGE_LOOP ( 'NONE', ( #37, #256, #101, #283 ) ) ;
#100 = CIRCLE ( 'NONE', #140, 3.999999999999995559 ) ;
#101 = ORIENTED_EDGE ( 'NONE', *, *, #143, .F. ) ;
#102 = DIRECTION ( 'NONE',  ( -3.851859888774484843E-31, -1.000000000000000000, -1.084202172485508132E-16 ) ) ;
#103 = FACE_OUTER_BOUND ( 'NONE', #99, .T. ) ;
#104 = UNCERTAINTY_MEASURE_WITH_UNIT (LENGTH_MEASURE( 1.000000000000000082E-05 ), #207, 'distance_accuracy_value', 'NONE');
#105 = VECTOR ( 'NONE', #289, 1000.000000000000000 ) ;
#106 = CARTESIAN_POINT ( 'NONE',  ( 4.057101315735721337E-13, -1.423039580609224757E-14, 116.2000000000000171 ) ) ;
#107 = CARTESIAN_POINT ( 'NONE',  ( 0.0000000000000000000, 0.0000000000000000000, 0.0000000000000000000 ) ) ;
#108 = CARTESIAN_POINT ( 'NONE',  ( 2.618611004132350143E-13, 3.999999999999986233, 75.00000000000000000 ) ) ;
#109 = CIRCLE ( 'NONE', #131, 3.200000000000000622 ) ;
#110 = CYLINDRICAL_SURFACE ( 'NONE', #182, 3.999999999999998224 ) ;
#111 = DIRECTION ( 'NONE',  ( -3.491481338843133355E-15, 1.224646799147353454E-16, -1.000000000000000000 ) ) ;
#112 = CARTESIAN_POINT ( 'NONE',  ( 0.0000000000000000000, 0.0000000000000000000, 0.0000000000000000000 ) ) ;
#113 = EDGE_CURVE ( 'NONE', #230, #296, #55, .T. ) ;
#114 = CARTESIAN_POINT ( 'NONE',  ( 4.085033166446466404E-13, -1.432836755002403758E-14, 117.0000000000000000 ) ) ;
#115 = ORIENTED_EDGE ( 'NONE', *, *, #188, .F. ) ;
#116 = CARTESIAN_POINT ( 'NONE',  ( 4.898587196589385219E-16, -3.999999999999991562, -4.898587196589420717E-16 ) ) ;
#117 = CIRCLE ( 'NONE', #232, 3.999999999999986233 ) ;
#118 = DATE_AND_TIME ( #151, #191 ) ;
#119 = VERTEX_POINT ( 'NONE', #130 ) ;
#120 = EDGE_CURVE ( 'NONE', #251, #121, #216, .T. ) ;
#121 = VERTEX_POINT ( 'NONE', #53 ) ;
#122 = PERSON_AND_ORGANIZATION ( #304, #245 ) ;
#123 = ORIENTED_EDGE ( 'NONE', *, *, #330, .T. ) ;
#124 = DIRECTION ( 'NONE',  ( 1.000000000000000000, 0.0000000000000000000, 0.0000000000000000000 ) ) ;
#125 = AXIS2_PLACEMENT_3D ( 'NONE', #205, #95, #292 ) ;
#126 = APPLICATION_CONTEXT ( 'configuration controlled 3d designs of mechanical parts and assemblies' ) ;
#127 = FACE_OUTER_BOUND ( 'NONE', #41, .T. ) ;
#128 = APPROVAL ( #42, 'UNSPECIFIED' ) ;
#129 = DIRECTION ( 'NONE',  ( -3.491481338843133355E-15, 1.224646799147353454E-16, -1.000000000000000000 ) ) ;
#130 = CARTESIAN_POINT ( 'NONE',  ( 4.075475969568024185E-13, -3.200000000000014833, 117.0000000000000000 ) ) ;
#131 = AXIS2_PLACEMENT_3D ( 'NONE', #293, #224, #60 ) ;
#132 = CC_DESIGN_APPROVAL ( #275, ( #52 ) ) ;
#133 = CARTESIAN_POINT ( 'NONE',  ( 4.898587196589394093E-16, -3.999999999999998224, -4.898587196589428606E-16 ) ) ;
#134 = FACE_OUTER_BOUND ( 'NONE', #76, .T. ) ;
#135 = CARTESIAN_POINT ( 'NONE',  ( 2.618611004132350143E-13, -9.184850993605150311E-15, 75.00000000000000000 ) ) ;
#136 = DIRECTION ( 'NONE',  ( -3.491481338843133355E-15, 1.224646799147353454E-16, -1.000000000000000000 ) ) ;
#137 = ADVANCED_FACE ( 'NONE', ( #103 ), #82, .T. ) ;
#138 = CARTESIAN_POINT ( 'NONE',  ( 3.342754747130624641E-13, -4.000000000000005329, 75.00000000000000000 ) ) ;
#139 = VECTOR ( 'NONE', #39, 1000.000000000000000 ) ;
#140 = AXIS2_PLACEMENT_3D ( 'NONE', #135, #227, #34 ) ;
#141 = ORIENTED_EDGE ( 'NONE', *, *, #143, .T. ) ;
#142 = CC_DESIGN_PERSON_AND_ORGANIZATION_ASSIGNMENT ( #96, #284, ( #223 ) ) ;
#143 = EDGE_CURVE ( 'NONE', #251, #230, #160, .T. ) ;
#144 = DATE_TIME_ROLE ( 'classification_date' ) ;
#145 = ORIENTED_EDGE ( 'NONE', *, *, #27, .T. ) ;
#146 = APPROVAL_DATE_TIME ( #282, #166 ) ;
#147 = ORIENTED_EDGE ( 'NONE', *, *, #244, .T. ) ;
#148 = CIRCLE ( 'NONE', #308, 3.999999999999995559 ) ;
#149 =( NAMED_UNIT ( * ) PLANE_ANGLE_UNIT ( ) SI_UNIT ( $, .RADIAN. ) );
#150 = ORIENTED_EDGE ( 'NONE', *, *, #27, .F. ) ;
#151 = CALENDAR_DATE ( 2021, 2, 9 ) ;
#152 = VERTEX_POINT ( 'NONE', #107 ) ;
#153 = APPLICATION_PROTOCOL_DEFINITION ( 'international standard', 'config_control_design', 1994, #126 ) ;
#154 = ORIENTED_EDGE ( 'NONE', *, *, #330, .F. ) ;
#155 = CIRCLE ( 'NONE', #125, 3.999999999999986233 ) ;
#156 = CARTESIAN_POINT ( 'NONE',  ( 8.391574554321903813E-15, -2.943368135303218590E-16, 2.403442476110259296 ) ) ;
#157 = DIRECTION ( 'NONE',  ( -3.491481338843133355E-15, 1.224646799147353454E-16, -1.000000000000000000 ) ) ;
#158 = DIRECTION ( 'NONE',  ( -3.491481338843133355E-15, 1.224646799147353454E-16, -1.000000000000000000 ) ) ;
#159 = CLOSED_SHELL ( 'NONE', ( #297, #180, #75, #173, #162 ) ) ;
#160 = CIRCLE ( 'NONE', #273, 4.000000000000000000 ) ;
#161 = LOCAL_TIME ( 15, 38, 19.00000000000000000, #18 ) ;
#162 = ADVANCED_FACE ( 'NONE', ( #79 ), #83, .T. ) ;
#163 = DIRECTION ( 'NONE',  ( 4.275831445896959482E-31, 1.000000000000000000, 1.224646799147353454E-16 ) ) ;
#164 = DIRECTION ( 'NONE',  ( -4.275831445896959482E-31, -1.000000000000000000, -1.224646799147353454E-16 ) ) ;
#165 = CARTESIAN_POINT ( 'NONE',  ( 4.057101315735721337E-13, -1.423039580609224757E-14, 116.2000000000000171 ) ) ;
#166 = APPROVAL ( #10, 'UNSPECIFIED' ) ;
#167 = AXIS2_PLACEMENT_3D ( 'NONE', #16, #177, #124 ) ;
#168 = CARTESIAN_POINT ( 'NONE',  ( 2.618611004132350143E-13, -9.184850993605150311E-15, 75.00000000000000000 ) ) ;
#169 = ORIENTED_EDGE ( 'NONE', *, *, #13, .T. ) ;
#170 = DIRECTION ( 'NONE',  ( -3.491481338843133355E-15, 1.224646799147353454E-16, -1.000000000000000000 ) ) ;
#171 = CC_DESIGN_PERSON_AND_ORGANIZATION_ASSIGNMENT ( #237, #66, ( #52 ) ) ;
#172 = EDGE_LOOP ( 'NONE', ( #141, #303, #235, #45 ) ) ;
#173 = ADVANCED_FACE ( 'NONE', ( #77 ), #23, .T. ) ;
#174 = AXIS2_PLACEMENT_3D ( 'NONE', #29, #57, #163 ) ;
#175 = PERSON_AND_ORGANIZATION_ROLE ( 'design_owner' ) ;
#176 = LINE ( 'NONE', #277, #139 ) ;
#177 = DIRECTION ( 'NONE',  ( 0.0000000000000000000, 0.0000000000000000000, 1.000000000000000000 ) ) ;
#178 = ORIENTED_EDGE ( 'NONE', *, *, #3, .T. ) ;
#179 = APPROVAL_ROLE ( '' ) ;
#180 = ADVANCED_FACE ( 'NONE', ( #127 ), #65, .T. ) ;
#181 = ORIENTED_EDGE ( 'NONE', *, *, #120, .T. ) ;
#182 = AXIS2_PLACEMENT_3D ( 'NONE', #247, #198, #61 ) ;
#183 = CALENDAR_DATE ( 2021, 2, 9 ) ;
#184 = CC_DESIGN_SECURITY_CLASSIFICATION ( #52, ( #223 ) ) ;
#185 = VERTEX_POINT ( 'NONE', #336 ) ;
#186 = DATE_AND_TIME ( #183, #190 ) ;
#187 = ORIENTED_EDGE ( 'NONE', *, *, #113, .F. ) ;
#188 = EDGE_CURVE ( 'NONE', #119, #230, #220, .T. ) ;
#189 = PLANE ( 'NONE',  #229 ) ;
#190 = LOCAL_TIME ( 15, 38, 19.00000000000000000, #202 ) ;
#191 = LOCAL_TIME ( 15, 38, 19.00000000000000000, #94 ) ;
#192 = DIRECTION ( 'NONE',  ( 3.491481338843133355E-15, -1.224646799147353454E-16, 1.000000000000000000 ) ) ;
#193 = DESIGN_CONTEXT ( 'detailed design', #11, 'design' ) ;
#194 = DIRECTION ( 'NONE',  ( -3.491481338843133355E-15, 1.224646799147353454E-16, -1.000000000000000000 ) ) ;
#195 = FACE_OUTER_BOUND ( 'NONE', #254, .T. ) ;
#196 = FACE_OUTER_BOUND ( 'NONE', #236, .T. ) ;
#197 = DIRECTION ( 'NONE',  ( 0.0000000000000000000, 1.000000000000000000, 0.0000000000000000000 ) ) ;
#198 = DIRECTION ( 'NONE',  ( -3.491481338843133355E-15, 1.224646799147353454E-16, -1.000000000000000000 ) ) ;
#199 = AXIS2_PLACEMENT_3D ( 'NONE', #240, #28, #164 ) ;
#200 = PLANE ( 'NONE',  #334 ) ;
#201 = ORIENTED_EDGE ( 'NONE', *, *, #214, .F. ) ;
#202 = COORDINATED_UNIVERSAL_TIME_OFFSET ( 1, 0, .AHEAD. ) ;
#203 =( GEOMETRIC_REPRESENTATION_CONTEXT ( 3 ) GLOBAL_UNCERTAINTY_ASSIGNED_CONTEXT ( ( #104 ) ) GLOBAL_UNIT_ASSIGNED_CONTEXT ( ( #207, #149, #211 ) ) REPRESENTATION_CONTEXT ( 'NONE', 'WORKASPACE' ) );
#204 = ADVANCED_FACE ( 'NONE', ( #195 ), #189, .F. ) ;
#205 = CARTESIAN_POINT ( 'NONE',  ( 8.391574554321903813E-15, -2.943368135303218590E-16, 2.403442476110259296 ) ) ;
#206 = VERTEX_POINT ( 'NONE', #319 ) ;
#207 =( LENGTH_UNIT ( ) NAMED_UNIT ( * ) SI_UNIT ( .MILLI., .METRE. ) );
#208 = VECTOR ( 'NONE', #67, 1000.000000000000000 ) ;
#209 = ORIENTED_EDGE ( 'NONE', *, *, #84, .F. ) ;
#210 = AXIS2_PLACEMENT_3D ( 'NONE', #81, #291, #263 ) ;
#211 =( NAMED_UNIT ( * ) SI_UNIT ( $, .STERADIAN. ) SOLID_ANGLE_UNIT ( ) );
#212 = CC_DESIGN_PERSON_AND_ORGANIZATION_ASSIGNMENT ( #90, #175, ( #58 ) ) ;
#213 = ORIENTED_EDGE ( 'NONE', *, *, #3, .F. ) ;
#214 = EDGE_CURVE ( 'NONE', #206, #119, #109, .T. ) ;
#215 = CARTESIAN_POINT ( 'NONE',  ( 4.088952036203737626E-13, -3.200000000000014833, 117.0000000000000000 ) ) ;
#216 = LINE ( 'NONE', #221, #105 ) ;
#217 = SHAPE_DEFINITION_REPRESENTATION ( #294, #25 ) ;
#218 = DIRECTION ( 'NONE',  ( 4.275831445896959482E-31, 1.000000000000000000, 1.224646799147353207E-16 ) ) ;
#219 = EDGE_CURVE ( 'NONE', #300, #185, #117, .T. ) ;
#220 = LINE ( 'NONE', #215, #280 ) ;
#221 = CARTESIAN_POINT ( 'NONE',  ( 1.710332578358783092E-30, 3.999999999999998224, 4.898587196589411843E-16 ) ) ;
#222 = AXIS2_PLACEMENT_3D ( 'NONE', #54, #157, #218 ) ;
#223 = PRODUCT_DEFINITION_FORMATION_WITH_SPECIFIED_SOURCE ( 'ANY', '', #58, .NOT_KNOWN. ) ;
#224 = DIRECTION ( 'NONE',  ( -3.491481338843133355E-15, 1.224646799147353454E-16, -1.000000000000000000 ) ) ;
#225 = DIRECTION ( 'NONE',  ( -3.491481338843133355E-15, 1.224646799147353454E-16, -1.000000000000000000 ) ) ;
#226 = CARTESIAN_POINT ( 'NONE',  ( 8.881433273980845983E-15, 3.999999999999986233, 2.403442476110259740 ) ) ;
#227 = DIRECTION ( 'NONE',  ( -3.491481338843133355E-15, 1.224646799147353454E-16, -1.000000000000000000 ) ) ;
#228 = DIRECTION ( 'NONE',  ( -3.491481338843133355E-15, 1.224646799147353454E-16, -1.000000000000000000 ) ) ;
#229 = AXIS2_PLACEMENT_3D ( 'NONE', #261, #313, #272 ) ;
#230 = VERTEX_POINT ( 'NONE', #85 ) ;
#231 = CC_DESIGN_DATE_AND_TIME_ASSIGNMENT ( #255, #40, ( #35 ) ) ;
#232 = AXIS2_PLACEMENT_3D ( 'NONE', #31, #111, #318 ) ;
#233 = DIRECTION ( 'NONE',  ( -3.491481338843133355E-15, 1.224646799147353454E-16, -1.000000000000000000 ) ) ;
#234 = CALENDAR_DATE ( 2021, 2, 9 ) ;
#235 = ORIENTED_EDGE ( 'NONE', *, *, #36, .F. ) ;
#236 = EDGE_LOOP ( 'NONE', ( #187, #147, #181, #328 ) ) ;
#237 = PERSON_AND_ORGANIZATION ( #304, #245 ) ;
#238 = EDGE_CURVE ( 'NONE', #152, #185, #86, .T. ) ;
#239 = DIRECTION ( 'NONE',  ( 3.491481338843133355E-15, -1.224646799147353454E-16, 1.000000000000000000 ) ) ;
#240 = CARTESIAN_POINT ( 'NONE',  ( 2.618611004132350143E-13, 2.999519565323699889E-32, 75.00000000000000000 ) ) ;
#241 = DIRECTION ( 'NONE',  ( -3.851859888774484843E-31, -1.000000000000000000, -1.084202172485508132E-16 ) ) ;
#242 = DIRECTION ( 'NONE',  ( -3.491481338843133355E-15, 1.224646799147353454E-16, -1.000000000000000000 ) ) ;
#243 = DIRECTION ( 'NONE',  ( 1.903218546456022717E-15, 0.8571673007021097801, 0.5150380749100585964 ) ) ;
#244 = EDGE_CURVE ( 'NONE', #230, #251, #253, .T. ) ;
#245 = ORGANIZATION ( 'UNSPECIFIED', 'UNSPECIFIED', '' ) ;
#246 = LOCAL_TIME ( 15, 38, 19.00000000000000000, #252 ) ;
#247 = CARTESIAN_POINT ( 'NONE',  ( 0.0000000000000000000, 0.0000000000000000000, 0.0000000000000000000 ) ) ;
#248 = FACE_OUTER_BOUND ( 'NONE', #279, .T. ) ;
#249 = AXIS2_PLACEMENT_3D ( 'NONE', #114, #170, #89 ) ;
#250 = DATE_AND_TIME ( #38, #161 ) ;
#251 = VERTEX_POINT ( 'NONE', #295 ) ;
#252 = COORDINATED_UNIVERSAL_TIME_OFFSET ( 1, 0, .AHEAD. ) ;
#253 = CIRCLE ( 'NONE', #73, 4.000000000000000000 ) ;
#254 = EDGE_LOOP ( 'NONE', ( #310, #50 ) ) ;
#255 = DATE_AND_TIME ( #234, #246 ) ;
#256 = ORIENTED_EDGE ( 'NONE', *, *, #188, .T. ) ;
#257 = PERSON_AND_ORGANIZATION ( #304, #245 ) ;
#258 = EDGE_LOOP ( 'NONE', ( #309, #123, #169, #305 ) ) ;
#259 = APPLICATION_PROTOCOL_DEFINITION ( 'international standard', 'config_control_design', 1994, #11 ) ;
#260 = VERTEX_POINT ( 'NONE', #5 ) ;
#261 = CARTESIAN_POINT ( 'NONE',  ( 2.618611004132350143E-13, 2.999519565323699889E-32, 75.00000000000000000 ) ) ;
#262 = PRODUCT_RELATED_PRODUCT_CATEGORY ( 'detail', '', ( #58 ) ) ;
#263 = DIRECTION ( 'NONE',  ( 0.0000000000000000000, 1.000000000000000000, 0.0000000000000000000 ) ) ;
#264 = CLOSED_SHELL ( 'NONE', ( #137, #270, #204, #49, #302, #323 ) ) ;
#265 = DIRECTION ( 'NONE',  ( 0.0000000000000000000, 1.000000000000000000, 0.0000000000000000000 ) ) ;
#266 = AXIS2_PLACEMENT_3D ( 'NONE', #156, #192, #102 ) ;
#267 = CIRCLE ( 'NONE', #72, 3.999999999999995559 ) ;
#268 = FACE_OUTER_BOUND ( 'NONE', #17, .T. ) ;
#269 = DIRECTION ( 'NONE',  ( 4.275831445896959482E-31, 1.000000000000000000, 1.224646799147353207E-16 ) ) ;
#270 = ADVANCED_FACE ( 'NONE', ( #33 ), #110, .T. ) ;
#271 = FACE_OUTER_BOUND ( 'NONE', #281, .T. ) ;
#272 = DIRECTION ( 'NONE',  ( -4.275831445896959482E-31, -1.000000000000000000, -1.224646799147353454E-16 ) ) ;
#273 = AXIS2_PLACEMENT_3D ( 'NONE', #106, #158, #265 ) ;
#274 = DIRECTION ( 'NONE',  ( 0.0000000000000000000, 1.000000000000000000, 0.0000000000000000000 ) ) ;
#275 = APPROVAL ( #276, 'UNSPECIFIED' ) ;
#276 = APPROVAL_STATUS ( 'not_yet_approved' ) ;
#277 = CARTESIAN_POINT ( 'NONE',  ( 1.710332578358780290E-30, 3.999999999999991562, 4.898587196589402968E-16 ) ) ;
#278 = APPROVAL_DATE_TIME ( #186, #128 ) ;
#279 = EDGE_LOOP ( 'NONE', ( #47, #64, #150, #331 ) ) ;
#280 = VECTOR ( 'NONE', #316, 1000.000000000000000 ) ;
#281 = EDGE_LOOP ( 'NONE', ( #201, #209 ) ) ;
#282 = DATE_AND_TIME ( #71, #14 ) ;
#283 = ORIENTED_EDGE ( 'NONE', *, *, #63, .F. ) ;
#284 = PERSON_AND_ORGANIZATION_ROLE ( 'creator' ) ;
#285 = ORIENTED_EDGE ( 'NONE', *, *, #219, .T. ) ;
#286 = LINE ( 'NONE', #2, #51 ) ;
#287 = APPROVAL_PERSON_ORGANIZATION ( #122, #128, #179 ) ;
#288 = EDGE_CURVE ( 'NONE', #296, #121, #267, .T. ) ;
#289 = DIRECTION ( 'NONE',  ( -3.491481338843133355E-15, 1.224646799147353454E-16, -1.000000000000000000 ) ) ;
#290 = CARTESIAN_POINT ( 'NONE',  ( 4.085033166446466404E-13, -1.432836755002403758E-14, 117.0000000000000000 ) ) ;
#291 = DIRECTION ( 'NONE',  ( -3.491481338843133355E-15, 1.224646799147353454E-16, -1.000000000000000000 ) ) ;
#292 = DIRECTION ( 'NONE',  ( 3.851859888774484843E-31, 1.000000000000000000, 1.084202172485508132E-16 ) ) ;
#293 = CARTESIAN_POINT ( 'NONE',  ( 4.085033166446466404E-13, -1.432836755002403758E-14, 117.0000000000000000 ) ) ;
#294 = PRODUCT_DEFINITION_SHAPE ( 'NONE', 'NONE',  #35 ) ;
#295 = CARTESIAN_POINT ( 'NONE',  ( 4.057101315735721337E-13, 3.999999999999986233, 116.2000000000000171 ) ) ;
#296 = VERTEX_POINT ( 'NONE', #138 ) ;
#297 = ADVANCED_FACE ( 'NONE', ( #248 ), #6, .T. ) ;
#298 = CIRCLE ( 'NONE', #12, 3.200000000000000622 ) ;
#299 = CARTESIAN_POINT ( 'NONE',  ( 4.085033166446466404E-13, 2.399615652258952193E-32, 117.0000000000000000 ) ) ;
#300 = VERTEX_POINT ( 'NONE', #30 ) ;
#301 = PERSON_AND_ORGANIZATION ( #304, #245 ) ;
#302 = ADVANCED_FACE ( 'NONE', ( #134 ), #78, .T. ) ;
#303 = ORIENTED_EDGE ( 'NONE', *, *, #113, .T. ) ;
#304 = PERSON ( 'UNSPECIFIED', 'UNSPECIFIED', 'UNSPECIFIED', ('UNSPECIFIED'), ('UNSPECIFIED'), ('UNSPECIFIED') ) ;
#305 = ORIENTED_EDGE ( 'NONE', *, *, #219, .F. ) ;
#306 = COORDINATED_UNIVERSAL_TIME_OFFSET ( 1, 0, .AHEAD. ) ;
#307 = ORIENTED_EDGE ( 'NONE', *, *, #84, .T. ) ;
#308 = AXIS2_PLACEMENT_3D ( 'NONE', #80, #194, #4 ) ;
#309 = ORIENTED_EDGE ( 'NONE', *, *, #24, .F. ) ;
#310 = ORIENTED_EDGE ( 'NONE', *, *, #36, .T. ) ;
#311 = CARTESIAN_POINT ( 'NONE',  ( 4.085033166446466404E-13, -1.432836755002403758E-14, 117.0000000000000000 ) ) ;
#312 = CC_DESIGN_DATE_AND_TIME_ASSIGNMENT ( #118, #144, ( #52 ) ) ;
#313 = DIRECTION ( 'NONE',  ( 3.491481338843133355E-15, -1.224646799147353454E-16, 1.000000000000000000 ) ) ;
#314 = MANIFOLD_SOLID_BREP ( 'Corps-Déplacer/Copier1[2]', #159 ) ;
#315 = CARTESIAN_POINT ( 'NONE',  ( 8.391574554321903813E-15, -2.943368135303218590E-16, 2.403442476110259296 ) ) ;
#316 = DIRECTION ( 'NONE',  ( -2.382254525458709186E-15, -0.7071067811865493491, -0.7071067811865456854 ) ) ;
#317 = DIRECTION ( 'NONE',  ( 0.0000000000000000000, 1.000000000000000000, 0.0000000000000000000 ) ) ;
#318 = DIRECTION ( 'NONE',  ( 3.851859888774484843E-31, 1.000000000000000000, 1.084202172485508132E-16 ) ) ;
#319 = CARTESIAN_POINT ( 'NONE',  ( 4.085033166446466404E-13, 3.199999999999986411, 117.0000000000000000 ) ) ;
#320 = MANIFOLD_SOLID_BREP ( 'Corps-Déplacer/Copier1[1]', #264 ) ;
#321 = DIRECTION ( 'NONE',  ( -3.491481338843133355E-15, 1.224646799147353454E-16, -1.000000000000000000 ) ) ;
#322 = DIRECTION ( 'NONE',  ( 4.275831445896959482E-31, 1.000000000000000000, 1.224646799147353454E-16 ) ) ;
#323 = ADVANCED_FACE ( 'NONE', ( #271 ), #200, .F. ) ;
#324 = LINE ( 'NONE', #92, #208 ) ;
#325 = SECURITY_CLASSIFICATION_LEVEL ( 'unclassified' ) ;
#326 = AXIS2_PLACEMENT_3D ( 'NONE', #290, #129, #317 ) ;
#327 = APPROVAL_PERSON_ORGANIZATION ( #301, #166, #98 ) ;
#328 = ORIENTED_EDGE ( 'NONE', *, *, #288, .F. ) ;
#329 = APPROVAL_ROLE ( '' ) ;
#330 = EDGE_CURVE ( 'NONE', #260, #97, #100, .T. ) ;
#331 = ORIENTED_EDGE ( 'NONE', *, *, #13, .F. ) ;
#332 = PERSON_AND_ORGANIZATION_ROLE ( 'creator' ) ;
#333 = ORIENTED_EDGE ( 'NONE', *, *, #244, .F. ) ;
#334 = AXIS2_PLACEMENT_3D ( 'NONE', #299, #225, #322 ) ;
#335 = ORIENTED_EDGE ( 'NONE', *, *, #238, .F. ) ;
#336 = CARTESIAN_POINT ( 'NONE',  ( 8.881433273980845983E-15, 3.999999999999986233, 2.403442476110259740 ) ) ;
#337 = DIRECTION ( 'NONE',  ( -2.468850131082258244E-15, 0.7071067811865495711, -0.7071067811865454633 ) ) ;
ENDSEC;
END-ISO-10303-21;
