ISO-10303-21;
HEADER;
FILE_DESCRIPTION (( 'STEP AP203' ),
    '1' );
FILE_NAME ('54321.step',
    '2021-09-02T13:38:18',
    ( '' ),
    ( '' ),
    'SwSTEP 2.0',
    'SolidWorks 2019',
    '' );
FILE_SCHEMA (( 'CONFIG_CONTROL_DESIGN' ));
ENDSEC;

DATA;
#1 = DIRECTION ( 'NONE',  ( 4.275831445896960358E-31, 1.000000000000000000, 1.224646799147353454E-16 ) ) ;
#2 = AXIS2_PLACEMENT_3D ( 'NONE', #74, #75, #310 ) ;
#3 = VERTEX_POINT ( 'NONE', #280 ) ;
#4 = CYLINDRICAL_SURFACE ( 'NONE', #30, 3.899999999999990141 ) ;
#5 = DIRECTION ( 'NONE',  ( -3.491481338843133355E-15, 1.224646799147353454E-16, -1.000000000000000000 ) ) ;
#6 = CARTESIAN_POINT ( 'NONE',  ( 4.085033166446466404E-13, -1.432836755002403758E-14, 117.0000000000000000 ) ) ;
#7 = EDGE_LOOP ( 'NONE', ( #9, #132 ) ) ;
#8 = CALENDAR_DATE ( 2021, 2, 9 ) ;
#9 = ORIENTED_EDGE ( 'NONE', *, *, #336, .T. ) ;
#10 = AXIS2_PLACEMENT_3D ( 'NONE', #68, #88, #271 ) ;
#11 =( NAMED_UNIT ( * ) PLANE_ANGLE_UNIT ( ) SI_UNIT ( $, .RADIAN. ) );
#12 = APPLICATION_CONTEXT ( 'configuration controlled 3d designs of mechanical parts and assemblies' ) ;
#13 = CARTESIAN_POINT ( 'NONE',  ( 2.618611004132350143E-13, -9.184850993605150311E-15, 75.00000000000000000 ) ) ;
#14 = APPROVAL_DATE_TIME ( #194, #186 ) ;
#15 = PRODUCT_DEFINITION ( 'UNKNOWN', '', #197, #151 ) ;
#16 = COORDINATED_UNIVERSAL_TIME_OFFSET ( 1, 0, .AHEAD. ) ;
#17 = CIRCLE ( 'NONE', #52, 3.899999999999994582 ) ;
#18 = DIRECTION ( 'NONE',  ( 1.798245827342159528E-15, -0.8571673007021100021, 0.5150380749100580413 ) ) ;
#19 = EDGE_CURVE ( 'NONE', #31, #208, #327, .T. ) ;
#20 = CC_DESIGN_PERSON_AND_ORGANIZATION_ASSIGNMENT ( #296, #319, ( #197 ) ) ;
#21 = ORIENTED_EDGE ( 'NONE', *, *, #124, .F. ) ;
#22 = EDGE_CURVE ( 'NONE', #276, #126, #267, .T. ) ;
#23 = CARTESIAN_POINT ( 'NONE',  ( 0.0000000000000000000, 0.0000000000000000000, 0.0000000000000000000 ) ) ;
#24 = ORGANIZATION ( 'UNSPECIFIED', 'UNSPECIFIED', '' ) ;
#25 = ADVANCED_FACE ( 'NONE', ( #243 ), #274, .T. ) ;
#26 = DIRECTION ( 'NONE',  ( -3.491481338843133355E-15, 1.224646799147353454E-16, -1.000000000000000000 ) ) ;
#27 = CYLINDRICAL_SURFACE ( 'NONE', #2, 3.899999999999997247 ) ;
#28 = ORIENTED_EDGE ( 'NONE', *, *, #231, .F. ) ;
#29 = DIRECTION ( 'NONE',  ( -2.382254525458708792E-15, -0.7071067811865495711, -0.7071067811865455743 ) ) ;
#30 = AXIS2_PLACEMENT_3D ( 'NONE', #102, #125, #1 ) ;
#31 = VERTEX_POINT ( 'NONE', #59 ) ;
#32 = LINE ( 'NONE', #235, #291 ) ;
#33 = EDGE_CURVE ( 'NONE', #240, #163, #153, .T. ) ;
#34 = ORIENTED_EDGE ( 'NONE', *, *, #218, .F. ) ;
#35 = APPLICATION_PROTOCOL_DEFINITION ( 'international standard', 'config_control_design', 1994, #12 ) ;
#36 = CARTESIAN_POINT ( 'NONE',  ( 4.085033166446466404E-13, -1.432836755002403758E-14, 117.0000000000000000 ) ) ;
#37 = PERSON_AND_ORGANIZATION_ROLE ( 'classification_officer' ) ;
#38 = DIRECTION ( 'NONE',  ( -3.491481338843133355E-15, 1.224646799147353454E-16, -1.000000000000000000 ) ) ;
#39 = CLOSED_SHELL ( 'NONE', ( #263, #199, #224, #99, #25, #90 ) ) ;
#40 = COORDINATED_UNIVERSAL_TIME_OFFSET ( 1, 0, .AHEAD. ) ;
#41 = APPROVAL_ROLE ( '' ) ;
#42 = ORIENTED_EDGE ( 'NONE', *, *, #118, .T. ) ;
#43 = VECTOR ( 'NONE', #18, 1000.000000000000000 ) ;
#44 = EDGE_CURVE ( 'NONE', #320, #225, #304, .T. ) ;
#45 = DIRECTION ( 'NONE',  ( 4.275831445896959482E-31, 1.000000000000000000, 1.224646799147353454E-16 ) ) ;
#46 = EDGE_CURVE ( 'NONE', #163, #240, #167, .T. ) ;
#47 = APPROVAL_PERSON_ORGANIZATION ( #292, #186, #41 ) ;
#48 = PRODUCT ( '54321', '54321', '', ( #219 ) ) ;
#49 = DIRECTION ( 'NONE',  ( -3.491481338843133355E-15, 1.224646799147353454E-16, -1.000000000000000000 ) ) ;
#50 = DIRECTION ( 'NONE',  ( -3.491481338843133355E-15, 1.224646799147353454E-16, -1.000000000000000000 ) ) ;
#51 = CARTESIAN_POINT ( 'NONE',  ( 2.618611004132350143E-13, 3.899999999999985700, 75.00000000000000000 ) ) ;
#52 = AXIS2_PLACEMENT_3D ( 'NONE', #13, #196, #247 ) ;
#53 = EDGE_CURVE ( 'NONE', #126, #236, #321, .T. ) ;
#54 = CARTESIAN_POINT ( 'NONE',  ( 8.181785190463851840E-15, -2.869783931920636535E-16, 2.343356414207501626 ) ) ;
#55 = DIRECTION ( 'NONE',  ( -3.491481338843133355E-15, 1.224646799147353454E-16, -1.000000000000000000 ) ) ;
#56 = CARTESIAN_POINT ( 'NONE',  ( 8.181785190463851840E-15, -2.869783931920636535E-16, 2.343356414207501626 ) ) ;
#57 = DIRECTION ( 'NONE',  ( 0.0000000000000000000, 1.000000000000000000, 0.0000000000000000000 ) ) ;
#58 = CC_DESIGN_APPROVAL ( #289, ( #15 ) ) ;
#59 = CARTESIAN_POINT ( 'NONE',  ( 8.659397442131318286E-15, 3.899999999999985700, 2.343356414207502070 ) ) ;
#60 = CIRCLE ( 'NONE', #250, 3.899999999999994582 ) ;
#61 = EDGE_CURVE ( 'NONE', #3, #236, #17, .T. ) ;
#62 = PERSON_AND_ORGANIZATION ( #324, #24 ) ;
#63 = ORIENTED_EDGE ( 'NONE', *, *, #117, .F. ) ;
#64 = DIRECTION ( 'NONE',  ( -3.491481338843133355E-15, 1.224646799147353454E-16, -1.000000000000000000 ) ) ;
#65 =( LENGTH_UNIT ( ) NAMED_UNIT ( * ) SI_UNIT ( .MILLI., .METRE. ) );
#66 = ORIENTED_EDGE ( 'NONE', *, *, #302, .T. ) ;
#67 = CALENDAR_DATE ( 2021, 2, 9 ) ;
#68 = CARTESIAN_POINT ( 'NONE',  ( 4.085033166446466404E-13, -1.432836755002403758E-14, 117.0000000000000000 ) ) ;
#69 = PERSON_AND_ORGANIZATION ( #324, #24 ) ;
#70 = DIRECTION ( 'NONE',  ( -3.491481338843133355E-15, 1.224646799147353454E-16, -1.000000000000000000 ) ) ;
#71 = DATE_TIME_ROLE ( 'classification_date' ) ;
#72 = APPROVAL_PERSON_ORGANIZATION ( #62, #115, #113 ) ;
#73 = ORIENTED_EDGE ( 'NONE', *, *, #22, .F. ) ;
#74 = CARTESIAN_POINT ( 'NONE',  ( 0.0000000000000000000, 0.0000000000000000000, 0.0000000000000000000 ) ) ;
#75 = DIRECTION ( 'NONE',  ( -3.491481338843133355E-15, 1.224646799147353454E-16, -1.000000000000000000 ) ) ;
#76 = SECURITY_CLASSIFICATION ( '', '', #168 ) ;
#77 = FACE_OUTER_BOUND ( 'NONE', #313, .T. ) ;
#78 = ORIENTED_EDGE ( 'NONE', *, *, #124, .T. ) ;
#79 = DIRECTION ( 'NONE',  ( -3.950625526948190099E-31, -1.000000000000000000, -1.112002228190264896E-16 ) ) ;
#80 = DIRECTION ( 'NONE',  ( -3.491481338843133355E-15, 1.224646799147353454E-16, -1.000000000000000000 ) ) ;
#81 = PERSON_AND_ORGANIZATION_ROLE ( 'design_supplier' ) ;
#82 = AXIS2_PLACEMENT_3D ( 'NONE', #201, #55, #255 ) ;
#83 = ORIENTED_EDGE ( 'NONE', *, *, #33, .F. ) ;
#84 = PERSON_AND_ORGANIZATION ( #324, #24 ) ;
#85 = SHAPE_DEFINITION_REPRESENTATION ( #202, #256 ) ;
#86 = EDGE_LOOP ( 'NONE', ( #146, #78, #101 ) ) ;
#87 = DATE_AND_TIME ( #89, #200 ) ;
#88 = DIRECTION ( 'NONE',  ( -3.491481338843133355E-15, 1.224646799147353454E-16, -1.000000000000000000 ) ) ;
#89 = CALENDAR_DATE ( 2021, 2, 9 ) ;
#90 = ADVANCED_FACE ( 'NONE', ( #179 ), #316, .F. ) ;
#91 = CC_DESIGN_PERSON_AND_ORGANIZATION_ASSIGNMENT ( #69, #81, ( #197 ) ) ;
#92 = CARTESIAN_POINT ( 'NONE',  ( 8.181785190463850262E-15, -3.899999999999986589, 2.343356414207501182 ) ) ;
#93 = FACE_OUTER_BOUND ( 'NONE', #227, .T. ) ;
#94 = EDGE_LOOP ( 'NONE', ( #21, #315, #120 ) ) ;
#95 = AXIS2_PLACEMENT_3D ( 'NONE', #230, #229, #288 ) ;
#96 = EDGE_LOOP ( 'NONE', ( #63, #129 ) ) ;
#97 = DIRECTION ( 'NONE',  ( -3.491481338843133355E-15, 1.224646799147353454E-16, -1.000000000000000000 ) ) ;
#98 = CARTESIAN_POINT ( 'NONE',  ( 4.776122516674648690E-16, -3.899999999999990141, -4.776122516674683203E-16 ) ) ;
#99 = ADVANCED_FACE ( 'NONE', ( #134 ), #242, .T. ) ;
#100 = FACE_OUTER_BOUND ( 'NONE', #96, .T. ) ;
#101 = ORIENTED_EDGE ( 'NONE', *, *, #301, .T. ) ;
#102 = CARTESIAN_POINT ( 'NONE',  ( 0.0000000000000000000, 0.0000000000000000000, 0.0000000000000000000 ) ) ;
#103 = DIRECTION ( 'NONE',  ( 0.0000000000000000000, 1.000000000000000000, 0.0000000000000000000 ) ) ;
#104 = DIRECTION ( 'NONE',  ( 3.491481338843133355E-15, -1.224646799147353454E-16, 1.000000000000000000 ) ) ;
#105 = ORIENTED_EDGE ( 'NONE', *, *, #118, .F. ) ;
#106 = VECTOR ( 'NONE', #29, 1000.000000000000114 ) ;
#107 = DIRECTION ( 'NONE',  ( 0.0000000000000000000, 1.000000000000000000, 0.0000000000000000000 ) ) ;
#108 = AXIS2_PLACEMENT_3D ( 'NONE', #156, #206, #307 ) ;
#109 = CALENDAR_DATE ( 2021, 2, 9 ) ;
#110 = CARTESIAN_POINT ( 'NONE',  ( 2.618611004132350143E-13, -9.184850993605150311E-15, 75.00000000000000000 ) ) ;
#111 = DATE_AND_TIME ( #109, #213 ) ;
#112 = CC_DESIGN_PERSON_AND_ORGANIZATION_ASSIGNMENT ( #326, #37, ( #76 ) ) ;
#113 = APPROVAL_ROLE ( '' ) ;
#114 = EDGE_CURVE ( 'NONE', #276, #3, #329, .T. ) ;
#115 = APPROVAL ( #221, 'UNSPECIFIED' ) ;
#116 = CC_DESIGN_DATE_AND_TIME_ASSIGNMENT ( #273, #71, ( #76 ) ) ;
#117 = EDGE_CURVE ( 'NONE', #225, #320, #60, .T. ) ;
#118 = EDGE_CURVE ( 'NONE', #126, #276, #334, .T. ) ;
#119 = ORIENTED_EDGE ( 'NONE', *, *, #301, .F. ) ;
#120 = ORIENTED_EDGE ( 'NONE', *, *, #19, .T. ) ;
#121 = AXIS2_PLACEMENT_3D ( 'NONE', #314, #104, #79 ) ;
#122 = CARTESIAN_POINT ( 'NONE',  ( 2.618611004132350143E-13, 3.899999999999985700, 75.00000000000000000 ) ) ;
#123 = DIRECTION ( 'NONE',  ( 3.950625526948190099E-31, 1.000000000000000000, 1.112002228190264896E-16 ) ) ;
#124 = EDGE_CURVE ( 'NONE', #195, #208, #226, .T. ) ;
#125 = DIRECTION ( 'NONE',  ( -3.491481338843133355E-15, 1.224646799147353454E-16, -1.000000000000000000 ) ) ;
#126 = VERTEX_POINT ( 'NONE', #251 ) ;
#127 = CARTESIAN_POINT ( 'NONE',  ( 4.075353504888109222E-13, -3.100000000000014300, 117.0000000000000000 ) ) ;
#128 = CC_DESIGN_PERSON_AND_ORGANIZATION_ASSIGNMENT ( #191, #323, ( #48 ) ) ;
#129 = ORIENTED_EDGE ( 'NONE', *, *, #44, .F. ) ;
#130 = ADVANCED_FACE ( 'NONE', ( #93 ), #178, .T. ) ;
#131 = FACE_OUTER_BOUND ( 'NONE', #86, .T. ) ;
#132 = ORIENTED_EDGE ( 'NONE', *, *, #61, .T. ) ;
#133 = DIRECTION ( 'NONE',  ( 0.0000000000000000000, 0.0000000000000000000, 1.000000000000000000 ) ) ;
#134 = FACE_OUTER_BOUND ( 'NONE', #189, .T. ) ;
#135 = DIRECTION ( 'NONE',  ( -3.491481338843133355E-15, 1.224646799147353454E-16, -1.000000000000000000 ) ) ;
#136 = LOCAL_TIME ( 15, 38, 18.00000000000000000, #162 ) ;
#137 = CARTESIAN_POINT ( 'NONE',  ( 1.667574263899812963E-30, 3.899999999999997247, 4.776122516674675314E-16 ) ) ;
#138 = CALENDAR_DATE ( 2021, 2, 9 ) ;
#139 = DIRECTION ( 'NONE',  ( -3.491481338843133355E-15, 1.224646799147353454E-16, -1.000000000000000000 ) ) ;
#140 = APPLICATION_PROTOCOL_DEFINITION ( 'international standard', 'config_control_design', 1994, #308 ) ;
#141 = AXIS2_PLACEMENT_3D ( 'NONE', #198, #133, #165 ) ;
#142 = VECTOR ( 'NONE', #70, 1000.000000000000000 ) ;
#143 = ORIENTED_EDGE ( 'NONE', *, *, #46, .F. ) ;
#144 = DIRECTION ( 'NONE',  ( -3.491481338843133355E-15, 1.224646799147353454E-16, -1.000000000000000000 ) ) ;
#145 = AXIS2_PLACEMENT_3D ( 'NONE', #54, #337, #205 ) ;
#146 = ORIENTED_EDGE ( 'NONE', *, *, #239, .F. ) ;
#147 = ORIENTED_EDGE ( 'NONE', *, *, #53, .T. ) ;
#148 = ORIENTED_EDGE ( 'NONE', *, *, #302, .F. ) ;
#149 = DIRECTION ( 'NONE',  ( -3.491481338843133355E-15, 1.224646799147353454E-16, -1.000000000000000000 ) ) ;
#150 = CC_DESIGN_SECURITY_CLASSIFICATION ( #76, ( #197 ) ) ;
#151 = DESIGN_CONTEXT ( 'detailed design', #12, 'design' ) ;
#152 = FACE_OUTER_BOUND ( 'NONE', #330, .T. ) ;
#153 = CIRCLE ( 'NONE', #311, 3.100000000000000089 ) ;
#154 = AXIS2_PLACEMENT_3D ( 'NONE', #188, #149, #57 ) ;
#155 = FACE_OUTER_BOUND ( 'NONE', #180, .T. ) ;
#156 = CARTESIAN_POINT ( 'NONE',  ( 2.618611004132350143E-13, 2.924531576190605914E-32, 75.00000000000000000 ) ) ;
#157 = PRODUCT_RELATED_PRODUCT_CATEGORY ( 'detail', '', ( #48 ) ) ;
#158 = CARTESIAN_POINT ( 'NONE',  ( 4.057101315735721337E-13, -1.423039580609224757E-14, 116.2000000000000171 ) ) ;
#159 = DIRECTION ( 'NONE',  ( -2.468850131082257455E-15, 0.7071067811865497932, -0.7071067811865453523 ) ) ;
#160 = VECTOR ( 'NONE', #38, 1000.000000000000000 ) ;
#161 = ORIENTED_EDGE ( 'NONE', *, *, #19, .F. ) ;
#162 = COORDINATED_UNIVERSAL_TIME_OFFSET ( 1, 0, .AHEAD. ) ;
#163 = VERTEX_POINT ( 'NONE', #127 ) ;
#164 = DIRECTION ( 'NONE',  ( 0.0000000000000000000, 1.000000000000000000, 0.0000000000000000000 ) ) ;
#165 = DIRECTION ( 'NONE',  ( 1.000000000000000000, 0.0000000000000000000, 0.0000000000000000000 ) ) ;
#166 = ADVANCED_FACE ( 'NONE', ( #131 ), #176, .T. ) ;
#167 = CIRCLE ( 'NONE', #10, 3.100000000000000089 ) ;
#168 = SECURITY_CLASSIFICATION_LEVEL ( 'unclassified' ) ;
#169 = CARTESIAN_POINT ( 'NONE',  ( 2.618611004132350143E-13, -9.184850993605150311E-15, 75.00000000000000000 ) ) ;
#170 = MANIFOLD_SOLID_BREP ( 'Corps-Déplacer/Copier1[1]', #39 ) ;
#171 =( NAMED_UNIT ( * ) SI_UNIT ( $, .STERADIAN. ) SOLID_ANGLE_UNIT ( ) );
#172 = CC_DESIGN_PERSON_AND_ORGANIZATION_ASSIGNMENT ( #298, #300, ( #15 ) ) ;
#173 = CIRCLE ( 'NONE', #154, 3.899999999999994582 ) ;
#174 = CARTESIAN_POINT ( 'NONE',  ( 4.057101315735721337E-13, -1.423039580609224757E-14, 116.2000000000000171 ) ) ;
#175 = EDGE_CURVE ( 'NONE', #225, #31, #32, .T. ) ;
#176 = CONICAL_SURFACE ( 'NONE', #145, 3.899999999999986144, 1.029744258676649871 ) ;
#177 = AXIS2_PLACEMENT_3D ( 'NONE', #36, #80, #164 ) ;
#178 = CYLINDRICAL_SURFACE ( 'NONE', #82, 3.899999999999990141 ) ;
#179 = FACE_OUTER_BOUND ( 'NONE', #217, .T. ) ;
#180 = EDGE_LOOP ( 'NONE', ( #187, #287, #105, #28 ) ) ;
#181 = CC_DESIGN_DATE_AND_TIME_ASSIGNMENT ( #248, #317, ( #15 ) ) ;
#182 = CARTESIAN_POINT ( 'NONE',  ( 8.181785190463851840E-15, -2.869783931920636535E-16, 2.343356414207501626 ) ) ;
#183 = LINE ( 'NONE', #282, #106 ) ;
#184 = DIRECTION ( 'NONE',  ( -3.491481338843133355E-15, 1.224646799147353454E-16, -1.000000000000000000 ) ) ;
#185 = PLANE ( 'NONE',  #95 ) ;
#186 = APPROVAL ( #241, 'UNSPECIFIED' ) ;
#187 = ORIENTED_EDGE ( 'NONE', *, *, #33, .T. ) ;
#188 = CARTESIAN_POINT ( 'NONE',  ( 2.618611004132350143E-13, -9.184850993605150311E-15, 75.00000000000000000 ) ) ;
#189 = EDGE_LOOP ( 'NONE', ( #305, #212, #147, #293 ) ) ;
#190 = LOCAL_TIME ( 15, 38, 18.00000000000000000, #211 ) ;
#191 = PERSON_AND_ORGANIZATION ( #324, #24 ) ;
#192 = AXIS2_PLACEMENT_3D ( 'NONE', #174, #253, #252 ) ;
#193 = CARTESIAN_POINT ( 'NONE',  ( 4.085033166446466404E-13, -1.432836755002403758E-14, 117.0000000000000000 ) ) ;
#194 = DATE_AND_TIME ( #8, #272 ) ;
#195 = VERTEX_POINT ( 'NONE', #23 ) ;
#196 = DIRECTION ( 'NONE',  ( -3.491481338843133355E-15, 1.224646799147353454E-16, -1.000000000000000000 ) ) ;
#197 = PRODUCT_DEFINITION_FORMATION_WITH_SPECIFIED_SOURCE ( 'ANY', '', #48, .NOT_KNOWN. ) ;
#198 = CARTESIAN_POINT ( 'NONE',  ( 0.0000000000000000000, 0.0000000000000000000, 0.0000000000000000000 ) ) ;
#199 = ADVANCED_FACE ( 'NONE', ( #77 ), #27, .T. ) ;
#200 = LOCAL_TIME ( 15, 38, 18.00000000000000000, #214 ) ;
#201 = CARTESIAN_POINT ( 'NONE',  ( 0.0000000000000000000, 0.0000000000000000000, 0.0000000000000000000 ) ) ;
#202 = PRODUCT_DEFINITION_SHAPE ( 'NONE', 'NONE',  #15 ) ;
#203 = ORIENTED_EDGE ( 'NONE', *, *, #46, .T. ) ;
#204 = DIRECTION ( 'NONE',  ( 0.0000000000000000000, 1.000000000000000000, 0.0000000000000000000 ) ) ;
#205 = DIRECTION ( 'NONE',  ( -3.950625526948190099E-31, -1.000000000000000000, -1.112002228190264896E-16 ) ) ;
#206 = DIRECTION ( 'NONE',  ( 3.491481338843133355E-15, -1.224646799147353454E-16, 1.000000000000000000 ) ) ;
#207 = AXIS2_PLACEMENT_3D ( 'NONE', #285, #139, #45 ) ;
#208 = VERTEX_POINT ( 'NONE', #281 ) ;
#209 = CARTESIAN_POINT ( 'NONE',  ( 8.659397442131318286E-15, 3.899999999999985700, 2.343356414207502070 ) ) ;
#210 = ORIENTED_EDGE ( 'NONE', *, *, #336, .F. ) ;
#211 = COORDINATED_UNIVERSAL_TIME_OFFSET ( 1, 0, .AHEAD. ) ;
#212 = ORIENTED_EDGE ( 'NONE', *, *, #22, .T. ) ;
#213 = LOCAL_TIME ( 15, 38, 18.00000000000000000, #16 ) ;
#214 = COORDINATED_UNIVERSAL_TIME_OFFSET ( 1, 0, .AHEAD. ) ;
#215 = AXIS2_PLACEMENT_3D ( 'NONE', #56, #49, #268 ) ;
#216 = CONICAL_SURFACE ( 'NONE', #121, 3.899999999999986144, 1.029744258676649871 ) ;
#217 = EDGE_LOOP ( 'NONE', ( #83, #143 ) ) ;
#218 = EDGE_CURVE ( 'NONE', #163, #276, #183, .T. ) ;
#219 = MECHANICAL_CONTEXT ( 'NONE', #308, 'mechanical' ) ;
#220 = DIRECTION ( 'NONE',  ( -3.491481338843133355E-15, 1.224646799147353454E-16, -1.000000000000000000 ) ) ;
#221 = APPROVAL_STATUS ( 'not_yet_approved' ) ;
#222 = VECTOR ( 'NONE', #261, 1000.000000000000114 ) ;
#223 = CLOSED_SHELL ( 'NONE', ( #130, #333, #166, #237, #322 ) ) ;
#224 = ADVANCED_FACE ( 'NONE', ( #232 ), #185, .F. ) ;
#225 = VERTEX_POINT ( 'NONE', #51 ) ;
#226 = LINE ( 'NONE', #92, #43 ) ;
#227 = EDGE_LOOP ( 'NONE', ( #269, #66, #161, #331 ) ) ;
#228 = AXIS2_PLACEMENT_3D ( 'NONE', #6, #97, #204 ) ;
#229 = DIRECTION ( 'NONE',  ( 3.491481338843133355E-15, -1.224646799147353454E-16, 1.000000000000000000 ) ) ;
#230 = CARTESIAN_POINT ( 'NONE',  ( 2.618611004132350143E-13, 2.924531576190605914E-32, 75.00000000000000000 ) ) ;
#231 = EDGE_CURVE ( 'NONE', #240, #126, #286, .T. ) ;
#232 = FACE_OUTER_BOUND ( 'NONE', #7, .T. ) ;
#233 = ORIENTED_EDGE ( 'NONE', *, *, #175, .T. ) ;
#234 = VECTOR ( 'NONE', #184, 1000.000000000000000 ) ;
#235 = CARTESIAN_POINT ( 'NONE',  ( 1.667574263899810161E-30, 3.899999999999990141, 4.776122516674666439E-16 ) ) ;
#236 = VERTEX_POINT ( 'NONE', #122 ) ;
#237 = ADVANCED_FACE ( 'NONE', ( #152 ), #4, .T. ) ;
#238 = CARTESIAN_POINT ( 'NONE',  ( 4.085033166446466404E-13, 3.099999999999985434, 117.0000000000000000 ) ) ;
#239 = EDGE_CURVE ( 'NONE', #195, #31, #266, .T. ) ;
#240 = VERTEX_POINT ( 'NONE', #238 ) ;
#241 = APPROVAL_STATUS ( 'not_yet_approved' ) ;
#242 = CYLINDRICAL_SURFACE ( 'NONE', #207, 3.899999999999997247 ) ;
#243 = FACE_OUTER_BOUND ( 'NONE', #265, .T. ) ;
#244 = CC_DESIGN_APPROVAL ( #115, ( #197 ) ) ;
#245 = APPROVAL_DATE_TIME ( #111, #289 ) ;
#246 = AXIS2_PLACEMENT_3D ( 'NONE', #294, #64, #258 ) ;
#247 = DIRECTION ( 'NONE',  ( 0.0000000000000000000, 1.000000000000000000, 0.0000000000000000000 ) ) ;
#248 = DATE_AND_TIME ( #138, #190 ) ;
#249 = APPROVAL_STATUS ( 'not_yet_approved' ) ;
#250 = AXIS2_PLACEMENT_3D ( 'NONE', #169, #144, #277 ) ;
#251 = CARTESIAN_POINT ( 'NONE',  ( 4.057101315735721337E-13, 3.899999999999985700, 116.2000000000000171 ) ) ;
#252 = DIRECTION ( 'NONE',  ( 0.0000000000000000000, 1.000000000000000000, 0.0000000000000000000 ) ) ;
#253 = DIRECTION ( 'NONE',  ( -3.491481338843133355E-15, 1.224646799147353454E-16, -1.000000000000000000 ) ) ;
#254 = ORIENTED_EDGE ( 'NONE', *, *, #44, .T. ) ;
#255 = DIRECTION ( 'NONE',  ( 4.275831445896960358E-31, 1.000000000000000000, 1.224646799147353454E-16 ) ) ;
#256 = ADVANCED_BREP_SHAPE_REPRESENTATION ( '54321', ( #170, #303, #141 ), #332 ) ;
#257 = CC_DESIGN_APPROVAL ( #186, ( #76 ) ) ;
#258 = DIRECTION ( 'NONE',  ( 4.275831445896959482E-31, 1.000000000000000000, 1.224646799147353454E-16 ) ) ;
#259 = AXIS2_PLACEMENT_3D ( 'NONE', #110, #220, #297 ) ;
#260 = APPROVAL_PERSON_ORGANIZATION ( #84, #289, #275 ) ;
#261 = DIRECTION ( 'NONE',  ( 1.903218546456021928E-15, 0.8571673007021098911, 0.5150380749100583744 ) ) ;
#262 = LINE ( 'NONE', #98, #234 ) ;
#263 = ADVANCED_FACE ( 'NONE', ( #155 ), #278, .T. ) ;
#264 = FACE_OUTER_BOUND ( 'NONE', #94, .T. ) ;
#265 = EDGE_LOOP ( 'NONE', ( #34, #203, #295, #73 ) ) ;
#266 = LINE ( 'NONE', #209, #222 ) ;
#267 = CIRCLE ( 'NONE', #279, 3.899999999999999911 ) ;
#268 = DIRECTION ( 'NONE',  ( 3.950625526948190099E-31, 1.000000000000000000, 1.112002228190264896E-16 ) ) ;
#269 = ORIENTED_EDGE ( 'NONE', *, *, #117, .T. ) ;
#270 = APPROVAL_DATE_TIME ( #87, #115 ) ;
#271 = DIRECTION ( 'NONE',  ( 0.0000000000000000000, 1.000000000000000000, 0.0000000000000000000 ) ) ;
#272 = LOCAL_TIME ( 15, 38, 18.00000000000000000, #40 ) ;
#273 = DATE_AND_TIME ( #67, #136 ) ;
#274 = CONICAL_SURFACE ( 'NONE', #177, 3.100000000000000089, 0.7853981633974512766 ) ;
#275 = APPROVAL_ROLE ( '' ) ;
#276 = VERTEX_POINT ( 'NONE', #306 ) ;
#277 = DIRECTION ( 'NONE',  ( 0.0000000000000000000, 1.000000000000000000, 0.0000000000000000000 ) ) ;
#278 = CONICAL_SURFACE ( 'NONE', #228, 3.100000000000000089, 0.7853981633974512766 ) ;
#279 = AXIS2_PLACEMENT_3D ( 'NONE', #158, #5, #103 ) ;
#280 = CARTESIAN_POINT ( 'NONE',  ( 3.342632282450709679E-13, -3.900000000000003908, 75.00000000000000000 ) ) ;
#281 = CARTESIAN_POINT ( 'NONE',  ( 8.181785190463850262E-15, -3.899999999999986589, 2.343356414207501182 ) ) ;
#282 = CARTESIAN_POINT ( 'NONE',  ( 4.088829571523822664E-13, -3.100000000000014300, 117.0000000000000000 ) ) ;
#283 = CIRCLE ( 'NONE', #328, 3.899999999999986144 ) ;
#284 = CARTESIAN_POINT ( 'NONE',  ( 1.354990550535166297E-13, -3.900000000000003908, 75.00000000000000000 ) ) ;
#285 = CARTESIAN_POINT ( 'NONE',  ( 0.0000000000000000000, 0.0000000000000000000, 0.0000000000000000000 ) ) ;
#286 = LINE ( 'NONE', #312, #325 ) ;
#287 = ORIENTED_EDGE ( 'NONE', *, *, #218, .T. ) ;
#288 = DIRECTION ( 'NONE',  ( -4.275831445896959482E-31, -1.000000000000000000, -1.224646799147353454E-16 ) ) ;
#289 = APPROVAL ( #249, 'UNSPECIFIED' ) ;
#290 = ORIENTED_EDGE ( 'NONE', *, *, #53, .F. ) ;
#291 = VECTOR ( 'NONE', #50, 1000.000000000000000 ) ;
#292 = PERSON_AND_ORGANIZATION ( #324, #24 ) ;
#293 = ORIENTED_EDGE ( 'NONE', *, *, #61, .F. ) ;
#294 = CARTESIAN_POINT ( 'NONE',  ( 4.085033166446466404E-13, 2.324627663125858765E-32, 117.0000000000000000 ) ) ;
#295 = ORIENTED_EDGE ( 'NONE', *, *, #231, .T. ) ;
#296 = PERSON_AND_ORGANIZATION ( #324, #24 ) ;
#297 = DIRECTION ( 'NONE',  ( 0.0000000000000000000, 1.000000000000000000, 0.0000000000000000000 ) ) ;
#298 = PERSON_AND_ORGANIZATION ( #324, #24 ) ;
#299 = CARTESIAN_POINT ( 'NONE',  ( 4.776122516674657565E-16, -3.899999999999997247, -4.776122516674691091E-16 ) ) ;
#300 = PERSON_AND_ORGANIZATION_ROLE ( 'creator' ) ;
#301 = EDGE_CURVE ( 'NONE', #208, #31, #283, .T. ) ;
#302 = EDGE_CURVE ( 'NONE', #320, #208, #262, .T. ) ;
#303 = MANIFOLD_SOLID_BREP ( 'Corps-Déplacer/Copier1[2]', #223 ) ;
#304 = CIRCLE ( 'NONE', #259, 3.899999999999994582 ) ;
#305 = ORIENTED_EDGE ( 'NONE', *, *, #114, .F. ) ;
#306 = CARTESIAN_POINT ( 'NONE',  ( 3.342632282450709174E-13, -3.900000000000014122, 116.2000000000000171 ) ) ;
#307 = DIRECTION ( 'NONE',  ( -4.275831445896959482E-31, -1.000000000000000000, -1.224646799147353454E-16 ) ) ;
#308 = APPLICATION_CONTEXT ( 'configuration controlled 3d designs of mechanical parts and assemblies' ) ;
#309 = UNCERTAINTY_MEASURE_WITH_UNIT (LENGTH_MEASURE( 1.000000000000000082E-05 ), #65, 'distance_accuracy_value', 'NONE');
#310 = DIRECTION ( 'NONE',  ( 4.275831445896959482E-31, 1.000000000000000000, 1.224646799147353454E-16 ) ) ;
#311 = AXIS2_PLACEMENT_3D ( 'NONE', #193, #135, #107 ) ;
#312 = CARTESIAN_POINT ( 'NONE',  ( 4.085033166446466404E-13, 3.099999999999985434, 117.0000000000000000 ) ) ;
#313 = EDGE_LOOP ( 'NONE', ( #42, #318, #210, #290 ) ) ;
#314 = CARTESIAN_POINT ( 'NONE',  ( 8.181785190463851840E-15, -2.869783931920636535E-16, 2.343356414207501626 ) ) ;
#315 = ORIENTED_EDGE ( 'NONE', *, *, #239, .T. ) ;
#316 = PLANE ( 'NONE',  #246 ) ;
#317 = DATE_TIME_ROLE ( 'creation_date' ) ;
#318 = ORIENTED_EDGE ( 'NONE', *, *, #114, .T. ) ;
#319 = PERSON_AND_ORGANIZATION_ROLE ( 'creator' ) ;
#320 = VERTEX_POINT ( 'NONE', #284 ) ;
#321 = LINE ( 'NONE', #137, #160 ) ;
#322 = ADVANCED_FACE ( 'NONE', ( #100 ), #335, .T. ) ;
#323 = PERSON_AND_ORGANIZATION_ROLE ( 'design_owner' ) ;
#324 = PERSON ( 'UNSPECIFIED', 'UNSPECIFIED', 'UNSPECIFIED', ('UNSPECIFIED'), ('UNSPECIFIED'), ('UNSPECIFIED') ) ;
#325 = VECTOR ( 'NONE', #159, 1000.000000000000114 ) ;
#326 = PERSON_AND_ORGANIZATION ( #324, #24 ) ;
#327 = CIRCLE ( 'NONE', #215, 3.899999999999986144 ) ;
#328 = AXIS2_PLACEMENT_3D ( 'NONE', #182, #26, #123 ) ;
#329 = LINE ( 'NONE', #299, #142 ) ;
#330 = EDGE_LOOP ( 'NONE', ( #148, #254, #233, #119 ) ) ;
#331 = ORIENTED_EDGE ( 'NONE', *, *, #175, .F. ) ;
#332 =( GEOMETRIC_REPRESENTATION_CONTEXT ( 3 ) GLOBAL_UNCERTAINTY_ASSIGNED_CONTEXT ( ( #309 ) ) GLOBAL_UNIT_ASSIGNED_CONTEXT ( ( #65, #11, #171 ) ) REPRESENTATION_CONTEXT ( 'NONE', 'WORKASPACE' ) );
#333 = ADVANCED_FACE ( 'NONE', ( #264 ), #216, .T. ) ;
#334 = CIRCLE ( 'NONE', #192, 3.899999999999999911 ) ;
#335 = PLANE ( 'NONE',  #108 ) ;
#336 = EDGE_CURVE ( 'NONE', #236, #3, #173, .T. ) ;
#337 = DIRECTION ( 'NONE',  ( 3.491481338843133355E-15, -1.224646799147353454E-16, 1.000000000000000000 ) ) ;
ENDSEC;
END-ISO-10303-21;
