ISO-10303-21;
HEADER;
FILE_DESCRIPTION (( 'STEP AP203' ),
    '1' );
FILE_NAME ('54315.step',
    '2021-09-02T13:38:17',
    ( '' ),
    ( '' ),
    'SwSTEP 2.0',
    'SolidWorks 2019',
    '' );
FILE_SCHEMA (( 'CONFIG_CONTROL_DESIGN' ));
ENDSEC;

DATA;
#1 = ORIENTED_EDGE ( 'NONE', *, *, #150, .T. ) ;
#2 = AXIS2_PLACEMENT_3D ( 'NONE', #180, #326, #101 ) ;
#3 = EDGE_LOOP ( 'NONE', ( #52, #310 ) ) ;
#4 = EDGE_LOOP ( 'NONE', ( #332, #44, #282, #229 ) ) ;
#5 = APPROVAL ( #13, 'UNSPECIFIED' ) ;
#6 = FACE_OUTER_BOUND ( 'NONE', #256, .T. ) ;
#7 = DIRECTION ( 'NONE',  ( 3.491481338843133355E-15, -1.224646799147353207E-16, 1.000000000000000000 ) ) ;
#8 = EDGE_CURVE ( 'NONE', #233, #327, #227, .T. ) ;
#9 = LOCAL_TIME ( 15, 38, 17.00000000000000000, #187 ) ;
#10 = LINE ( 'NONE', #93, #232 ) ;
#11 = ADVANCED_FACE ( 'NONE', ( #200 ), #333, .T. ) ;
#12 = PLANE ( 'NONE',  #117 ) ;
#13 = APPROVAL_STATUS ( 'not_yet_approved' ) ;
#14 = CARTESIAN_POINT ( 'NONE',  ( 2.409122123801762394E-13, 2.812049592490966867E-32, 69.00000000000000000 ) ) ;
#15 = AXIS2_PLACEMENT_3D ( 'NONE', #73, #69, #37 ) ;
#16 = CARTESIAN_POINT ( 'NONE',  ( 3.805714659339015231E-13, -1.334865011070615008E-14, 109.0000000000000000 ) ) ;
#17 = DIRECTION ( 'NONE',  ( 3.491481338843133355E-15, -1.224646799147353207E-16, 1.000000000000000000 ) ) ;
#18 = CARTESIAN_POINT ( 'NONE',  ( 3.805714659339015231E-13, -1.334865011070615008E-14, 109.0000000000000000 ) ) ;
#19 = PRODUCT_RELATED_PRODUCT_CATEGORY ( 'detail', '', ( #57 ) ) ;
#20 = CARTESIAN_POINT ( 'NONE',  ( 2.409122123801762394E-13, 3.749999999999986677, 69.00000000000000000 ) ) ;
#21 = CARTESIAN_POINT ( 'NONE',  ( 0.0000000000000000000, 0.0000000000000000000, 0.0000000000000000000 ) ) ;
#22 = CONICAL_SURFACE ( 'NONE', #213, 3.749999999999987121, 1.029744258676649649 ) ;
#23 = DIRECTION ( 'NONE',  ( 1.798245827342160317E-15, -0.8571673007021098911, 0.5150380749100582634 ) ) ;
#24 = LINE ( 'NONE', #230, #216 ) ;
#25 = CC_DESIGN_PERSON_AND_ORGANIZATION_ASSIGNMENT ( #118, #87, ( #322 ) ) ;
#26 = LOCAL_TIME ( 15, 38, 17.00000000000000000, #303 ) ;
#27 = ORIENTED_EDGE ( 'NONE', *, *, #337, .T. ) ;
#28 = ORIENTED_EDGE ( 'NONE', *, *, #268, .F. ) ;
#29 = CARTESIAN_POINT ( 'NONE',  ( 1.603436792211355668E-30, 3.749999999999991118, 4.592425496802563125E-16 ) ) ;
#30 = CIRCLE ( 'NONE', #308, 2.950000000000000178 ) ;
#31 = CC_DESIGN_PERSON_AND_ORGANIZATION_ASSIGNMENT ( #324, #96, ( #159 ) ) ;
#32 = PERSON_AND_ORGANIZATION_ROLE ( 'creator' ) ;
#33 = EDGE_CURVE ( 'NONE', #240, #306, #105, .T. ) ;
#34 = APPLICATION_PROTOCOL_DEFINITION ( 'international standard', 'config_control_design', 1994, #46 ) ;
#35 = FACE_OUTER_BOUND ( 'NONE', #104, .T. ) ;
#36 = ORIENTED_EDGE ( 'NONE', *, *, #273, .T. ) ;
#37 = DIRECTION ( 'NONE',  ( 4.108650548026117458E-31, 1.000000000000000000, 1.156482317317875423E-16 ) ) ;
#38 = CARTESIAN_POINT ( 'NONE',  ( 2.409122123801762394E-13, -8.450062914116737844E-15, 69.00000000000000000 ) ) ;
#39 = MANIFOLD_SOLID_BREP ( 'Corps-Déplacer/Copier1[2]', #252 ) ;
#40 = MECHANICAL_CONTEXT ( 'NONE', #134, 'mechanical' ) ;
#41 = DIRECTION ( 'NONE',  ( 4.275831445896958607E-31, 1.000000000000000000, 1.224646799147352961E-16 ) ) ;
#42 = ADVANCED_FACE ( 'NONE', ( #6 ), #188, .T. ) ;
#43 = VECTOR ( 'NONE', #23, 1000.000000000000000 ) ;
#44 = ORIENTED_EDGE ( 'NONE', *, *, #8, .T. ) ;
#45 = PERSON_AND_ORGANIZATION_ROLE ( 'design_owner' ) ;
#46 = APPLICATION_CONTEXT ( 'configuration controlled 3d designs of mechanical parts and assemblies' ) ;
#47 = EDGE_CURVE ( 'NONE', #184, #131, #94, .T. ) ;
#48 = CYLINDRICAL_SURFACE ( 'NONE', #130, 3.749999999999991118 ) ;
#49 = EDGE_LOOP ( 'NONE', ( #51, #329, #108 ) ) ;
#50 = DIRECTION ( 'NONE',  ( -3.491481338843133355E-15, 1.224646799147353207E-16, -1.000000000000000000 ) ) ;
#51 = ORIENTED_EDGE ( 'NONE', *, *, #33, .F. ) ;
#52 = ORIENTED_EDGE ( 'NONE', *, *, #86, .F. ) ;
#53 = AXIS2_PLACEMENT_3D ( 'NONE', #16, #299, #125 ) ;
#54 = EDGE_CURVE ( 'NONE', #111, #327, #276, .T. ) ;
#55 = APPROVAL_DATE_TIME ( #317, #208 ) ;
#56 = VERTEX_POINT ( 'NONE', #320 ) ;
#57 = PRODUCT ( '54315', '54315', '', ( #40 ) ) ;
#58 = ADVANCED_BREP_SHAPE_REPRESENTATION ( '54315', ( #162, #39, #153 ), #138 ) ;
#59 = FACE_OUTER_BOUND ( 'NONE', #179, .T. ) ;
#60 = APPROVAL_ROLE ( '' ) ;
#61 = APPROVAL_DATE_TIME ( #210, #106 ) ;
#62 = ADVANCED_FACE ( 'NONE', ( #59 ), #325, .T. ) ;
#63 = DIRECTION ( 'NONE',  ( 0.0000000000000000000, 1.000000000000000000, 0.0000000000000000000 ) ) ;
#64 = ORIENTED_EDGE ( 'NONE', *, *, #203, .T. ) ;
#65 = CARTESIAN_POINT ( 'NONE',  ( 7.867101144676784135E-15, -2.759407626846766411E-16, 2.253227321353367785 ) ) ;
#66 = AXIS2_PLACEMENT_3D ( 'NONE', #266, #290, #63 ) ;
#67 = EDGE_LOOP ( 'NONE', ( #274, #129, #64, #231 ) ) ;
#68 = CALENDAR_DATE ( 2021, 2, 9 ) ;
#69 = DIRECTION ( 'NONE',  ( -3.491481338843133355E-15, 1.224646799147353207E-16, -1.000000000000000000 ) ) ;
#70 = VECTOR ( 'NONE', #272, 1000.000000000000000 ) ;
#71 = CIRCLE ( 'NONE', #291, 3.749999999999995115 ) ;
#72 = EDGE_LOOP ( 'NONE', ( #77, #102, #82, #278 ) ) ;
#73 = CARTESIAN_POINT ( 'NONE',  ( 7.867101144676784135E-15, -2.759407626846766411E-16, 2.253227321353367785 ) ) ;
#74 = DIRECTION ( 'NONE',  ( -2.468850131082257455E-15, 0.7071067811865497932, -0.7071067811865453523 ) ) ;
#75 = CALENDAR_DATE ( 2021, 2, 9 ) ;
#76 = DIRECTION ( 'NONE',  ( -3.491481338843133355E-15, 1.224646799147353207E-16, -1.000000000000000000 ) ) ;
#77 = ORIENTED_EDGE ( 'NONE', *, *, #86, .T. ) ;
#78 = ORIENTED_EDGE ( 'NONE', *, *, #150, .F. ) ;
#79 = VECTOR ( 'NONE', #218, 1000.000000000000000 ) ;
#80 = ORIENTED_EDGE ( 'NONE', *, *, #109, .T. ) ;
#81 = EDGE_CURVE ( 'NONE', #143, #233, #30, .T. ) ;
#82 = ORIENTED_EDGE ( 'NONE', *, *, #294, .F. ) ;
#83 = APPROVAL_PERSON_ORGANIZATION ( #103, #5, #199 ) ;
#84 = SECURITY_CLASSIFICATION_LEVEL ( 'unclassified' ) ;
#85 = DIRECTION ( 'NONE',  ( -3.491481338843133355E-15, 1.224646799147353207E-16, -1.000000000000000000 ) ) ;
#86 = EDGE_CURVE ( 'NONE', #184, #56, #149, .T. ) ;
#87 = PERSON_AND_ORGANIZATION_ROLE ( 'design_supplier' ) ;
#88 = DIRECTION ( 'NONE',  ( -4.108650548026117458E-31, -1.000000000000000000, -1.156482317317875423E-16 ) ) ;
#89 = CC_DESIGN_PERSON_AND_ORGANIZATION_ASSIGNMENT ( #313, #32, ( #322 ) ) ;
#90 = CALENDAR_DATE ( 2021, 2, 9 ) ;
#91 = EDGE_CURVE ( 'NONE', #240, #131, #10, .T. ) ;
#92 = AXIS2_PLACEMENT_3D ( 'NONE', #221, #142, #112 ) ;
#93 = CARTESIAN_POINT ( 'NONE',  ( 8.326343694357042518E-15, 3.749999999999986677, 2.253227321353368229 ) ) ;
#94 = LINE ( 'NONE', #29, #79 ) ;
#95 = CIRCLE ( 'NONE', #2, 3.749999999999995115 ) ;
#96 = PERSON_AND_ORGANIZATION_ROLE ( 'creator' ) ;
#97 = AXIS2_PLACEMENT_3D ( 'NONE', #285, #175, #270 ) ;
#98 = DIRECTION ( 'NONE',  ( -3.491481338843133355E-15, 1.224646799147353207E-16, -1.000000000000000000 ) ) ;
#99 = DIRECTION ( 'NONE',  ( 0.0000000000000000000, 1.000000000000000000, 0.0000000000000000000 ) ) ;
#100 = DIRECTION ( 'NONE',  ( -3.491481338843133355E-15, 1.224646799147353207E-16, -1.000000000000000000 ) ) ;
#101 = DIRECTION ( 'NONE',  ( 0.0000000000000000000, 1.000000000000000000, 0.0000000000000000000 ) ) ;
#102 = ORIENTED_EDGE ( 'NONE', *, *, #249, .T. ) ;
#103 = PERSON_AND_ORGANIZATION ( #193, #300 ) ;
#104 = EDGE_LOOP ( 'NONE', ( #211, #209 ) ) ;
#105 = LINE ( 'NONE', #204, #43 ) ;
#106 = APPROVAL ( #110, 'UNSPECIFIED' ) ;
#107 = DIRECTION ( 'NONE',  ( -3.491481338843133355E-15, 1.224646799147353207E-16, -1.000000000000000000 ) ) ;
#108 = ORIENTED_EDGE ( 'NONE', *, *, #294, .T. ) ;
#109 = EDGE_CURVE ( 'NONE', #306, #131, #141, .T. ) ;
#110 = APPROVAL_STATUS ( 'not_yet_approved' ) ;
#111 = VERTEX_POINT ( 'NONE', #137 ) ;
#112 = DIRECTION ( 'NONE',  ( 0.0000000000000000000, 1.000000000000000000, 0.0000000000000000000 ) ) ;
#113 = AXIS2_PLACEMENT_3D ( 'NONE', #18, #151, #99 ) ;
#114 = UNCERTAINTY_MEASURE_WITH_UNIT (LENGTH_MEASURE( 1.000000000000000082E-05 ), #245, 'distance_accuracy_value', 'NONE');
#115 = CARTESIAN_POINT ( 'NONE',  ( 8.326343694357042518E-15, 3.749999999999986677, 2.253227321353368229 ) ) ;
#116 = AXIS2_PLACEMENT_3D ( 'NONE', #38, #316, #219 ) ;
#117 = AXIS2_PLACEMENT_3D ( 'NONE', #120, #321, #304 ) ;
#118 = PERSON_AND_ORGANIZATION ( #193, #300 ) ;
#119 = VECTOR ( 'NONE', #275, 1000.000000000000114 ) ;
#120 = CARTESIAN_POINT ( 'NONE',  ( 3.805714659339015231E-13, 2.212145679426220266E-32, 109.0000000000000000 ) ) ;
#121 = DATE_AND_TIME ( #75, #26 ) ;
#122 = ADVANCED_FACE ( 'NONE', ( #172 ), #22, .T. ) ;
#123 = CARTESIAN_POINT ( 'NONE',  ( 3.098044891711817774E-13, -3.750000000000013767, 108.2000000000000028 ) ) ;
#124 = AXIS2_PLACEMENT_3D ( 'NONE', #292, #98, #287 ) ;
#125 = DIRECTION ( 'NONE',  ( 0.0000000000000000000, 1.000000000000000000, 0.0000000000000000000 ) ) ;
#126 = DIRECTION ( 'NONE',  ( -4.275831445896958607E-31, -1.000000000000000000, -1.224646799147353207E-16 ) ) ;
#127 = FACE_OUTER_BOUND ( 'NONE', #72, .T. ) ;
#128 = CIRCLE ( 'NONE', #66, 3.749999999999995115 ) ;
#129 = ORIENTED_EDGE ( 'NONE', *, *, #283, .T. ) ;
#130 = AXIS2_PLACEMENT_3D ( 'NONE', #251, #100, #41 ) ;
#131 = VERTEX_POINT ( 'NONE', #115 ) ;
#132 = CARTESIAN_POINT ( 'NONE',  ( 3.098044891711818279E-13, -3.750000000000003553, 69.00000000000000000 ) ) ;
#133 = ORIENTED_EDGE ( 'NONE', *, *, #249, .F. ) ;
#134 = APPLICATION_CONTEXT ( 'configuration controlled 3d designs of mechanical parts and assemblies' ) ;
#135 = ORIENTED_EDGE ( 'NONE', *, *, #217, .T. ) ;
#136 = CARTESIAN_POINT ( 'NONE',  ( 3.809327367396500057E-13, -2.950000000000013944, 109.0000000000000000 ) ) ;
#137 = CARTESIAN_POINT ( 'NONE',  ( 3.777782808628270164E-13, 3.749999999999986677, 108.2000000000000028 ) ) ;
#138 =( GEOMETRIC_REPRESENTATION_CONTEXT ( 3 ) GLOBAL_UNCERTAINTY_ASSIGNED_CONTEXT ( ( #114 ) ) GLOBAL_UNIT_ASSIGNED_CONTEXT ( ( #245, #223, #197 ) ) REPRESENTATION_CONTEXT ( 'NONE', 'WORKASPACE' ) );
#139 = CARTESIAN_POINT ( 'NONE',  ( 3.805714659339015231E-13, -1.334865011070615008E-14, 109.0000000000000000 ) ) ;
#140 = APPROVAL_STATUS ( 'not_yet_approved' ) ;
#141 = CIRCLE ( 'NONE', #271, 3.749999999999987121 ) ;
#142 = DIRECTION ( 'NONE',  ( -3.491481338843133355E-15, 1.224646799147353207E-16, -1.000000000000000000 ) ) ;
#143 = VERTEX_POINT ( 'NONE', #261 ) ;
#144 = DIRECTION ( 'NONE',  ( 0.0000000000000000000, 1.000000000000000000, 0.0000000000000000000 ) ) ;
#145 = ORIENTED_EDGE ( 'NONE', *, *, #54, .T. ) ;
#146 = CYLINDRICAL_SURFACE ( 'NONE', #177, 3.749999999999997780 ) ;
#147 = DIRECTION ( 'NONE',  ( -3.491481338843133355E-15, 1.224646799147353207E-16, -1.000000000000000000 ) ) ;
#148 = FACE_OUTER_BOUND ( 'NONE', #3, .T. ) ;
#149 = CIRCLE ( 'NONE', #116, 3.749999999999995115 ) ;
#150 = EDGE_CURVE ( 'NONE', #258, #279, #128, .T. ) ;
#151 = DIRECTION ( 'NONE',  ( -3.491481338843133355E-15, 1.224646799147353207E-16, -1.000000000000000000 ) ) ;
#152 = PLANE ( 'NONE',  #311 ) ;
#153 = AXIS2_PLACEMENT_3D ( 'NONE', #176, #181, #250 ) ;
#154 = DIRECTION ( 'NONE',  ( -4.108650548026117458E-31, -1.000000000000000000, -1.156482317317875423E-16 ) ) ;
#155 = FACE_OUTER_BOUND ( 'NONE', #171, .T. ) ;
#156 = CARTESIAN_POINT ( 'NONE',  ( 2.409122123801762394E-13, -8.450062914116737844E-15, 69.00000000000000000 ) ) ;
#157 = EDGE_LOOP ( 'NONE', ( #267, #1 ) ) ;
#158 = CC_DESIGN_APPROVAL ( #208, ( #322 ) ) ;
#159 = PRODUCT_DEFINITION ( 'UNKNOWN', '', #322, #314 ) ;
#160 = PERSON_AND_ORGANIZATION_ROLE ( 'classification_officer' ) ;
#161 = EDGE_LOOP ( 'NONE', ( #173, #298, #80 ) ) ;
#162 = MANIFOLD_SOLID_BREP ( 'Corps-Déplacer/Copier1[1]', #191 ) ;
#163 = APPROVAL_ROLE ( '' ) ;
#164 = DIRECTION ( 'NONE',  ( -3.491481338843133355E-15, 1.224646799147353207E-16, -1.000000000000000000 ) ) ;
#165 = CARTESIAN_POINT ( 'NONE',  ( 7.867101144676784135E-15, -2.759407626846766411E-16, 2.253227321353367785 ) ) ;
#166 = CONICAL_SURFACE ( 'NONE', #53, 2.950000000000000178, 0.7853981633974512766 ) ;
#167 = ADVANCED_FACE ( 'NONE', ( #169 ), #241, .F. ) ;
#168 = APPROVAL_PERSON_ORGANIZATION ( #284, #106, #60 ) ;
#169 = FACE_OUTER_BOUND ( 'NONE', #157, .T. ) ;
#170 = ADVANCED_FACE ( 'NONE', ( #35 ), #12, .F. ) ;
#171 = EDGE_LOOP ( 'NONE', ( #309, #323, #135, #78 ) ) ;
#172 = FACE_OUTER_BOUND ( 'NONE', #49, .T. ) ;
#173 = ORIENTED_EDGE ( 'NONE', *, *, #91, .F. ) ;
#174 = DATE_AND_TIME ( #68, #206 ) ;
#175 = DIRECTION ( 'NONE',  ( -3.491481338843133355E-15, 1.224646799147353207E-16, -1.000000000000000000 ) ) ;
#176 = CARTESIAN_POINT ( 'NONE',  ( 0.0000000000000000000, 0.0000000000000000000, 0.0000000000000000000 ) ) ;
#177 = AXIS2_PLACEMENT_3D ( 'NONE', #21, #107, #195 ) ;
#178 = CARTESIAN_POINT ( 'NONE',  ( 4.592425496802555237E-16, -3.749999999999997780, -4.592425496802587777E-16 ) ) ;
#179 = EDGE_LOOP ( 'NONE', ( #133, #36, #254, #186 ) ) ;
#180 = CARTESIAN_POINT ( 'NONE',  ( 2.409122123801762394E-13, -8.450062914116737844E-15, 69.00000000000000000 ) ) ;
#181 = DIRECTION ( 'NONE',  ( 0.0000000000000000000, 0.0000000000000000000, 1.000000000000000000 ) ) ;
#182 = CARTESIAN_POINT ( 'NONE',  ( 3.805714659339015231E-13, -1.334865011070615008E-14, 109.0000000000000000 ) ) ;
#183 = LOCAL_TIME ( 15, 38, 17.00000000000000000, #262 ) ;
#184 = VERTEX_POINT ( 'NONE', #228 ) ;
#185 = ADVANCED_FACE ( 'NONE', ( #202 ), #296, .T. ) ;
#186 = ORIENTED_EDGE ( 'NONE', *, *, #109, .F. ) ;
#187 = COORDINATED_UNIVERSAL_TIME_OFFSET ( 1, 0, .AHEAD. ) ;
#188 = CYLINDRICAL_SURFACE ( 'NONE', #97, 3.749999999999997780 ) ;
#189 = PERSON_AND_ORGANIZATION ( #193, #300 ) ;
#190 = CIRCLE ( 'NONE', #15, 3.749999999999987121 ) ;
#191 = CLOSED_SHELL ( 'NONE', ( #185, #42, #167, #214, #289, #170 ) ) ;
#192 = DIRECTION ( 'NONE',  ( 1.903218546456022717E-15, 0.8571673007021097801, 0.5150380749100585964 ) ) ;
#193 = PERSON ( 'UNSPECIFIED', 'UNSPECIFIED', 'UNSPECIFIED', ('UNSPECIFIED'), ('UNSPECIFIED'), ('UNSPECIFIED') ) ;
#194 = APPLICATION_PROTOCOL_DEFINITION ( 'international standard', 'config_control_design', 1994, #134 ) ;
#195 = DIRECTION ( 'NONE',  ( 4.275831445896958607E-31, 1.000000000000000000, 1.224646799147353207E-16 ) ) ;
#196 = ADVANCED_FACE ( 'NONE', ( #127 ), #48, .T. ) ;
#197 =( NAMED_UNIT ( * ) SI_UNIT ( $, .STERADIAN. ) SOLID_ANGLE_UNIT ( ) );
#198 = CC_DESIGN_SECURITY_CLASSIFICATION ( #225, ( #322 ) ) ;
#199 = APPROVAL_ROLE ( '' ) ;
#200 = FACE_OUTER_BOUND ( 'NONE', #161, .T. ) ;
#201 = PERSON_AND_ORGANIZATION ( #193, #300 ) ;
#202 = FACE_OUTER_BOUND ( 'NONE', #4, .T. ) ;
#203 = EDGE_CURVE ( 'NONE', #143, #111, #336, .T. ) ;
#204 = CARTESIAN_POINT ( 'NONE',  ( 7.867101144676782557E-15, -3.749999999999987566, 2.253227321353367341 ) ) ;
#205 = CARTESIAN_POINT ( 'NONE',  ( 1.603436792211358470E-30, 3.749999999999997780, 4.592425496802572000E-16 ) ) ;
#206 = LOCAL_TIME ( 15, 38, 17.00000000000000000, #295 ) ;
#207 = ORIENTED_EDGE ( 'NONE', *, *, #217, .F. ) ;
#208 = APPROVAL ( #140, 'UNSPECIFIED' ) ;
#209 = ORIENTED_EDGE ( 'NONE', *, *, #283, .F. ) ;
#210 = DATE_AND_TIME ( #259, #9 ) ;
#211 = ORIENTED_EDGE ( 'NONE', *, *, #81, .F. ) ;
#212 = DATE_TIME_ROLE ( 'classification_date' ) ;
#213 = AXIS2_PLACEMENT_3D ( 'NONE', #165, #7, #88 ) ;
#214 = ADVANCED_FACE ( 'NONE', ( #155 ), #146, .T. ) ;
#215 = SHAPE_DEFINITION_REPRESENTATION ( #277, #58 ) ;
#216 = VECTOR ( 'NONE', #50, 1000.000000000000000 ) ;
#217 = EDGE_CURVE ( 'NONE', #111, #279, #244, .T. ) ;
#218 = DIRECTION ( 'NONE',  ( -3.491481338843133355E-15, 1.224646799147353207E-16, -1.000000000000000000 ) ) ;
#219 = DIRECTION ( 'NONE',  ( 0.0000000000000000000, 1.000000000000000000, 0.0000000000000000000 ) ) ;
#220 = APPROVAL_DATE_TIME ( #121, #5 ) ;
#221 = CARTESIAN_POINT ( 'NONE',  ( 3.777782808628270164E-13, -1.325067836677436165E-14, 108.2000000000000028 ) ) ;
#222 = CARTESIAN_POINT ( 'NONE',  ( 3.777782808628270164E-13, -1.325067836677436165E-14, 108.2000000000000028 ) ) ;
#223 =( NAMED_UNIT ( * ) PLANE_ANGLE_UNIT ( ) SI_UNIT ( $, .RADIAN. ) );
#224 = CARTESIAN_POINT ( 'NONE',  ( 2.409122123801762394E-13, 2.812049592490966867E-32, 69.00000000000000000 ) ) ;
#225 = SECURITY_CLASSIFICATION ( '', '', #84 ) ;
#226 = AXIS2_PLACEMENT_3D ( 'NONE', #182, #76, #246 ) ;
#227 = LINE ( 'NONE', #136, #119 ) ;
#228 = CARTESIAN_POINT ( 'NONE',  ( 2.409122123801762394E-13, 3.749999999999986677, 69.00000000000000000 ) ) ;
#229 = ORIENTED_EDGE ( 'NONE', *, *, #203, .F. ) ;
#230 = CARTESIAN_POINT ( 'NONE',  ( 4.592425496802548334E-16, -3.749999999999991118, -4.592425496802579889E-16 ) ) ;
#231 = ORIENTED_EDGE ( 'NONE', *, *, #312, .F. ) ;
#232 = VECTOR ( 'NONE', #192, 999.9999999999998863 ) ;
#233 = VERTEX_POINT ( 'NONE', #253 ) ;
#234 = ADVANCED_FACE ( 'NONE', ( #148 ), #152, .T. ) ;
#235 = AXIS2_PLACEMENT_3D ( 'NONE', #222, #328, #144 ) ;
#236 = DIRECTION ( 'NONE',  ( 0.0000000000000000000, 1.000000000000000000, 0.0000000000000000000 ) ) ;
#237 = CALENDAR_DATE ( 2021, 2, 9 ) ;
#238 = DIRECTION ( 'NONE',  ( -4.275831445896958607E-31, -1.000000000000000000, -1.224646799147353207E-16 ) ) ;
#239 = CC_DESIGN_DATE_AND_TIME_ASSIGNMENT ( #286, #212, ( #225 ) ) ;
#240 = VERTEX_POINT ( 'NONE', #248 ) ;
#241 = PLANE ( 'NONE',  #315 ) ;
#242 = DIRECTION ( 'NONE',  ( 0.0000000000000000000, 1.000000000000000000, 0.0000000000000000000 ) ) ;
#243 = VECTOR ( 'NONE', #147, 1000.000000000000000 ) ;
#244 = LINE ( 'NONE', #205, #70 ) ;
#245 =( LENGTH_UNIT ( ) NAMED_UNIT ( * ) SI_UNIT ( .MILLI., .METRE. ) );
#246 = DIRECTION ( 'NONE',  ( 0.0000000000000000000, 1.000000000000000000, 0.0000000000000000000 ) ) ;
#247 = FACE_OUTER_BOUND ( 'NONE', #67, .T. ) ;
#248 = CARTESIAN_POINT ( 'NONE',  ( 0.0000000000000000000, 0.0000000000000000000, 0.0000000000000000000 ) ) ;
#249 = EDGE_CURVE ( 'NONE', #56, #306, #24, .T. ) ;
#250 = DIRECTION ( 'NONE',  ( 1.000000000000000000, 0.0000000000000000000, 0.0000000000000000000 ) ) ;
#251 = CARTESIAN_POINT ( 'NONE',  ( 0.0000000000000000000, 0.0000000000000000000, 0.0000000000000000000 ) ) ;
#252 = CLOSED_SHELL ( 'NONE', ( #196, #122, #11, #62, #234 ) ) ;
#253 = CARTESIAN_POINT ( 'NONE',  ( 3.795851300760786615E-13, -2.950000000000013944, 109.0000000000000000 ) ) ;
#254 = ORIENTED_EDGE ( 'NONE', *, *, #47, .T. ) ;
#255 = DIRECTION ( 'NONE',  ( -3.491481338843133355E-15, 1.224646799147353207E-16, -1.000000000000000000 ) ) ;
#256 = EDGE_LOOP ( 'NONE', ( #145, #27, #28, #207 ) ) ;
#257 = CIRCLE ( 'NONE', #235, 3.750000000000000444 ) ;
#258 = VERTEX_POINT ( 'NONE', #132 ) ;
#259 = CALENDAR_DATE ( 2021, 2, 9 ) ;
#260 = DIRECTION ( 'NONE',  ( 4.108650548026117458E-31, 1.000000000000000000, 1.156482317317875423E-16 ) ) ;
#261 = CARTESIAN_POINT ( 'NONE',  ( 3.805714659339015231E-13, 2.949999999999986855, 109.0000000000000000 ) ) ;
#262 = COORDINATED_UNIVERSAL_TIME_OFFSET ( 1, 0, .AHEAD. ) ;
#263 = APPROVAL_PERSON_ORGANIZATION ( #280, #208, #163 ) ;
#264 = DIRECTION ( 'NONE',  ( 3.491481338843133355E-15, -1.224646799147353207E-16, 1.000000000000000000 ) ) ;
#265 = VECTOR ( 'NONE', #74, 1000.000000000000114 ) ;
#266 = CARTESIAN_POINT ( 'NONE',  ( 2.409122123801762394E-13, -8.450062914116737844E-15, 69.00000000000000000 ) ) ;
#267 = ORIENTED_EDGE ( 'NONE', *, *, #268, .T. ) ;
#268 = EDGE_CURVE ( 'NONE', #279, #258, #71, .T. ) ;
#269 = DATE_TIME_ROLE ( 'creation_date' ) ;
#270 = DIRECTION ( 'NONE',  ( 4.275831445896958607E-31, 1.000000000000000000, 1.224646799147353207E-16 ) ) ;
#271 = AXIS2_PLACEMENT_3D ( 'NONE', #65, #164, #260 ) ;
#272 = DIRECTION ( 'NONE',  ( -3.491481338843133355E-15, 1.224646799147353207E-16, -1.000000000000000000 ) ) ;
#273 = EDGE_CURVE ( 'NONE', #56, #184, #95, .T. ) ;
#274 = ORIENTED_EDGE ( 'NONE', *, *, #8, .F. ) ;
#275 = DIRECTION ( 'NONE',  ( -2.382254525458708792E-15, -0.7071067811865495711, -0.7071067811865455743 ) ) ;
#276 = CIRCLE ( 'NONE', #92, 3.750000000000000444 ) ;
#277 = PRODUCT_DEFINITION_SHAPE ( 'NONE', 'NONE',  #159 ) ;
#278 = ORIENTED_EDGE ( 'NONE', *, *, #47, .F. ) ;
#279 = VERTEX_POINT ( 'NONE', #20 ) ;
#280 = PERSON_AND_ORGANIZATION ( #193, #300 ) ;
#281 = CIRCLE ( 'NONE', #113, 2.950000000000000178 ) ;
#282 = ORIENTED_EDGE ( 'NONE', *, *, #54, .F. ) ;
#283 = EDGE_CURVE ( 'NONE', #233, #143, #281, .T. ) ;
#284 = PERSON_AND_ORGANIZATION ( #193, #300 ) ;
#285 = CARTESIAN_POINT ( 'NONE',  ( 0.0000000000000000000, 0.0000000000000000000, 0.0000000000000000000 ) ) ;
#286 = DATE_AND_TIME ( #90, #183 ) ;
#287 = DIRECTION ( 'NONE',  ( 4.275831445896958607E-31, 1.000000000000000000, 1.224646799147352961E-16 ) ) ;
#288 = LOCAL_TIME ( 15, 38, 17.00000000000000000, #318 ) ;
#289 = ADVANCED_FACE ( 'NONE', ( #247 ), #166, .T. ) ;
#290 = DIRECTION ( 'NONE',  ( -3.491481338843133355E-15, 1.224646799147353207E-16, -1.000000000000000000 ) ) ;
#291 = AXIS2_PLACEMENT_3D ( 'NONE', #156, #255, #242 ) ;
#292 = CARTESIAN_POINT ( 'NONE',  ( 0.0000000000000000000, 0.0000000000000000000, 0.0000000000000000000 ) ) ;
#293 = AXIS2_PLACEMENT_3D ( 'NONE', #305, #335, #154 ) ;
#294 = EDGE_CURVE ( 'NONE', #131, #306, #190, .T. ) ;
#295 = COORDINATED_UNIVERSAL_TIME_OFFSET ( 1, 0, .AHEAD. ) ;
#296 = CONICAL_SURFACE ( 'NONE', #226, 2.950000000000000178, 0.7853981633974512766 ) ;
#297 = CC_DESIGN_PERSON_AND_ORGANIZATION_ASSIGNMENT ( #189, #160, ( #225 ) ) ;
#298 = ORIENTED_EDGE ( 'NONE', *, *, #33, .T. ) ;
#299 = DIRECTION ( 'NONE',  ( -3.491481338843133355E-15, 1.224646799147353207E-16, -1.000000000000000000 ) ) ;
#300 = ORGANIZATION ( 'UNSPECIFIED', 'UNSPECIFIED', '' ) ;
#301 = CC_DESIGN_PERSON_AND_ORGANIZATION_ASSIGNMENT ( #201, #45, ( #57 ) ) ;
#302 = CARTESIAN_POINT ( 'NONE',  ( 3.805714659339015231E-13, 2.949999999999986855, 109.0000000000000000 ) ) ;
#303 = COORDINATED_UNIVERSAL_TIME_OFFSET ( 1, 0, .AHEAD. ) ;
#304 = DIRECTION ( 'NONE',  ( 4.275831445896958607E-31, 1.000000000000000000, 1.224646799147353207E-16 ) ) ;
#305 = CARTESIAN_POINT ( 'NONE',  ( 7.867101144676784135E-15, -2.759407626846766411E-16, 2.253227321353367785 ) ) ;
#306 = VERTEX_POINT ( 'NONE', #330 ) ;
#307 = CC_DESIGN_DATE_AND_TIME_ASSIGNMENT ( #174, #269, ( #159 ) ) ;
#308 = AXIS2_PLACEMENT_3D ( 'NONE', #139, #85, #236 ) ;
#309 = ORIENTED_EDGE ( 'NONE', *, *, #337, .F. ) ;
#310 = ORIENTED_EDGE ( 'NONE', *, *, #273, .F. ) ;
#311 = AXIS2_PLACEMENT_3D ( 'NONE', #224, #17, #126 ) ;
#312 = EDGE_CURVE ( 'NONE', #327, #111, #257, .T. ) ;
#313 = PERSON_AND_ORGANIZATION ( #193, #300 ) ;
#314 = DESIGN_CONTEXT ( 'detailed design', #46, 'design' ) ;
#315 = AXIS2_PLACEMENT_3D ( 'NONE', #14, #264, #238 ) ;
#316 = DIRECTION ( 'NONE',  ( -3.491481338843133355E-15, 1.224646799147353207E-16, -1.000000000000000000 ) ) ;
#317 = DATE_AND_TIME ( #237, #288 ) ;
#318 = COORDINATED_UNIVERSAL_TIME_OFFSET ( 1, 0, .AHEAD. ) ;
#319 = CC_DESIGN_APPROVAL ( #106, ( #225 ) ) ;
#320 = CARTESIAN_POINT ( 'NONE',  ( 1.248488993121065398E-13, -3.750000000000003109, 69.00000000000000000 ) ) ;
#321 = DIRECTION ( 'NONE',  ( -3.491481338843133355E-15, 1.224646799147353207E-16, -1.000000000000000000 ) ) ;
#322 = PRODUCT_DEFINITION_FORMATION_WITH_SPECIFIED_SOURCE ( 'ANY', '', #57, .NOT_KNOWN. ) ;
#323 = ORIENTED_EDGE ( 'NONE', *, *, #312, .T. ) ;
#324 = PERSON_AND_ORGANIZATION ( #193, #300 ) ;
#325 = CYLINDRICAL_SURFACE ( 'NONE', #124, 3.749999999999991118 ) ;
#326 = DIRECTION ( 'NONE',  ( -3.491481338843133355E-15, 1.224646799147353207E-16, -1.000000000000000000 ) ) ;
#327 = VERTEX_POINT ( 'NONE', #123 ) ;
#328 = DIRECTION ( 'NONE',  ( -3.491481338843133355E-15, 1.224646799147353207E-16, -1.000000000000000000 ) ) ;
#329 = ORIENTED_EDGE ( 'NONE', *, *, #91, .T. ) ;
#330 = CARTESIAN_POINT ( 'NONE',  ( 7.867101144676782557E-15, -3.749999999999987566, 2.253227321353367341 ) ) ;
#331 = CC_DESIGN_APPROVAL ( #5, ( #159 ) ) ;
#332 = ORIENTED_EDGE ( 'NONE', *, *, #81, .T. ) ;
#333 = CONICAL_SURFACE ( 'NONE', #293, 3.749999999999987121, 1.029744258676649649 ) ;
#334 = LINE ( 'NONE', #178, #243 ) ;
#335 = DIRECTION ( 'NONE',  ( 3.491481338843133355E-15, -1.224646799147353207E-16, 1.000000000000000000 ) ) ;
#336 = LINE ( 'NONE', #302, #265 ) ;
#337 = EDGE_CURVE ( 'NONE', #327, #258, #334, .T. ) ;
ENDSEC;
END-ISO-10303-21;
