ISO-10303-21;
HEADER;
FILE_DESCRIPTION (( 'STEP AP203' ),
    '1' );
FILE_NAME ('54312.step',
    '2021-09-02T13:38:16',
    ( '' ),
    ( '' ),
    'SwSTEP 2.0',
    'SolidWorks 2019',
    '' );
FILE_SCHEMA (( 'CONFIG_CONTROL_DESIGN' ));
ENDSEC;

DATA;
#1 = PERSON_AND_ORGANIZATION_ROLE ( 'design_owner' ) ;
#2 = CARTESIAN_POINT ( 'NONE',  ( 0.0000000000000000000, 0.0000000000000000000, 0.0000000000000000000 ) ) ;
#3 = FACE_OUTER_BOUND ( 'NONE', #192, .T. ) ;
#4 = VECTOR ( 'NONE', #262, 1000.000000000000000 ) ;
#5 = CARTESIAN_POINT ( 'NONE',  ( 3.777782808628270164E-13, -1.325067836677436165E-14, 108.2000000000000028 ) ) ;
#6 = AXIS2_PLACEMENT_3D ( 'NONE', #20, #223, #336 ) ;
#7 = CARTESIAN_POINT ( 'NONE',  ( 3.805714659339015231E-13, -1.334865011070615008E-14, 109.0000000000000000 ) ) ;
#8 =( GEOMETRIC_REPRESENTATION_CONTEXT ( 3 ) GLOBAL_UNCERTAINTY_ASSIGNED_CONTEXT ( ( #165 ) ) GLOBAL_UNIT_ASSIGNED_CONTEXT ( ( #74, #316, #258 ) ) REPRESENTATION_CONTEXT ( 'NONE', 'WORKASPACE' ) );
#9 = DIRECTION ( 'NONE',  ( 3.491481338843133355E-15, -1.224646799147353207E-16, 1.000000000000000000 ) ) ;
#10 = DIRECTION ( 'NONE',  ( -3.491481338843133355E-15, 1.224646799147353207E-16, -1.000000000000000000 ) ) ;
#11 = CARTESIAN_POINT ( 'NONE',  ( 3.805714659339015231E-13, -1.334865011070615008E-14, 109.0000000000000000 ) ) ;
#12 = PLANE ( 'NONE',  #125 ) ;
#13 = DIRECTION ( 'NONE',  ( 0.0000000000000000000, 1.000000000000000000, 0.0000000000000000000 ) ) ;
#14 = EDGE_CURVE ( 'NONE', #175, #119, #122, .T. ) ;
#15 = AXIS2_PLACEMENT_3D ( 'NONE', #141, #95, #330 ) ;
#16 = CARTESIAN_POINT ( 'NONE',  ( 1.496541006063936476E-30, 3.500000000000002220, 4.286263797015738567E-16 ) ) ;
#17 = CARTESIAN_POINT ( 'NONE',  ( 7.771254114733245363E-15, 3.499999999999991562, 2.103012166596478938 ) ) ;
#18 = ORIENTED_EDGE ( 'NONE', *, *, #35, .F. ) ;
#19 = ORIENTED_EDGE ( 'NONE', *, *, #86, .F. ) ;
#20 = CARTESIAN_POINT ( 'NONE',  ( 0.0000000000000000000, 0.0000000000000000000, 0.0000000000000000000 ) ) ;
#21 = PERSON ( 'UNSPECIFIED', 'UNSPECIFIED', 'UNSPECIFIED', ('UNSPECIFIED'), ('UNSPECIFIED'), ('UNSPECIFIED') ) ;
#22 = VERTEX_POINT ( 'NONE', #143 ) ;
#23 = APPROVAL_PERSON_ORGANIZATION ( #46, #260, #79 ) ;
#24 = LOCAL_TIME ( 15, 38, 16.00000000000000000, #158 ) ;
#25 = ORIENTED_EDGE ( 'NONE', *, *, #111, .F. ) ;
#26 = APPROVAL ( #210, 'UNSPECIFIED' ) ;
#27 = APPROVAL_DATE_TIME ( #228, #260 ) ;
#28 = AXIS2_PLACEMENT_3D ( 'NONE', #109, #9, #214 ) ;
#29 = APPROVAL_STATUS ( 'not_yet_approved' ) ;
#30 = PRODUCT_RELATED_PRODUCT_CATEGORY ( 'detail', '', ( #297 ) ) ;
#31 = DIRECTION ( 'NONE',  ( -2.468850131082257455E-15, 0.7071067811865497932, -0.7071067811865453523 ) ) ;
#32 = CARTESIAN_POINT ( 'NONE',  ( 0.0000000000000000000, 0.0000000000000000000, 0.0000000000000000000 ) ) ;
#33 = DIRECTION ( 'NONE',  ( -3.491481338843133355E-15, 1.224646799147353207E-16, -1.000000000000000000 ) ) ;
#34 = VERTEX_POINT ( 'NONE', #197 ) ;
#35 = EDGE_CURVE ( 'NONE', #43, #119, #81, .T. ) ;
#36 = DIRECTION ( 'NONE',  ( -4.275831445896958607E-31, -1.000000000000000000, -1.224646799147353207E-16 ) ) ;
#37 = DIRECTION ( 'NONE',  ( 0.0000000000000000000, 1.000000000000000000, 0.0000000000000000000 ) ) ;
#38 = ORIENTED_EDGE ( 'NONE', *, *, #178, .F. ) ;
#39 = CIRCLE ( 'NONE', #168, 2.700000000000005063 ) ;
#40 = FACE_OUTER_BOUND ( 'NONE', #308, .T. ) ;
#41 = ORIENTED_EDGE ( 'NONE', *, *, #75, .T. ) ;
#42 = ADVANCED_FACE ( 'NONE', ( #333 ), #123, .T. ) ;
#43 = VERTEX_POINT ( 'NONE', #191 ) ;
#44 = ORIENTED_EDGE ( 'NONE', *, *, #241, .F. ) ;
#45 = PERSON_AND_ORGANIZATION ( #21, #224 ) ;
#46 = PERSON_AND_ORGANIZATION ( #21, #224 ) ;
#47 = CONICAL_SURFACE ( 'NONE', #28, 3.499999999999992006, 1.029744258676649871 ) ;
#48 = EDGE_LOOP ( 'NONE', ( #128, #250, #19, #93 ) ) ;
#49 = APPROVAL_STATUS ( 'not_yet_approved' ) ;
#50 = ADVANCED_FACE ( 'NONE', ( #311 ), #198, .T. ) ;
#51 = PERSON_AND_ORGANIZATION ( #21, #224 ) ;
#52 = COORDINATED_UNIVERSAL_TIME_OFFSET ( 1, 0, .AHEAD. ) ;
#53 = CALENDAR_DATE ( 2021, 2, 9 ) ;
#54 = APPROVAL_DATE_TIME ( #82, #26 ) ;
#55 = CONICAL_SURFACE ( 'NONE', #135, 3.499999999999992006, 1.029744258676649871 ) ;
#56 = CC_DESIGN_DATE_AND_TIME_ASSIGNMENT ( #181, #282, ( #127 ) ) ;
#57 = CARTESIAN_POINT ( 'NONE',  ( 0.0000000000000000000, 0.0000000000000000000, 0.0000000000000000000 ) ) ;
#58 = LOCAL_TIME ( 15, 38, 16.00000000000000000, #52 ) ;
#59 = LOCAL_TIME ( 15, 38, 16.00000000000000000, #129 ) ;
#60 = CARTESIAN_POINT ( 'NONE',  ( 0.0000000000000000000, 0.0000000000000000000, 0.0000000000000000000 ) ) ;
#61 = ORIENTED_EDGE ( 'NONE', *, *, #164, .F. ) ;
#62 = PLANE ( 'NONE',  #231 ) ;
#63 = ORIENTED_EDGE ( 'NONE', *, *, #238, .T. ) ;
#64 = DIRECTION ( 'NONE',  ( 0.0000000000000000000, 1.000000000000000000, 0.0000000000000000000 ) ) ;
#65 = ORIENTED_EDGE ( 'NONE', *, *, #14, .F. ) ;
#66 = ORIENTED_EDGE ( 'NONE', *, *, #69, .F. ) ;
#67 = AXIS2_PLACEMENT_3D ( 'NONE', #172, #273, #306 ) ;
#68 = ORIENTED_EDGE ( 'NONE', *, *, #320, .T. ) ;
#69 = EDGE_CURVE ( 'NONE', #222, #249, #267, .T. ) ;
#70 = DIRECTION ( 'NONE',  ( 0.0000000000000000000, 1.000000000000000000, 0.0000000000000000000 ) ) ;
#71 = ORIENTED_EDGE ( 'NONE', *, *, #69, .T. ) ;
#72 = PERSON_AND_ORGANIZATION ( #21, #224 ) ;
#73 = DATE_AND_TIME ( #203, #277 ) ;
#74 =( LENGTH_UNIT ( ) NAMED_UNIT ( * ) SI_UNIT ( .MILLI., .METRE. ) );
#75 = EDGE_CURVE ( 'NONE', #222, #255, #177, .T. ) ;
#76 = CARTESIAN_POINT ( 'NONE',  ( 3.777782808628270164E-13, 3.499999999999991562, 108.2000000000000028 ) ) ;
#77 = APPLICATION_PROTOCOL_DEFINITION ( 'international standard', 'config_control_design', 1994, #290 ) ;
#78 = SECURITY_CLASSIFICATION_LEVEL ( 'unclassified' ) ;
#79 = APPROVAL_ROLE ( '' ) ;
#80 = DIRECTION ( 'NONE',  ( 4.275831445896958607E-31, 1.000000000000000000, 1.224646799147353207E-16 ) ) ;
#81 = CIRCLE ( 'NONE', #15, 3.499999999999992006 ) ;
#82 = DATE_AND_TIME ( #294, #59 ) ;
#83 = CC_DESIGN_PERSON_AND_ORGANIZATION_ASSIGNMENT ( #51, #126, ( #127 ) ) ;
#84 = AXIS2_PLACEMENT_3D ( 'NONE', #60, #33, #242 ) ;
#85 = DIRECTION ( 'NONE',  ( -3.491481338843133355E-15, 1.224646799147353207E-16, -1.000000000000000000 ) ) ;
#86 = EDGE_CURVE ( 'NONE', #244, #278, #103, .T. ) ;
#87 = FACE_OUTER_BOUND ( 'NONE', #170, .T. ) ;
#88 = CYLINDRICAL_SURFACE ( 'NONE', #6, 3.499999999999995559 ) ;
#89 = CIRCLE ( 'NONE', #284, 3.499999999999999556 ) ;
#90 = ORIENTED_EDGE ( 'NONE', *, *, #86, .T. ) ;
#91 = ORIENTED_EDGE ( 'NONE', *, *, #252, .F. ) ;
#92 = DIRECTION ( 'NONE',  ( 0.0000000000000000000, 1.000000000000000000, 0.0000000000000000000 ) ) ;
#93 = ORIENTED_EDGE ( 'NONE', *, *, #320, .F. ) ;
#94 = DIRECTION ( 'NONE',  ( -4.402125587170834566E-31, -1.000000000000000000, -1.239088197126293529E-16 ) ) ;
#95 = DIRECTION ( 'NONE',  ( -3.491481338843133355E-15, 1.224646799147353207E-16, -1.000000000000000000 ) ) ;
#96 = ADVANCED_FACE ( 'NONE', ( #146 ), #88, .T. ) ;
#97 = AXIS2_PLACEMENT_3D ( 'NONE', #2, #281, #104 ) ;
#98 = CALENDAR_DATE ( 2021, 2, 9 ) ;
#99 = FACE_OUTER_BOUND ( 'NONE', #48, .T. ) ;
#100 = ORIENTED_EDGE ( 'NONE', *, *, #212, .F. ) ;
#101 = EDGE_CURVE ( 'NONE', #278, #244, #147, .T. ) ;
#102 = COORDINATED_UNIVERSAL_TIME_OFFSET ( 1, 0, .AHEAD. ) ;
#103 = CIRCLE ( 'NONE', #217, 3.499999999999999556 ) ;
#104 = DIRECTION ( 'NONE',  ( 1.000000000000000000, 0.0000000000000000000, 0.0000000000000000000 ) ) ;
#105 = CARTESIAN_POINT ( 'NONE',  ( 3.805714659339015231E-13, 2.024675706593491623E-32, 109.0000000000000000 ) ) ;
#106 = MANIFOLD_SOLID_BREP ( 'Corps-Déplacer/Copier1[2]', #310 ) ;
#107 = ADVANCED_FACE ( 'NONE', ( #99 ), #219, .T. ) ;
#108 = APPROVAL_PERSON_ORGANIZATION ( #200, #264, #230 ) ;
#109 = CARTESIAN_POINT ( 'NONE',  ( 7.342627735031670767E-15, -2.575447118390317683E-16, 2.103012166596478494 ) ) ;
#110 = VECTOR ( 'NONE', #304, 1000.000000000000114 ) ;
#111 = EDGE_CURVE ( 'NONE', #118, #255, #335, .T. ) ;
#112 = DIRECTION ( 'NONE',  ( 0.0000000000000000000, 1.000000000000000000, 0.0000000000000000000 ) ) ;
#113 = CARTESIAN_POINT ( 'NONE',  ( 3.809021205696713156E-13, -2.700000000000018385, 109.0000000000000000 ) ) ;
#114 = CARTESIAN_POINT ( 'NONE',  ( 4.286263797015724269E-16, -3.500000000000002220, -4.286263797015753851E-16 ) ) ;
#115 = ORIENTED_EDGE ( 'NONE', *, *, #324, .F. ) ;
#116 = AXIS2_PLACEMENT_3D ( 'NONE', #251, #120, #189 ) ;
#117 = DIRECTION ( 'NONE',  ( -3.491481338843133355E-15, 1.224646799147353207E-16, -1.000000000000000000 ) ) ;
#118 = VERTEX_POINT ( 'NONE', #76 ) ;
#119 = VERTEX_POINT ( 'NONE', #283 ) ;
#120 = DIRECTION ( 'NONE',  ( -3.491481338843133355E-15, 1.224646799147353207E-16, -1.000000000000000000 ) ) ;
#121 = CC_DESIGN_PERSON_AND_ORGANIZATION_ASSIGNMENT ( #131, #289, ( #322 ) ) ;
#122 = LINE ( 'NONE', #17, #157 ) ;
#123 = CYLINDRICAL_SURFACE ( 'NONE', #67, 3.500000000000002220 ) ;
#124 = ORIENTED_EDGE ( 'NONE', *, *, #252, .T. ) ;
#125 = AXIS2_PLACEMENT_3D ( 'NONE', #331, #196, #167 ) ;
#126 = PERSON_AND_ORGANIZATION_ROLE ( 'classification_officer' ) ;
#127 = SECURITY_CLASSIFICATION ( '', '', #78 ) ;
#128 = ORIENTED_EDGE ( 'NONE', *, *, #111, .T. ) ;
#129 = COORDINATED_UNIVERSAL_TIME_OFFSET ( 1, 0, .AHEAD. ) ;
#130 = PERSON_AND_ORGANIZATION_ROLE ( 'creator' ) ;
#131 = PERSON_AND_ORGANIZATION ( #21, #224 ) ;
#132 = CIRCLE ( 'NONE', #185, 3.499999999999992006 ) ;
#133 = CC_DESIGN_APPROVAL ( #264, ( #233 ) ) ;
#134 = EDGE_CURVE ( 'NONE', #22, #43, #285, .T. ) ;
#135 = AXIS2_PLACEMENT_3D ( 'NONE', #299, #194, #94 ) ;
#136 = ADVANCED_FACE ( 'NONE', ( #3 ), #318, .F. ) ;
#137 = CC_DESIGN_PERSON_AND_ORGANIZATION_ASSIGNMENT ( #72, #288, ( #233 ) ) ;
#138 = CLOSED_SHELL ( 'NONE', ( #50, #107, #234, #42, #155, #136 ) ) ;
#139 = LOCAL_TIME ( 15, 38, 16.00000000000000000, #102 ) ;
#140 = CARTESIAN_POINT ( 'NONE',  ( 3.805714659339015231E-13, 2.699999999999991296, 109.0000000000000000 ) ) ;
#141 = CARTESIAN_POINT ( 'NONE',  ( 7.342627735031670767E-15, -2.575447118390317683E-16, 2.103012166596478494 ) ) ;
#142 = DIRECTION ( 'NONE',  ( -3.491481338843133355E-15, 1.224646799147353207E-16, -1.000000000000000000 ) ) ;
#143 = CARTESIAN_POINT ( 'NONE',  ( 1.245560464373052764E-13, -3.500000000000007994, 69.00000000000000000 ) ) ;
#144 = ORIENTED_EDGE ( 'NONE', *, *, #187, .T. ) ;
#145 = LINE ( 'NONE', #16, #275 ) ;
#146 = FACE_OUTER_BOUND ( 'NONE', #337, .T. ) ;
#147 = CIRCLE ( 'NONE', #296, 3.499999999999999556 ) ;
#148 = ORIENTED_EDGE ( 'NONE', *, *, #75, .F. ) ;
#149 = CC_DESIGN_APPROVAL ( #260, ( #322 ) ) ;
#150 = ADVANCED_FACE ( 'NONE', ( #293 ), #47, .T. ) ;
#151 = CARTESIAN_POINT ( 'NONE',  ( 1.496541006063933673E-30, 3.499999999999995559, 4.286263797015731171E-16 ) ) ;
#152 = EDGE_LOOP ( 'NONE', ( #328, #41, #25, #227 ) ) ;
#153 = EDGE_LOOP ( 'NONE', ( #44, #248, #68, #179 ) ) ;
#154 = DIRECTION ( 'NONE',  ( -3.491481338843133355E-15, 1.224646799147353207E-16, -1.000000000000000000 ) ) ;
#155 = ADVANCED_FACE ( 'NONE', ( #292 ), #183, .T. ) ;
#156 = ORIENTED_EDGE ( 'NONE', *, *, #187, .F. ) ;
#157 = VECTOR ( 'NONE', #221, 1000.000000000000114 ) ;
#158 = COORDINATED_UNIVERSAL_TIME_OFFSET ( 1, 0, .AHEAD. ) ;
#159 = EDGE_LOOP ( 'NONE', ( #100, #216, #180 ) ) ;
#160 = PRODUCT_DEFINITION_SHAPE ( 'NONE', 'NONE',  #322 ) ;
#161 = COORDINATED_UNIVERSAL_TIME_OFFSET ( 1, 0, .AHEAD. ) ;
#162 = CARTESIAN_POINT ( 'NONE',  ( 4.286263797015716380E-16, -3.499999999999995559, -4.286263797015745470E-16 ) ) ;
#163 = DIRECTION ( 'NONE',  ( -3.491481338843133355E-15, 1.224646799147353207E-16, -1.000000000000000000 ) ) ;
#164 = EDGE_CURVE ( 'NONE', #255, #118, #263, .T. ) ;
#165 = UNCERTAINTY_MEASURE_WITH_UNIT (LENGTH_MEASURE( 1.000000000000000082E-05 ), #74, 'distance_accuracy_value', 'NONE');
#166 = VECTOR ( 'NONE', #274, 1000.000000000000000 ) ;
#167 = DIRECTION ( 'NONE',  ( -4.275831445896958607E-31, -1.000000000000000000, -1.224646799147353207E-16 ) ) ;
#168 = AXIS2_PLACEMENT_3D ( 'NONE', #305, #174, #64 ) ;
#169 = CARTESIAN_POINT ( 'NONE',  ( 3.795545139060999714E-13, -2.700000000000018385, 109.0000000000000000 ) ) ;
#170 = EDGE_LOOP ( 'NONE', ( #202, #229, #115, #156 ) ) ;
#171 = CARTESIAN_POINT ( 'NONE',  ( 2.409122123801762394E-13, 2.624579619658238224E-32, 69.00000000000000000 ) ) ;
#172 = CARTESIAN_POINT ( 'NONE',  ( 0.0000000000000000000, 0.0000000000000000000, 0.0000000000000000000 ) ) ;
#173 = ADVANCED_FACE ( 'NONE', ( #188 ), #55, .T. ) ;
#174 = DIRECTION ( 'NONE',  ( -3.491481338843133355E-15, 1.224646799147353207E-16, -1.000000000000000000 ) ) ;
#175 = VERTEX_POINT ( 'NONE', #57 ) ;
#176 = DIRECTION ( 'NONE',  ( 0.0000000000000000000, 1.000000000000000000, 0.0000000000000000000 ) ) ;
#177 = LINE ( 'NONE', #113, #110 ) ;
#178 = EDGE_CURVE ( 'NONE', #249, #222, #39, .T. ) ;
#179 = ORIENTED_EDGE ( 'NONE', *, *, #101, .F. ) ;
#180 = ORIENTED_EDGE ( 'NONE', *, *, #324, .T. ) ;
#181 = DATE_AND_TIME ( #232, #24 ) ;
#182 = CARTESIAN_POINT ( 'NONE',  ( 7.342627735031670767E-15, -2.575447118390317683E-16, 2.103012166596478494 ) ) ;
#183 = CONICAL_SURFACE ( 'NONE', #236, 2.700000000000005063, 0.7853981633974512766 ) ;
#184 = PERSON_AND_ORGANIZATION ( #21, #224 ) ;
#185 = AXIS2_PLACEMENT_3D ( 'NONE', #182, #163, #208 ) ;
#186 = AXIS2_PLACEMENT_3D ( 'NONE', #239, #10, #112 ) ;
#187 = EDGE_CURVE ( 'NONE', #34, #119, #218, .T. ) ;
#188 = FACE_OUTER_BOUND ( 'NONE', #159, .T. ) ;
#189 = DIRECTION ( 'NONE',  ( 0.0000000000000000000, 1.000000000000000000, 0.0000000000000000000 ) ) ;
#190 = AXIS2_PLACEMENT_3D ( 'NONE', #32, #201, #287 ) ;
#191 = CARTESIAN_POINT ( 'NONE',  ( 7.342627735031669189E-15, -3.499999999999992450, 2.103012166596478050 ) ) ;
#192 = EDGE_LOOP ( 'NONE', ( #38, #66 ) ) ;
#193 = EDGE_LOOP ( 'NONE', ( #148, #71, #63, #61 ) ) ;
#194 = DIRECTION ( 'NONE',  ( 3.491481338843133355E-15, -1.224646799147353207E-16, 1.000000000000000000 ) ) ;
#195 = ORIENTED_EDGE ( 'NONE', *, *, #101, .T. ) ;
#196 = DIRECTION ( 'NONE',  ( 3.491481338843133355E-15, -1.224646799147353207E-16, 1.000000000000000000 ) ) ;
#197 = CARTESIAN_POINT ( 'NONE',  ( 2.409122123801762394E-13, 3.499999999999991562, 69.00000000000000000 ) ) ;
#198 = CONICAL_SURFACE ( 'NONE', #300, 2.700000000000005063, 0.7853981633974512766 ) ;
#199 = CC_DESIGN_PERSON_AND_ORGANIZATION_ASSIGNMENT ( #184, #130, ( #233 ) ) ;
#200 = PERSON_AND_ORGANIZATION ( #21, #224 ) ;
#201 = DIRECTION ( 'NONE',  ( -3.491481338843133355E-15, 1.224646799147353207E-16, -1.000000000000000000 ) ) ;
#202 = ORIENTED_EDGE ( 'NONE', *, *, #209, .T. ) ;
#203 = CALENDAR_DATE ( 2021, 2, 9 ) ;
#204 = DIRECTION ( 'NONE',  ( -3.491481338843133355E-15, 1.224646799147353207E-16, -1.000000000000000000 ) ) ;
#205 = EDGE_LOOP ( 'NONE', ( #65, #312, #276 ) ) ;
#206 = DATE_AND_TIME ( #53, #139 ) ;
#207 = CIRCLE ( 'NONE', #186, 3.499999999999999556 ) ;
#208 = DIRECTION ( 'NONE',  ( 4.402125587170834566E-31, 1.000000000000000000, 1.239088197126293529E-16 ) ) ;
#209 = EDGE_CURVE ( 'NONE', #34, #22, #89, .T. ) ;
#210 = APPROVAL_STATUS ( 'not_yet_approved' ) ;
#211 = DIRECTION ( 'NONE',  ( 0.0000000000000000000, 1.000000000000000000, 0.0000000000000000000 ) ) ;
#212 = EDGE_CURVE ( 'NONE', #175, #43, #270, .T. ) ;
#213 = VECTOR ( 'NONE', #85, 1000.000000000000000 ) ;
#214 = DIRECTION ( 'NONE',  ( -4.402125587170834566E-31, -1.000000000000000000, -1.239088197126293529E-16 ) ) ;
#215 = DIRECTION ( 'NONE',  ( -3.491481338843133355E-15, 1.224646799147353207E-16, -1.000000000000000000 ) ) ;
#216 = ORIENTED_EDGE ( 'NONE', *, *, #14, .T. ) ;
#217 = AXIS2_PLACEMENT_3D ( 'NONE', #314, #253, #326 ) ;
#218 = LINE ( 'NONE', #151, #213 ) ;
#219 = CYLINDRICAL_SURFACE ( 'NONE', #190, 3.500000000000002220 ) ;
#220 = CARTESIAN_POINT ( 'NONE',  ( 2.409122123801762394E-13, -8.450062914116737844E-15, 69.00000000000000000 ) ) ;
#221 = DIRECTION ( 'NONE',  ( 1.903218546456021928E-15, 0.8571673007021098911, 0.5150380749100583744 ) ) ;
#222 = VERTEX_POINT ( 'NONE', #169 ) ;
#223 = DIRECTION ( 'NONE',  ( -3.491481338843133355E-15, 1.224646799147353207E-16, -1.000000000000000000 ) ) ;
#224 = ORGANIZATION ( 'UNSPECIFIED', 'UNSPECIFIED', '' ) ;
#225 = CC_DESIGN_SECURITY_CLASSIFICATION ( #127, ( #233 ) ) ;
#226 = DATE_TIME_ROLE ( 'creation_date' ) ;
#227 = ORIENTED_EDGE ( 'NONE', *, *, #238, .F. ) ;
#228 = DATE_AND_TIME ( #98, #58 ) ;
#229 = ORIENTED_EDGE ( 'NONE', *, *, #134, .T. ) ;
#230 = APPROVAL_ROLE ( '' ) ;
#231 = AXIS2_PLACEMENT_3D ( 'NONE', #171, #272, #36 ) ;
#232 = CALENDAR_DATE ( 2021, 2, 9 ) ;
#233 = PRODUCT_DEFINITION_FORMATION_WITH_SPECIFIED_SOURCE ( 'ANY', '', #297, .NOT_KNOWN. ) ;
#234 = ADVANCED_FACE ( 'NONE', ( #40 ), #12, .F. ) ;
#235 = DESIGN_CONTEXT ( 'detailed design', #317, 'design' ) ;
#236 = AXIS2_PLACEMENT_3D ( 'NONE', #7, #323, #92 ) ;
#237 = ADVANCED_BREP_SHAPE_REPRESENTATION ( '54312', ( #332, #106, #97 ), #8 ) ;
#238 = EDGE_CURVE ( 'NONE', #249, #118, #268, .T. ) ;
#239 = CARTESIAN_POINT ( 'NONE',  ( 2.409122123801762394E-13, -8.450062914116737844E-15, 69.00000000000000000 ) ) ;
#240 = CARTESIAN_POINT ( 'NONE',  ( 3.805714659339015231E-13, -1.334865011070615008E-14, 109.0000000000000000 ) ) ;
#241 = EDGE_CURVE ( 'NONE', #255, #278, #309, .T. ) ;
#242 = DIRECTION ( 'NONE',  ( 4.275831445896958607E-31, 1.000000000000000000, 1.224646799147353207E-16 ) ) ;
#243 = DIRECTION ( 'NONE',  ( -3.491481338843133355E-15, 1.224646799147353207E-16, -1.000000000000000000 ) ) ;
#244 = VERTEX_POINT ( 'NONE', #279 ) ;
#245 = FACE_OUTER_BOUND ( 'NONE', #271, .T. ) ;
#246 = VECTOR ( 'NONE', #142, 1000.000000000000000 ) ;
#247 = CARTESIAN_POINT ( 'NONE',  ( 2.409122123801762394E-13, -8.450062914116737844E-15, 69.00000000000000000 ) ) ;
#248 = ORIENTED_EDGE ( 'NONE', *, *, #164, .T. ) ;
#249 = VERTEX_POINT ( 'NONE', #140 ) ;
#250 = ORIENTED_EDGE ( 'NONE', *, *, #241, .T. ) ;
#251 = CARTESIAN_POINT ( 'NONE',  ( 3.777782808628270164E-13, -1.325067836677436165E-14, 108.2000000000000028 ) ) ;
#252 = EDGE_CURVE ( 'NONE', #22, #34, #207, .T. ) ;
#253 = DIRECTION ( 'NONE',  ( -3.491481338843133355E-15, 1.224646799147353207E-16, -1.000000000000000000 ) ) ;
#254 = AXIS2_PLACEMENT_3D ( 'NONE', #5, #204, #211 ) ;
#255 = VERTEX_POINT ( 'NONE', #325 ) ;
#256 = CC_DESIGN_APPROVAL ( #26, ( #127 ) ) ;
#257 = APPROVAL_ROLE ( '' ) ;
#258 =( NAMED_UNIT ( * ) SI_UNIT ( $, .STERADIAN. ) SOLID_ANGLE_UNIT ( ) );
#259 = ORIENTED_EDGE ( 'NONE', *, *, #134, .F. ) ;
#260 = APPROVAL ( #29, 'UNSPECIFIED' ) ;
#261 = APPROVAL_DATE_TIME ( #73, #264 ) ;
#262 = DIRECTION ( 'NONE',  ( -3.491481338843133355E-15, 1.224646799147353207E-16, -1.000000000000000000 ) ) ;
#263 = CIRCLE ( 'NONE', #116, 3.500000000000004885 ) ;
#264 = APPROVAL ( #49, 'UNSPECIFIED' ) ;
#265 = AXIS2_PLACEMENT_3D ( 'NONE', #105, #319, #80 ) ;
#266 = CC_DESIGN_DATE_AND_TIME_ASSIGNMENT ( #206, #226, ( #322 ) ) ;
#267 = CIRCLE ( 'NONE', #291, 2.700000000000005063 ) ;
#268 = LINE ( 'NONE', #303, #315 ) ;
#269 = APPROVAL_PERSON_ORGANIZATION ( #45, #26, #257 ) ;
#270 = LINE ( 'NONE', #329, #166 ) ;
#271 = EDGE_LOOP ( 'NONE', ( #280, #91 ) ) ;
#272 = DIRECTION ( 'NONE',  ( 3.491481338843133355E-15, -1.224646799147353207E-16, 1.000000000000000000 ) ) ;
#273 = DIRECTION ( 'NONE',  ( -3.491481338843133355E-15, 1.224646799147353207E-16, -1.000000000000000000 ) ) ;
#274 = DIRECTION ( 'NONE',  ( 1.798245827342159528E-15, -0.8571673007021100021, 0.5150380749100580413 ) ) ;
#275 = VECTOR ( 'NONE', #117, 1000.000000000000000 ) ;
#276 = ORIENTED_EDGE ( 'NONE', *, *, #35, .T. ) ;
#277 = LOCAL_TIME ( 15, 38, 16.00000000000000000, #161 ) ;
#278 = VERTEX_POINT ( 'NONE', #327 ) ;
#279 = CARTESIAN_POINT ( 'NONE',  ( 2.409122123801762394E-13, 3.499999999999991562, 69.00000000000000000 ) ) ;
#280 = ORIENTED_EDGE ( 'NONE', *, *, #209, .F. ) ;
#281 = DIRECTION ( 'NONE',  ( 0.0000000000000000000, 0.0000000000000000000, 1.000000000000000000 ) ) ;
#282 = DATE_TIME_ROLE ( 'classification_date' ) ;
#283 = CARTESIAN_POINT ( 'NONE',  ( 7.771254114733245363E-15, 3.499999999999991562, 2.103012166596478938 ) ) ;
#284 = AXIS2_PLACEMENT_3D ( 'NONE', #220, #215, #176 ) ;
#285 = LINE ( 'NONE', #162, #4 ) ;
#286 = APPLICATION_PROTOCOL_DEFINITION ( 'international standard', 'config_control_design', 1994, #317 ) ;
#287 = DIRECTION ( 'NONE',  ( 4.275831445896958607E-31, 1.000000000000000000, 1.224646799147353207E-16 ) ) ;
#288 = PERSON_AND_ORGANIZATION_ROLE ( 'design_supplier' ) ;
#289 = PERSON_AND_ORGANIZATION_ROLE ( 'creator' ) ;
#290 = APPLICATION_CONTEXT ( 'configuration controlled 3d designs of mechanical parts and assemblies' ) ;
#291 = AXIS2_PLACEMENT_3D ( 'NONE', #11, #243, #13 ) ;
#292 = FACE_OUTER_BOUND ( 'NONE', #193, .T. ) ;
#293 = FACE_OUTER_BOUND ( 'NONE', #205, .T. ) ;
#294 = CALENDAR_DATE ( 2021, 2, 9 ) ;
#295 = ADVANCED_FACE ( 'NONE', ( #87 ), #301, .T. ) ;
#296 = AXIS2_PLACEMENT_3D ( 'NONE', #247, #302, #70 ) ;
#297 = PRODUCT ( '54312', '54312', '', ( #313 ) ) ;
#298 = ADVANCED_FACE ( 'NONE', ( #245 ), #62, .T. ) ;
#299 = CARTESIAN_POINT ( 'NONE',  ( 7.342627735031670767E-15, -2.575447118390317683E-16, 2.103012166596478494 ) ) ;
#300 = AXIS2_PLACEMENT_3D ( 'NONE', #240, #154, #37 ) ;
#301 = CYLINDRICAL_SURFACE ( 'NONE', #84, 3.499999999999995559 ) ;
#302 = DIRECTION ( 'NONE',  ( -3.491481338843133355E-15, 1.224646799147353207E-16, -1.000000000000000000 ) ) ;
#303 = CARTESIAN_POINT ( 'NONE',  ( 3.805714659339015231E-13, 2.699999999999991296, 109.0000000000000000 ) ) ;
#304 = DIRECTION ( 'NONE',  ( -2.382254525458708792E-15, -0.7071067811865495711, -0.7071067811865455743 ) ) ;
#305 = CARTESIAN_POINT ( 'NONE',  ( 3.805714659339015231E-13, -1.334865011070615008E-14, 109.0000000000000000 ) ) ;
#306 = DIRECTION ( 'NONE',  ( 4.275831445896958607E-31, 1.000000000000000000, 1.224646799147353207E-16 ) ) ;
#307 = CC_DESIGN_PERSON_AND_ORGANIZATION_ASSIGNMENT ( #334, #1, ( #297 ) ) ;
#308 = EDGE_LOOP ( 'NONE', ( #90, #195 ) ) ;
#309 = LINE ( 'NONE', #114, #246 ) ;
#310 = CLOSED_SHELL ( 'NONE', ( #295, #173, #150, #96, #298 ) ) ;
#311 = FACE_OUTER_BOUND ( 'NONE', #152, .T. ) ;
#312 = ORIENTED_EDGE ( 'NONE', *, *, #212, .T. ) ;
#313 = MECHANICAL_CONTEXT ( 'NONE', #290, 'mechanical' ) ;
#314 = CARTESIAN_POINT ( 'NONE',  ( 2.409122123801762394E-13, -8.450062914116737844E-15, 69.00000000000000000 ) ) ;
#315 = VECTOR ( 'NONE', #31, 1000.000000000000114 ) ;
#316 =( NAMED_UNIT ( * ) PLANE_ANGLE_UNIT ( ) SI_UNIT ( $, .RADIAN. ) );
#317 = APPLICATION_CONTEXT ( 'configuration controlled 3d designs of mechanical parts and assemblies' ) ;
#318 = PLANE ( 'NONE',  #265 ) ;
#319 = DIRECTION ( 'NONE',  ( -3.491481338843133355E-15, 1.224646799147353207E-16, -1.000000000000000000 ) ) ;
#320 = EDGE_CURVE ( 'NONE', #118, #244, #145, .T. ) ;
#321 = SHAPE_DEFINITION_REPRESENTATION ( #160, #237 ) ;
#322 = PRODUCT_DEFINITION ( 'UNKNOWN', '', #233, #235 ) ;
#323 = DIRECTION ( 'NONE',  ( -3.491481338843133355E-15, 1.224646799147353207E-16, -1.000000000000000000 ) ) ;
#324 = EDGE_CURVE ( 'NONE', #119, #43, #132, .T. ) ;
#325 = CARTESIAN_POINT ( 'NONE',  ( 3.097738730012031378E-13, -3.500000000000018652, 108.2000000000000028 ) ) ;
#326 = DIRECTION ( 'NONE',  ( 0.0000000000000000000, 1.000000000000000000, 0.0000000000000000000 ) ) ;
#327 = CARTESIAN_POINT ( 'NONE',  ( 3.097738730012031883E-13, -3.500000000000007994, 69.00000000000000000 ) ) ;
#328 = ORIENTED_EDGE ( 'NONE', *, *, #178, .T. ) ;
#329 = CARTESIAN_POINT ( 'NONE',  ( 7.342627735031669189E-15, -3.499999999999992450, 2.103012166596478050 ) ) ;
#330 = DIRECTION ( 'NONE',  ( 4.402125587170834566E-31, 1.000000000000000000, 1.239088197126293529E-16 ) ) ;
#331 = CARTESIAN_POINT ( 'NONE',  ( 2.409122123801762394E-13, 2.624579619658238224E-32, 69.00000000000000000 ) ) ;
#332 = MANIFOLD_SOLID_BREP ( 'Corps-Déplacer/Copier1[1]', #138 ) ;
#333 = FACE_OUTER_BOUND ( 'NONE', #153, .T. ) ;
#334 = PERSON_AND_ORGANIZATION ( #21, #224 ) ;
#335 = CIRCLE ( 'NONE', #254, 3.500000000000004885 ) ;
#336 = DIRECTION ( 'NONE',  ( 4.275831445896958607E-31, 1.000000000000000000, 1.224646799147353207E-16 ) ) ;
#337 = EDGE_LOOP ( 'NONE', ( #259, #124, #144, #18 ) ) ;
ENDSEC;
END-ISO-10303-21;
