ISO-10303-21;
HEADER;
FILE_DESCRIPTION (( 'STEP AP203' ),
    '1' );
FILE_NAME ('54293.step',
    '2021-09-02T13:38:14',
    ( '' ),
    ( '' ),
    'SwSTEP 2.0',
    'SolidWorks 2019',
    '' );
FILE_SCHEMA (( 'CONFIG_CONTROL_DESIGN' ));
ENDSEC;

DATA;
#1 = FACE_OUTER_BOUND ( 'NONE', #168, .T. ) ;
#2 = CARTESIAN_POINT ( 'NONE',  ( 0.0000000000000000000, 0.0000000000000000000, 0.0000000000000000000 ) ) ;
#3 = DIRECTION ( 'NONE',  ( -3.491481338843133355E-15, 1.224646799147353207E-16, -1.000000000000000000 ) ) ;
#4 = VECTOR ( 'NONE', #253, 1000.000000000000000 ) ;
#5 = APPROVAL_ROLE ( '' ) ;
#6 = DATE_TIME_ROLE ( 'creation_date' ) ;
#7 = EDGE_CURVE ( 'NONE', #116, #71, #192, .T. ) ;
#8 = ORIENTED_EDGE ( 'NONE', *, *, #328, .F. ) ;
#9 = LOCAL_TIME ( 15, 38, 14.00000000000000000, #90 ) ;
#10 = SHAPE_DEFINITION_REPRESENTATION ( #202, #182 ) ;
#11 = ORIENTED_EDGE ( 'NONE', *, *, #235, .F. ) ;
#12 = CLOSED_SHELL ( 'NONE', ( #31, #229, #317, #332, #275 ) ) ;
#13 = APPROVAL_STATUS ( 'not_yet_approved' ) ;
#14 = EDGE_LOOP ( 'NONE', ( #42, #290, #212 ) ) ;
#15 = ORIENTED_EDGE ( 'NONE', *, *, #187, .F. ) ;
#16 = CARTESIAN_POINT ( 'NONE',  ( 0.0000000000000000000, 0.0000000000000000000, 0.0000000000000000000 ) ) ;
#17 = AXIS2_PLACEMENT_3D ( 'NONE', #124, #106, #201 ) ;
#18 = DIRECTION ( 'NONE',  ( -3.491481338843133355E-15, 1.224646799147353207E-16, -1.000000000000000000 ) ) ;
#19 = CC_DESIGN_PERSON_AND_ORGANIZATION_ASSIGNMENT ( #282, #207, ( #28 ) ) ;
#20 = CARTESIAN_POINT ( 'NONE',  ( 2.854835847602604411E-13, -3.300000000000003375, 63.00000000000000000 ) ) ;
#21 = EDGE_CURVE ( 'NONE', #116, #46, #96, .T. ) ;
#22 = AXIS2_PLACEMENT_3D ( 'NONE', #29, #258, #88 ) ;
#23 = CARTESIAN_POINT ( 'NONE',  ( 3.526396152231565067E-13, -1.236893267138826732E-14, 101.0000000000000000 ) ) ;
#24 = APPROVAL ( #13, 'UNSPECIFIED' ) ;
#25 = DIRECTION ( 'NONE',  ( -2.468850131082276388E-15, 0.7071067811865443531, -0.7071067811865506814 ) ) ;
#26 =( NAMED_UNIT ( * ) SI_UNIT ( $, .STERADIAN. ) SOLID_ANGLE_UNIT ( ) );
#27 = DIRECTION ( 'NONE',  ( -3.491481338843133355E-15, 1.224646799147353207E-16, -1.000000000000000000 ) ) ;
#28 = PRODUCT ( '54293', '54293', '', ( #57 ) ) ;
#29 = CARTESIAN_POINT ( 'NONE',  ( 2.199633243471174140E-13, 2.474603641392050274E-32, 63.00000000000000000 ) ) ;
#30 = DIRECTION ( 'NONE',  ( 4.275831445896958607E-31, 1.000000000000000000, 1.224646799147353207E-16 ) ) ;
#31 = ADVANCED_FACE ( 'NONE', ( #269 ), #89, .T. ) ;
#32 = CARTESIAN_POINT ( 'NONE',  ( 2.199633243471174140E-13, -7.715274834628325378E-15, 63.00000000000000000 ) ) ;
#33 = AXIS2_PLACEMENT_3D ( 'NONE', #149, #221, #299 ) ;
#34 = EDGE_CURVE ( 'NONE', #71, #321, #316, .T. ) ;
#35 = APPROVAL_DATE_TIME ( #113, #285 ) ;
#36 = DIRECTION ( 'NONE',  ( 0.0000000000000000000, 1.000000000000000000, 0.0000000000000000000 ) ) ;
#37 = PERSON_AND_ORGANIZATION ( #53, #65 ) ;
#38 = ORIENTED_EDGE ( 'NONE', *, *, #132, .T. ) ;
#39 = CC_DESIGN_APPROVAL ( #257, ( #309 ) ) ;
#40 = LOCAL_TIME ( 15, 38, 14.00000000000000000, #188 ) ;
#41 = CALENDAR_DATE ( 2021, 2, 9 ) ;
#42 = ORIENTED_EDGE ( 'NONE', *, *, #279, .F. ) ;
#43 = CIRCLE ( 'NONE', #128, 3.299999999999995826 ) ;
#44 = DATE_AND_TIME ( #41, #336 ) ;
#45 = ORIENTED_EDGE ( 'NONE', *, *, #298, .T. ) ;
#46 = VERTEX_POINT ( 'NONE', #137 ) ;
#47 = CARTESIAN_POINT ( 'NONE',  ( 0.0000000000000000000, 0.0000000000000000000, 0.0000000000000000000 ) ) ;
#48 = EDGE_CURVE ( 'NONE', #119, #190, #255, .T. ) ;
#49 = LINE ( 'NONE', #276, #204 ) ;
#50 = CARTESIAN_POINT ( 'NONE',  ( 3.517788675603098516E-13, -2.600000000000012967, 101.0000000000000000 ) ) ;
#51 = CC_DESIGN_PERSON_AND_ORGANIZATION_ASSIGNMENT ( #242, #236, ( #80 ) ) ;
#52 = DIRECTION ( 'NONE',  ( -2.382254525458728119E-15, -0.7071067811865441310, -0.7071067811865507924 ) ) ;
#53 = PERSON ( 'UNSPECIFIED', 'UNSPECIFIED', 'UNSPECIFIED', ('UNSPECIFIED'), ('UNSPECIFIED'), ('UNSPECIFIED') ) ;
#54 = CIRCLE ( 'NONE', #234, 3.299999999999988276 ) ;
#55 = CARTESIAN_POINT ( 'NONE',  ( 1.138473201209348935E-13, -3.300000000000002931, 63.00000000000000000 ) ) ;
#56 = LINE ( 'NONE', #230, #150 ) ;
#57 = MECHANICAL_CONTEXT ( 'NONE', #135, 'mechanical' ) ;
#58 = CIRCLE ( 'NONE', #102, 3.299999999999995826 ) ;
#59 = ORIENTED_EDGE ( 'NONE', *, *, #48, .T. ) ;
#60 = CIRCLE ( 'NONE', #283, 3.299999999999999822 ) ;
#61 = FACE_OUTER_BOUND ( 'NONE', #140, .T. ) ;
#62 = DIRECTION ( 'NONE',  ( 0.0000000000000000000, 1.000000000000000000, 0.0000000000000000000 ) ) ;
#63 = PRODUCT_RELATED_PRODUCT_CATEGORY ( 'detail', '', ( #28 ) ) ;
#64 =( LENGTH_UNIT ( ) NAMED_UNIT ( * ) SI_UNIT ( .MILLI., .METRE. ) );
#65 = ORGANIZATION ( 'UNSPECIFIED', 'UNSPECIFIED', '' ) ;
#66 = AXIS2_PLACEMENT_3D ( 'NONE', #47, #18, #334 ) ;
#67 = CARTESIAN_POINT ( 'NONE',  ( 2.199633243471174140E-13, -7.715274834628325378E-15, 63.00000000000000000 ) ) ;
#68 = PERSON_AND_ORGANIZATION ( #53, #65 ) ;
#69 = ORIENTED_EDGE ( 'NONE', *, *, #7, .T. ) ;
#70 = PERSON_AND_ORGANIZATION ( #53, #65 ) ;
#71 = VERTEX_POINT ( 'NONE', #20 ) ;
#72 = EDGE_CURVE ( 'NONE', #46, #116, #60, .T. ) ;
#73 = DIRECTION ( 'NONE',  ( -3.491481338843133355E-15, 1.224646799147353207E-16, -1.000000000000000000 ) ) ;
#74 = CARTESIAN_POINT ( 'NONE',  ( 4.041334437186249239E-16, -3.299999999999997602, -4.041334437186276850E-16 ) ) ;
#75 = CARTESIAN_POINT ( 'NONE',  ( 3.529580233909348030E-13, -2.600000000000012967, 101.0000000000000000 ) ) ;
#76 = CARTESIAN_POINT ( 'NONE',  ( 3.526396152231565067E-13, -1.236893267138826732E-14, 101.0000000000000000 ) ) ;
#77 = AXIS2_PLACEMENT_3D ( 'NONE', #67, #160, #36 ) ;
#78 = DIRECTION ( 'NONE',  ( -3.491481338843133355E-15, 1.224646799147353207E-16, -1.000000000000000000 ) ) ;
#79 = FACE_OUTER_BOUND ( 'NONE', #14, .T. ) ;
#80 = PRODUCT_DEFINITION ( 'UNKNOWN', '', #309, #159 ) ;
#81 = AXIS2_PLACEMENT_3D ( 'NONE', #153, #27, #181 ) ;
#82 = DIRECTION ( 'NONE',  ( 0.0000000000000000000, 1.000000000000000000, 0.0000000000000000000 ) ) ;
#83 = CARTESIAN_POINT ( 'NONE',  ( 7.327182451034196280E-15, 3.299999999999987832, 1.982840042790964041 ) ) ;
#84 = ORIENTED_EDGE ( 'NONE', *, *, #34, .F. ) ;
#85 = CC_DESIGN_APPROVAL ( #24, ( #292 ) ) ;
#86 = DIRECTION ( 'NONE',  ( 3.491481338843133355E-15, -1.224646799147353207E-16, 1.000000000000000000 ) ) ;
#87 = CC_DESIGN_DATE_AND_TIME_ASSIGNMENT ( #115, #157, ( #292 ) ) ;
#88 = DIRECTION ( 'NONE',  ( -4.275831445896958607E-31, -1.000000000000000000, -1.224646799147353207E-16 ) ) ;
#89 = CYLINDRICAL_SURFACE ( 'NONE', #107, 3.299999999999992273 ) ;
#90 = COORDINATED_UNIVERSAL_TIME_OFFSET ( 1, 0, .AHEAD. ) ;
#91 = EDGE_LOOP ( 'NONE', ( #268, #38, #281, #11 ) ) ;
#92 = SECURITY_CLASSIFICATION_LEVEL ( 'unclassified' ) ;
#93 = VERTEX_POINT ( 'NONE', #55 ) ;
#94 = ADVANCED_FACE ( 'NONE', ( #104 ), #224, .T. ) ;
#95 = VERTEX_POINT ( 'NONE', #301 ) ;
#96 = CIRCLE ( 'NONE', #325, 3.299999999999999822 ) ;
#97 = ORIENTED_EDGE ( 'NONE', *, *, #120, .T. ) ;
#98 = AXIS2_PLACEMENT_3D ( 'NONE', #76, #248, #249 ) ;
#99 = DIRECTION ( 'NONE',  ( -3.491481338843133355E-15, 1.224646799147353207E-16, -1.000000000000000000 ) ) ;
#100 = MANIFOLD_SOLID_BREP ( 'Corps-Déplacer/Copier1[2]', #12 ) ;
#101 = CARTESIAN_POINT ( 'NONE',  ( 6.923049007315569186E-15, -2.428278711625154560E-16, 1.982840042790963597 ) ) ;
#102 = AXIS2_PLACEMENT_3D ( 'NONE', #32, #227, #62 ) ;
#103 = EDGE_CURVE ( 'NONE', #288, #265, #274, .T. ) ;
#104 = FACE_OUTER_BOUND ( 'NONE', #238, .T. ) ;
#105 = CARTESIAN_POINT ( 'NONE',  ( 2.199633243471174140E-13, -7.715274834628325378E-15, 63.00000000000000000 ) ) ;
#106 = DIRECTION ( 'NONE',  ( -3.491481338843133355E-15, 1.224646799147353207E-16, -1.000000000000000000 ) ) ;
#107 = AXIS2_PLACEMENT_3D ( 'NONE', #169, #263, #186 ) ;
#108 = AXIS2_PLACEMENT_3D ( 'NONE', #174, #220, #327 ) ;
#109 = FACE_OUTER_BOUND ( 'NONE', #189, .T. ) ;
#110 = CIRCLE ( 'NONE', #33, 3.299999999999988276 ) ;
#111 = CARTESIAN_POINT ( 'NONE',  ( 2.199633243471174140E-13, 2.474603641392050274E-32, 63.00000000000000000 ) ) ;
#112 = ORIENTED_EDGE ( 'NONE', *, *, #260, .F. ) ;
#113 = DATE_AND_TIME ( #213, #232 ) ;
#114 = ORIENTED_EDGE ( 'NONE', *, *, #161, .F. ) ;
#115 = DATE_AND_TIME ( #267, #9 ) ;
#116 = VERTEX_POINT ( 'NONE', #198 ) ;
#117 = APPROVAL_ROLE ( '' ) ;
#118 = ORIENTED_EDGE ( 'NONE', *, *, #48, .F. ) ;
#119 = VERTEX_POINT ( 'NONE', #50 ) ;
#120 = EDGE_CURVE ( 'NONE', #288, #93, #43, .T. ) ;
#121 = VECTOR ( 'NONE', #293, 1000.000000000000000 ) ;
#122 = DIRECTION ( 'NONE',  ( 4.668921077302406163E-31, 1.000000000000000000, 1.314184451497585696E-16 ) ) ;
#123 = CIRCLE ( 'NONE', #98, 2.600000000000000533 ) ;
#124 = CARTESIAN_POINT ( 'NONE',  ( 2.199633243471174140E-13, -7.715274834628325378E-15, 63.00000000000000000 ) ) ;
#125 = CARTESIAN_POINT ( 'NONE',  ( 3.526396152231565067E-13, -1.236893267138826732E-14, 101.0000000000000000 ) ) ;
#126 = APPROVAL_PERSON_ORGANIZATION ( #240, #285, #322 ) ;
#127 = PLANE ( 'NONE',  #306 ) ;
#128 = AXIS2_PLACEMENT_3D ( 'NONE', #105, #99, #82 ) ;
#129 = CYLINDRICAL_SURFACE ( 'NONE', #66, 3.299999999999997602 ) ;
#130 = APPLICATION_PROTOCOL_DEFINITION ( 'international standard', 'config_control_design', 1994, #135 ) ;
#131 = CARTESIAN_POINT ( 'NONE',  ( 6.923049007315569186E-15, -2.428278711625154560E-16, 1.982840042790963597 ) ) ;
#132 = EDGE_CURVE ( 'NONE', #119, #116, #146, .T. ) ;
#133 = DIRECTION ( 'NONE',  ( 3.491481338843133355E-15, -1.224646799147353207E-16, 1.000000000000000000 ) ) ;
#134 = PERSON_AND_ORGANIZATION_ROLE ( 'creator' ) ;
#135 = APPLICATION_CONTEXT ( 'configuration controlled 3d designs of mechanical parts and assemblies' ) ;
#136 = ADVANCED_FACE ( 'NONE', ( #151 ), #127, .F. ) ;
#137 = CARTESIAN_POINT ( 'NONE',  ( 3.501955782859662818E-13, 3.299999999999987832, 100.2999999999999972 ) ) ;
#138 = PERSON_AND_ORGANIZATION ( #53, #65 ) ;
#139 = VECTOR ( 'NONE', #179, 999.9999999999998863 ) ;
#140 = EDGE_LOOP ( 'NONE', ( #246, #8 ) ) ;
#141 = ORIENTED_EDGE ( 'NONE', *, *, #235, .T. ) ;
#142 = CC_DESIGN_PERSON_AND_ORGANIZATION_ASSIGNMENT ( #70, #162, ( #292 ) ) ;
#143 = APPROVAL_STATUS ( 'not_yet_approved' ) ;
#144 = ORIENTED_EDGE ( 'NONE', *, *, #231, .F. ) ;
#145 = CARTESIAN_POINT ( 'NONE',  ( 3.501955782859662818E-13, -1.228320739544795303E-14, 100.2999999999999972 ) ) ;
#146 = LINE ( 'NONE', #75, #311 ) ;
#147 = DIRECTION ( 'NONE',  ( 4.275831445896958607E-31, 1.000000000000000000, 1.224646799147353207E-16 ) ) ;
#148 = CARTESIAN_POINT ( 'NONE',  ( 1.411024377145993065E-30, 3.299999999999992273, 4.041334437186256142E-16 ) ) ;
#149 = CARTESIAN_POINT ( 'NONE',  ( 6.923049007315569186E-15, -2.428278711625154560E-16, 1.982840042790963597 ) ) ;
#150 = VECTOR ( 'NONE', #183, 1000.000000000000000 ) ;
#151 = FACE_OUTER_BOUND ( 'NONE', #259, .T. ) ;
#152 = APPLICATION_CONTEXT ( 'configuration controlled 3d designs of mechanical parts and assemblies' ) ;
#153 = CARTESIAN_POINT ( 'NONE',  ( 3.526396152231565067E-13, -1.236893267138826732E-14, 101.0000000000000000 ) ) ;
#154 = FACE_OUTER_BOUND ( 'NONE', #91, .T. ) ;
#155 = CARTESIAN_POINT ( 'NONE',  ( 2.199633243471174140E-13, 3.299999999999987832, 63.00000000000000000 ) ) ;
#156 = ORIENTED_EDGE ( 'NONE', *, *, #231, .T. ) ;
#157 = DATE_TIME_ROLE ( 'classification_date' ) ;
#158 = AXIS2_PLACEMENT_3D ( 'NONE', #111, #133, #205 ) ;
#159 = DESIGN_CONTEXT ( 'detailed design', #152, 'design' ) ;
#160 = DIRECTION ( 'NONE',  ( -3.491481338843133355E-15, 1.224646799147353207E-16, -1.000000000000000000 ) ) ;
#161 = EDGE_CURVE ( 'NONE', #93, #95, #49, .T. ) ;
#162 = PERSON_AND_ORGANIZATION_ROLE ( 'classification_officer' ) ;
#163 = ORIENTED_EDGE ( 'NONE', *, *, #337, .F. ) ;
#164 = COORDINATED_UNIVERSAL_TIME_OFFSET ( 1, 0, .AHEAD. ) ;
#165 = LOCAL_TIME ( 15, 38, 14.00000000000000000, #164 ) ;
#166 = VERTEX_POINT ( 'NONE', #16 ) ;
#167 = PERSON_AND_ORGANIZATION_ROLE ( 'design_supplier' ) ;
#168 = EDGE_LOOP ( 'NONE', ( #114, #241, #228, #144 ) ) ;
#169 = CARTESIAN_POINT ( 'NONE',  ( 0.0000000000000000000, 0.0000000000000000000, 0.0000000000000000000 ) ) ;
#170 = LINE ( 'NONE', #251, #295 ) ;
#171 = CC_DESIGN_APPROVAL ( #285, ( #80 ) ) ;
#172 = DIRECTION ( 'NONE',  ( -3.491481338843133355E-15, 1.224646799147353207E-16, -1.000000000000000000 ) ) ;
#173 = DIRECTION ( 'NONE',  ( -3.491481338843133355E-15, 1.224646799147353207E-16, -1.000000000000000000 ) ) ;
#174 = CARTESIAN_POINT ( 'NONE',  ( 6.923049007315569186E-15, -2.428278711625154560E-16, 1.982840042790963597 ) ) ;
#175 = CARTESIAN_POINT ( 'NONE',  ( 3.526396152231565067E-13, 1.949687717460396279E-32, 101.0000000000000000 ) ) ;
#176 = LINE ( 'NONE', #209, #4 ) ;
#177 = EDGE_LOOP ( 'NONE', ( #243, #69, #112, #297 ) ) ;
#178 =( GEOMETRIC_REPRESENTATION_CONTEXT ( 3 ) GLOBAL_UNCERTAINTY_ASSIGNED_CONTEXT ( ( #287 ) ) GLOBAL_UNIT_ASSIGNED_CONTEXT ( ( #64, #203, #26 ) ) REPRESENTATION_CONTEXT ( 'NONE', 'WORKASPACE' ) );
#179 = DIRECTION ( 'NONE',  ( 1.903218546456022717E-15, 0.8571673007021097801, 0.5150380749100585964 ) ) ;
#180 = AXIS2_PLACEMENT_3D ( 'NONE', #125, #333, #272 ) ;
#181 = DIRECTION ( 'NONE',  ( 0.0000000000000000000, 1.000000000000000000, 0.0000000000000000000 ) ) ;
#182 = ADVANCED_BREP_SHAPE_REPRESENTATION ( '54293', ( #208, #100, #266 ), #178 ) ;
#183 = DIRECTION ( 'NONE',  ( 1.798245827342160317E-15, -0.8571673007021098911, 0.5150380749100582634 ) ) ;
#184 = ORIENTED_EDGE ( 'NONE', *, *, #196, .F. ) ;
#185 = AXIS2_PLACEMENT_3D ( 'NONE', #233, #3, #30 ) ;
#186 = DIRECTION ( 'NONE',  ( 4.275831445896958607E-31, 1.000000000000000000, 1.224646799147353207E-16 ) ) ;
#187 = EDGE_CURVE ( 'NONE', #265, #95, #54, .T. ) ;
#188 = COORDINATED_UNIVERSAL_TIME_OFFSET ( 1, 0, .AHEAD. ) ;
#189 = EDGE_LOOP ( 'NONE', ( #163, #215, #156 ) ) ;
#190 = VERTEX_POINT ( 'NONE', #195 ) ;
#191 = APPROVAL_PERSON_ORGANIZATION ( #68, #257, #117 ) ;
#192 = LINE ( 'NONE', #74, #121 ) ;
#193 = ORIENTED_EDGE ( 'NONE', *, *, #260, .T. ) ;
#194 = CARTESIAN_POINT ( 'NONE',  ( 0.0000000000000000000, 0.0000000000000000000, 0.0000000000000000000 ) ) ;
#195 = CARTESIAN_POINT ( 'NONE',  ( 3.526396152231565067E-13, 2.599999999999987654, 101.0000000000000000 ) ) ;
#196 = EDGE_CURVE ( 'NONE', #190, #119, #123, .T. ) ;
#197 = AXIS2_PLACEMENT_3D ( 'NONE', #23, #273, #330 ) ;
#198 = CARTESIAN_POINT ( 'NONE',  ( 2.854835847602603401E-13, -3.300000000000012257, 100.2999999999999972 ) ) ;
#199 = CC_DESIGN_PERSON_AND_ORGANIZATION_ASSIGNMENT ( #138, #134, ( #309 ) ) ;
#200 = DIRECTION ( 'NONE',  ( -3.491481338843133355E-15, 1.224646799147353207E-16, -1.000000000000000000 ) ) ;
#201 = DIRECTION ( 'NONE',  ( 0.0000000000000000000, 1.000000000000000000, 0.0000000000000000000 ) ) ;
#202 = PRODUCT_DEFINITION_SHAPE ( 'NONE', 'NONE',  #80 ) ;
#203 =( NAMED_UNIT ( * ) PLANE_ANGLE_UNIT ( ) SI_UNIT ( $, .RADIAN. ) );
#204 = VECTOR ( 'NONE', #173, 1000.000000000000000 ) ;
#205 = DIRECTION ( 'NONE',  ( -4.275831445896958607E-31, -1.000000000000000000, -1.224646799147353207E-16 ) ) ;
#206 = ADVANCED_FACE ( 'NONE', ( #303 ), #222, .T. ) ;
#207 = PERSON_AND_ORGANIZATION_ROLE ( 'design_owner' ) ;
#208 = MANIFOLD_SOLID_BREP ( 'Corps-Déplacer/Copier1[1]', #305 ) ;
#209 = CARTESIAN_POINT ( 'NONE',  ( 1.411024377145995342E-30, 3.299999999999997602, 4.041334437186262551E-16 ) ) ;
#210 = ORIENTED_EDGE ( 'NONE', *, *, #21, .T. ) ;
#211 = APPROVAL_DATE_TIME ( #237, #257 ) ;
#212 = ORIENTED_EDGE ( 'NONE', *, *, #187, .T. ) ;
#213 = CALENDAR_DATE ( 2021, 2, 9 ) ;
#214 = ORIENTED_EDGE ( 'NONE', *, *, #132, .F. ) ;
#215 = ORIENTED_EDGE ( 'NONE', *, *, #279, .T. ) ;
#216 = COORDINATED_UNIVERSAL_TIME_OFFSET ( 1, 0, .AHEAD. ) ;
#217 = AXIS2_PLACEMENT_3D ( 'NONE', #131, #86, #286 ) ;
#218 = ORIENTED_EDGE ( 'NONE', *, *, #161, .T. ) ;
#219 = CIRCLE ( 'NONE', #17, 3.299999999999995826 ) ;
#220 = DIRECTION ( 'NONE',  ( 3.491481338843133355E-15, -1.224646799147353207E-16, 1.000000000000000000 ) ) ;
#221 = DIRECTION ( 'NONE',  ( -3.491481338843133355E-15, 1.224646799147353207E-16, -1.000000000000000000 ) ) ;
#222 = CYLINDRICAL_SURFACE ( 'NONE', #247, 3.299999999999997602 ) ;
#223 = APPROVAL_PERSON_ORGANIZATION ( #244, #24, #5 ) ;
#224 = CONICAL_SURFACE ( 'NONE', #180, 2.600000000000000533, 0.7853981633974437271 ) ;
#225 = DIRECTION ( 'NONE',  ( 4.275831445896958607E-31, 1.000000000000000000, 1.224646799147353207E-16 ) ) ;
#226 = DIRECTION ( 'NONE',  ( 0.0000000000000000000, 1.000000000000000000, 0.0000000000000000000 ) ) ;
#227 = DIRECTION ( 'NONE',  ( -3.491481338843133355E-15, 1.224646799147353207E-16, -1.000000000000000000 ) ) ;
#228 = ORIENTED_EDGE ( 'NONE', *, *, #103, .T. ) ;
#229 = ADVANCED_FACE ( 'NONE', ( #79 ), #326, .T. ) ;
#230 = CARTESIAN_POINT ( 'NONE',  ( 6.923049007315567609E-15, -3.299999999999988720, 1.982840042790963153 ) ) ;
#231 = EDGE_CURVE ( 'NONE', #95, #265, #110, .T. ) ;
#232 = LOCAL_TIME ( 15, 38, 14.00000000000000000, #262 ) ;
#233 = CARTESIAN_POINT ( 'NONE',  ( 0.0000000000000000000, 0.0000000000000000000, 0.0000000000000000000 ) ) ;
#234 = AXIS2_PLACEMENT_3D ( 'NONE', #101, #200, #122 ) ;
#235 = EDGE_CURVE ( 'NONE', #190, #46, #170, .T. ) ;
#236 = PERSON_AND_ORGANIZATION_ROLE ( 'creator' ) ;
#237 = DATE_AND_TIME ( #320, #165 ) ;
#238 = EDGE_LOOP ( 'NONE', ( #214, #59, #141, #324 ) ) ;
#239 = CC_DESIGN_SECURITY_CLASSIFICATION ( #292, ( #309 ) ) ;
#240 = PERSON_AND_ORGANIZATION ( #53, #65 ) ;
#241 = ORIENTED_EDGE ( 'NONE', *, *, #328, .T. ) ;
#242 = PERSON_AND_ORGANIZATION ( #53, #65 ) ;
#243 = ORIENTED_EDGE ( 'NONE', *, *, #72, .T. ) ;
#244 = PERSON_AND_ORGANIZATION ( #53, #65 ) ;
#245 = EDGE_LOOP ( 'NONE', ( #97, #218, #15, #291 ) ) ;
#246 = ORIENTED_EDGE ( 'NONE', *, *, #120, .F. ) ;
#247 = AXIS2_PLACEMENT_3D ( 'NONE', #194, #172, #147 ) ;
#248 = DIRECTION ( 'NONE',  ( -3.491481338843133355E-15, 1.224646799147353207E-16, -1.000000000000000000 ) ) ;
#249 = DIRECTION ( 'NONE',  ( 0.0000000000000000000, 1.000000000000000000, 0.0000000000000000000 ) ) ;
#250 = DIRECTION ( 'NONE',  ( -3.491481338843133355E-15, 1.224646799147353207E-16, -1.000000000000000000 ) ) ;
#251 = CARTESIAN_POINT ( 'NONE',  ( 3.526396152231565067E-13, 2.599999999999987654, 101.0000000000000000 ) ) ;
#252 = CYLINDRICAL_SURFACE ( 'NONE', #185, 3.299999999999992273 ) ;
#253 = DIRECTION ( 'NONE',  ( -3.491481338843133355E-15, 1.224646799147353207E-16, -1.000000000000000000 ) ) ;
#254 = ADVANCED_FACE ( 'NONE', ( #271 ), #129, .T. ) ;
#255 = CIRCLE ( 'NONE', #197, 2.600000000000000533 ) ;
#256 = FACE_OUTER_BOUND ( 'NONE', #270, .T. ) ;
#257 = APPROVAL ( #296, 'UNSPECIFIED' ) ;
#258 = DIRECTION ( 'NONE',  ( 3.491481338843133355E-15, -1.224646799147353207E-16, 1.000000000000000000 ) ) ;
#259 = EDGE_LOOP ( 'NONE', ( #184, #118 ) ) ;
#260 = EDGE_CURVE ( 'NONE', #321, #71, #219, .T. ) ;
#261 = CONICAL_SURFACE ( 'NONE', #81, 2.600000000000000533, 0.7853981633974437271 ) ;
#262 = COORDINATED_UNIVERSAL_TIME_OFFSET ( 1, 0, .AHEAD. ) ;
#263 = DIRECTION ( 'NONE',  ( -3.491481338843133355E-15, 1.224646799147353207E-16, -1.000000000000000000 ) ) ;
#264 = APPROVAL_DATE_TIME ( #44, #24 ) ;
#265 = VERTEX_POINT ( 'NONE', #329 ) ;
#266 = AXIS2_PLACEMENT_3D ( 'NONE', #2, #280, #277 ) ;
#267 = CALENDAR_DATE ( 2021, 2, 9 ) ;
#268 = ORIENTED_EDGE ( 'NONE', *, *, #196, .T. ) ;
#269 = FACE_OUTER_BOUND ( 'NONE', #245, .T. ) ;
#270 = EDGE_LOOP ( 'NONE', ( #193, #318 ) ) ;
#271 = FACE_OUTER_BOUND ( 'NONE', #315, .T. ) ;
#272 = DIRECTION ( 'NONE',  ( 0.0000000000000000000, 1.000000000000000000, 0.0000000000000000000 ) ) ;
#273 = DIRECTION ( 'NONE',  ( -3.491481338843133355E-15, 1.224646799147353207E-16, -1.000000000000000000 ) ) ;
#274 = LINE ( 'NONE', #148, #331 ) ;
#275 = ADVANCED_FACE ( 'NONE', ( #61 ), #335, .T. ) ;
#276 = CARTESIAN_POINT ( 'NONE',  ( 4.041334437186241844E-16, -3.299999999999992273, -4.041334437186269947E-16 ) ) ;
#277 = DIRECTION ( 'NONE',  ( 1.000000000000000000, 0.0000000000000000000, 0.0000000000000000000 ) ) ;
#278 = ORIENTED_EDGE ( 'NONE', *, *, #7, .F. ) ;
#279 = EDGE_CURVE ( 'NONE', #166, #95, #56, .T. ) ;
#280 = DIRECTION ( 'NONE',  ( 0.0000000000000000000, 0.0000000000000000000, 1.000000000000000000 ) ) ;
#281 = ORIENTED_EDGE ( 'NONE', *, *, #72, .F. ) ;
#282 = PERSON_AND_ORGANIZATION ( #53, #65 ) ;
#283 = AXIS2_PLACEMENT_3D ( 'NONE', #304, #250, #226 ) ;
#284 = PLANE ( 'NONE',  #22 ) ;
#285 = APPROVAL ( #143, 'UNSPECIFIED' ) ;
#286 = DIRECTION ( 'NONE',  ( -4.668921077302406163E-31, -1.000000000000000000, -1.314184451497585696E-16 ) ) ;
#287 = UNCERTAINTY_MEASURE_WITH_UNIT (LENGTH_MEASURE( 1.000000000000000082E-05 ), #64, 'distance_accuracy_value', 'NONE');
#288 = VERTEX_POINT ( 'NONE', #155 ) ;
#289 = CALENDAR_DATE ( 2021, 2, 9 ) ;
#290 = ORIENTED_EDGE ( 'NONE', *, *, #337, .T. ) ;
#291 = ORIENTED_EDGE ( 'NONE', *, *, #103, .F. ) ;
#292 = SECURITY_CLASSIFICATION ( '', '', #92 ) ;
#293 = DIRECTION ( 'NONE',  ( -3.491481338843133355E-15, 1.224646799147353207E-16, -1.000000000000000000 ) ) ;
#294 = CC_DESIGN_PERSON_AND_ORGANIZATION_ASSIGNMENT ( #37, #167, ( #309 ) ) ;
#295 = VECTOR ( 'NONE', #25, 1000.000000000000000 ) ;
#296 = APPROVAL_STATUS ( 'not_yet_approved' ) ;
#297 = ORIENTED_EDGE ( 'NONE', *, *, #298, .F. ) ;
#298 = EDGE_CURVE ( 'NONE', #46, #321, #176, .T. ) ;
#299 = DIRECTION ( 'NONE',  ( 4.668921077302406163E-31, 1.000000000000000000, 1.314184451497585696E-16 ) ) ;
#300 = CONICAL_SURFACE ( 'NONE', #217, 3.299999999999988276, 1.029744258676649649 ) ;
#301 = CARTESIAN_POINT ( 'NONE',  ( 6.923049007315567609E-15, -3.299999999999988720, 1.982840042790963153 ) ) ;
#302 = DIRECTION ( 'NONE',  ( -3.491481338843133355E-15, 1.224646799147353207E-16, -1.000000000000000000 ) ) ;
#303 = FACE_OUTER_BOUND ( 'NONE', #177, .T. ) ;
#304 = CARTESIAN_POINT ( 'NONE',  ( 3.501955782859662818E-13, -1.228320739544795303E-14, 100.2999999999999972 ) ) ;
#305 = CLOSED_SHELL ( 'NONE', ( #308, #206, #323, #254, #94, #136 ) ) ;
#306 = AXIS2_PLACEMENT_3D ( 'NONE', #175, #78, #225 ) ;
#307 = LINE ( 'NONE', #83, #139 ) ;
#308 = ADVANCED_FACE ( 'NONE', ( #154 ), #261, .T. ) ;
#309 = PRODUCT_DEFINITION_FORMATION_WITH_SPECIFIED_SOURCE ( 'ANY', '', #28, .NOT_KNOWN. ) ;
#310 = APPLICATION_PROTOCOL_DEFINITION ( 'international standard', 'config_control_design', 1994, #152 ) ;
#311 = VECTOR ( 'NONE', #52, 1000.000000000000000 ) ;
#312 = CARTESIAN_POINT ( 'NONE',  ( 2.199633243471174140E-13, 3.299999999999987832, 63.00000000000000000 ) ) ;
#313 = DIRECTION ( 'NONE',  ( 0.0000000000000000000, 1.000000000000000000, 0.0000000000000000000 ) ) ;
#314 = DATE_AND_TIME ( #289, #40 ) ;
#315 = EDGE_LOOP ( 'NONE', ( #278, #210, #45, #84 ) ) ;
#316 = CIRCLE ( 'NONE', #77, 3.299999999999995826 ) ;
#317 = ADVANCED_FACE ( 'NONE', ( #109 ), #300, .T. ) ;
#318 = ORIENTED_EDGE ( 'NONE', *, *, #34, .T. ) ;
#319 = CC_DESIGN_DATE_AND_TIME_ASSIGNMENT ( #314, #6, ( #80 ) ) ;
#320 = CALENDAR_DATE ( 2021, 2, 9 ) ;
#321 = VERTEX_POINT ( 'NONE', #312 ) ;
#322 = APPROVAL_ROLE ( '' ) ;
#323 = ADVANCED_FACE ( 'NONE', ( #256 ), #284, .F. ) ;
#324 = ORIENTED_EDGE ( 'NONE', *, *, #21, .F. ) ;
#325 = AXIS2_PLACEMENT_3D ( 'NONE', #145, #73, #313 ) ;
#326 = CONICAL_SURFACE ( 'NONE', #108, 3.299999999999988276, 1.029744258676649649 ) ;
#327 = DIRECTION ( 'NONE',  ( -4.668921077302406163E-31, -1.000000000000000000, -1.314184451497585696E-16 ) ) ;
#328 = EDGE_CURVE ( 'NONE', #93, #288, #58, .T. ) ;
#329 = CARTESIAN_POINT ( 'NONE',  ( 7.327182451034196280E-15, 3.299999999999987832, 1.982840042790964041 ) ) ;
#330 = DIRECTION ( 'NONE',  ( 0.0000000000000000000, 1.000000000000000000, 0.0000000000000000000 ) ) ;
#331 = VECTOR ( 'NONE', #302, 1000.000000000000000 ) ;
#332 = ADVANCED_FACE ( 'NONE', ( #1 ), #252, .T. ) ;
#333 = DIRECTION ( 'NONE',  ( -3.491481338843133355E-15, 1.224646799147353207E-16, -1.000000000000000000 ) ) ;
#334 = DIRECTION ( 'NONE',  ( 4.275831445896958607E-31, 1.000000000000000000, 1.224646799147353207E-16 ) ) ;
#335 = PLANE ( 'NONE',  #158 ) ;
#336 = LOCAL_TIME ( 15, 38, 14.00000000000000000, #216 ) ;
#337 = EDGE_CURVE ( 'NONE', #166, #265, #307, .T. ) ;
ENDSEC;
END-ISO-10303-21;
