ISO-10303-21;
HEADER;
FILE_DESCRIPTION (( 'STEP AP203' ),
    '1' );
FILE_NAME ('54290.step',
    '2021-09-02T13:38:13',
    ( '' ),
    ( '' ),
    'SwSTEP 2.0',
    'SolidWorks 2019',
    '' );
FILE_SCHEMA (( 'CONFIG_CONTROL_DESIGN' ));
ENDSEC;

DATA;
#1 = DIRECTION ( 'NONE',  ( -3.491481338843133355E-15, 1.224646799147353207E-16, -1.000000000000000000 ) ) ;
#2 = LINE ( 'NONE', #214, #282 ) ;
#3 = CARTESIAN_POINT ( 'NONE',  ( 3.980102097228880482E-16, -3.249999999999996891, -3.980102097228907599E-16 ) ) ;
#4 = CIRCLE ( 'NONE', #221, 2.550000000000005596 ) ;
#5 = LOCAL_TIME ( 15, 38, 13.00000000000000000, #81 ) ;
#6 = CARTESIAN_POINT ( 'NONE',  ( 6.818154325386555033E-15, -3.249999999999993783, 1.952797011839587871 ) ) ;
#7 = ADVANCED_FACE ( 'NONE', ( #132 ), #51, .T. ) ;
#8 = DIRECTION ( 'NONE',  ( 0.0000000000000000000, 1.000000000000000000, 0.0000000000000000000 ) ) ;
#9 = PERSON_AND_ORGANIZATION ( #190, #26 ) ;
#10 = VECTOR ( 'NONE', #246, 1000.000000000000000 ) ;
#11 = APPROVAL_ROLE ( '' ) ;
#12 = ORIENTED_EDGE ( 'NONE', *, *, #309, .F. ) ;
#13 = ORIENTED_EDGE ( 'NONE', *, *, #180, .T. ) ;
#14 = LINE ( 'NONE', #169, #65 ) ;
#15 = ORIENTED_EDGE ( 'NONE', *, *, #147, .F. ) ;
#16 = PERSON_AND_ORGANIZATION_ROLE ( 'design_owner' ) ;
#17 = ADVANCED_FACE ( 'NONE', ( #258 ), #202, .T. ) ;
#18 = PERSON_AND_ORGANIZATION ( #190, #26 ) ;
#19 = PRODUCT_DEFINITION_SHAPE ( 'NONE', 'NONE',  #263 ) ;
#20 = DIRECTION ( 'NONE',  ( 0.0000000000000000000, 1.000000000000000000, 0.0000000000000000000 ) ) ;
#21 = DATE_AND_TIME ( #23, #288 ) ;
#22 = VERTEX_POINT ( 'NONE', #259 ) ;
#23 = CALENDAR_DATE ( 2021, 2, 9 ) ;
#24 = APPLICATION_CONTEXT ( 'configuration controlled 3d designs of mechanical parts and assemblies' ) ;
#25 = FACE_OUTER_BOUND ( 'NONE', #71, .T. ) ;
#26 = ORGANIZATION ( 'UNSPECIFIED', 'UNSPECIFIED', '' ) ;
#27 = EDGE_CURVE ( 'NONE', #223, #209, #310, .T. ) ;
#28 = ORIENTED_EDGE ( 'NONE', *, *, #275, .T. ) ;
#29 = DIRECTION ( 'NONE',  ( -4.275831445896958607E-31, -1.000000000000000000, -1.224646799147353207E-16 ) ) ;
#30 = CARTESIAN_POINT ( 'NONE',  ( 3.526396152231565067E-13, 2.549999999999992717, 101.0000000000000000 ) ) ;
#31 = AXIS2_PLACEMENT_3D ( 'NONE', #296, #268, #163 ) ;
#32 = LINE ( 'NONE', #30, #10 ) ;
#33 = CARTESIAN_POINT ( 'NONE',  ( 3.526396152231565067E-13, 2.549999999999992717, 101.0000000000000000 ) ) ;
#34 = CC_DESIGN_PERSON_AND_ORGANIZATION_ASSIGNMENT ( #131, #260, ( #119 ) ) ;
#35 = CARTESIAN_POINT ( 'NONE',  ( 2.854774615262647435E-13, -3.250000000000008438, 63.00000000000000000 ) ) ;
#36 = CC_DESIGN_SECURITY_CLASSIFICATION ( #141, ( #119 ) ) ;
#37 = CARTESIAN_POINT ( 'NONE',  ( 3.517727443263141035E-13, -2.550000000000018030, 101.0000000000000000 ) ) ;
#38 = APPLICATION_PROTOCOL_DEFINITION ( 'international standard', 'config_control_design', 1994, #170 ) ;
#39 = CIRCLE ( 'NONE', #87, 3.250000000000000888 ) ;
#40 = CALENDAR_DATE ( 2021, 2, 9 ) ;
#41 = EDGE_LOOP ( 'NONE', ( #231, #13, #224, #120 ) ) ;
#42 = FACE_OUTER_BOUND ( 'NONE', #177, .T. ) ;
#43 = AXIS2_PLACEMENT_3D ( 'NONE', #157, #205, #29 ) ;
#44 = CYLINDRICAL_SURFACE ( 'NONE', #251, 3.249999999999996891 ) ;
#45 = DIRECTION ( 'NONE',  ( -3.491481338843133355E-15, 1.224646799147353207E-16, -1.000000000000000000 ) ) ;
#46 = ADVANCED_FACE ( 'NONE', ( #334 ), #183, .F. ) ;
#47 = ORIENTED_EDGE ( 'NONE', *, *, #249, .F. ) ;
#48 = APPROVAL_STATUS ( 'not_yet_approved' ) ;
#49 = EDGE_LOOP ( 'NONE', ( #66, #280, #312, #307 ) ) ;
#50 = CC_DESIGN_APPROVAL ( #84, ( #119 ) ) ;
#51 = CYLINDRICAL_SURFACE ( 'NONE', #139, 3.249999999999996891 ) ;
#52 = CARTESIAN_POINT ( 'NONE',  ( 0.0000000000000000000, 0.0000000000000000000, 0.0000000000000000000 ) ) ;
#53 = CARTESIAN_POINT ( 'NONE',  ( 6.818154325386556610E-15, -2.391486609933867970E-16, 1.952797011839588315 ) ) ;
#54 = AXIS2_PLACEMENT_3D ( 'NONE', #89, #253, #171 ) ;
#55 = DIRECTION ( 'NONE',  ( -3.491481338843133355E-15, 1.224646799147353207E-16, -1.000000000000000000 ) ) ;
#56 = DIRECTION ( 'NONE',  ( -3.491481338843133355E-15, 1.224646799147353207E-16, -1.000000000000000000 ) ) ;
#57 = EDGE_CURVE ( 'NONE', #178, #124, #203, .T. ) ;
#58 = LINE ( 'NONE', #210, #126 ) ;
#59 = CONICAL_SURFACE ( 'NONE', #254, 3.249999999999993339, 1.029744258676649649 ) ;
#60 = DIRECTION ( 'NONE',  ( -4.275831445896958607E-31, -1.000000000000000000, -1.224646799147353207E-16 ) ) ;
#61 = PERSON_AND_ORGANIZATION_ROLE ( 'creator' ) ;
#62 = CC_DESIGN_PERSON_AND_ORGANIZATION_ASSIGNMENT ( #285, #201, ( #119 ) ) ;
#63 = APPROVAL_ROLE ( '' ) ;
#64 = CARTESIAN_POINT ( 'NONE',  ( 2.199633243471174140E-13, 2.437109646825507665E-32, 63.00000000000000000 ) ) ;
#65 = VECTOR ( 'NONE', #199, 1000.000000000000000 ) ;
#66 = ORIENTED_EDGE ( 'NONE', *, *, #309, .T. ) ;
#67 = DIRECTION ( 'NONE',  ( 0.0000000000000000000, 1.000000000000000000, 0.0000000000000000000 ) ) ;
#68 = ADVANCED_FACE ( 'NONE', ( #337 ), #319, .T. ) ;
#69 = DIRECTION ( 'NONE',  ( 4.275831445896958607E-31, 1.000000000000000000, 1.224646799147353207E-16 ) ) ;
#70 = CARTESIAN_POINT ( 'NONE',  ( 0.0000000000000000000, 0.0000000000000000000, 0.0000000000000000000 ) ) ;
#71 = EDGE_LOOP ( 'NONE', ( #122, #181, #116, #99 ) ) ;
#72 = ADVANCED_FACE ( 'NONE', ( #25 ), #44, .T. ) ;
#73 = ADVANCED_BREP_SHAPE_REPRESENTATION ( '54290', ( #91, #322, #172 ), #76 ) ;
#74 = FACE_OUTER_BOUND ( 'NONE', #49, .T. ) ;
#75 = DIRECTION ( 'NONE',  ( -3.491481338843133355E-15, 1.224646799147353207E-16, -1.000000000000000000 ) ) ;
#76 =( GEOMETRIC_REPRESENTATION_CONTEXT ( 3 ) GLOBAL_UNCERTAINTY_ASSIGNED_CONTEXT ( ( #270 ) ) GLOBAL_UNIT_ASSIGNED_CONTEXT ( ( #174, #149, #274 ) ) REPRESENTATION_CONTEXT ( 'NONE', 'WORKASPACE' ) );
#77 = EDGE_CURVE ( 'NONE', #145, #86, #286, .T. ) ;
#78 = CARTESIAN_POINT ( 'NONE',  ( 3.501955782859662818E-13, -1.228320739544795303E-14, 100.2999999999999972 ) ) ;
#79 = DIRECTION ( 'NONE',  ( 1.903218546456022717E-15, 0.8571673007021097801, 0.5150380749100585964 ) ) ;
#80 = DIRECTION ( 'NONE',  ( 1.798245827342160317E-15, -0.8571673007021098911, 0.5150380749100582634 ) ) ;
#81 = COORDINATED_UNIVERSAL_TIME_OFFSET ( 1, 0, .AHEAD. ) ;
#82 = ORIENTED_EDGE ( 'NONE', *, *, #57, .T. ) ;
#83 = EDGE_CURVE ( 'NONE', #223, #22, #39, .T. ) ;
#84 = APPROVAL ( #196, 'UNSPECIFIED' ) ;
#85 = PERSON_AND_ORGANIZATION ( #190, #26 ) ;
#86 = VERTEX_POINT ( 'NONE', #6 ) ;
#87 = AXIS2_PLACEMENT_3D ( 'NONE', #243, #317, #188 ) ;
#88 = CC_DESIGN_APPROVAL ( #239, ( #263 ) ) ;
#89 = CARTESIAN_POINT ( 'NONE',  ( 3.526396152231565067E-13, -1.236893267138826732E-14, 101.0000000000000000 ) ) ;
#90 = CALENDAR_DATE ( 2021, 2, 9 ) ;
#91 = MANIFOLD_SOLID_BREP ( 'Corps-Déplacer/Copier1[1]', #287 ) ;
#92 = VERTEX_POINT ( 'NONE', #33 ) ;
#93 = CARTESIAN_POINT ( 'NONE',  ( 2.199633243471174140E-13, -7.715274834628325378E-15, 63.00000000000000000 ) ) ;
#94 = CLOSED_SHELL ( 'NONE', ( #72, #143, #206, #7, #324 ) ) ;
#95 = CONICAL_SURFACE ( 'NONE', #155, 3.249999999999993339, 1.029744258676649649 ) ;
#96 = ORIENTED_EDGE ( 'NONE', *, *, #140, .T. ) ;
#97 = EDGE_CURVE ( 'NONE', #92, #255, #32, .T. ) ;
#98 = ORIENTED_EDGE ( 'NONE', *, *, #97, .T. ) ;
#99 = ORIENTED_EDGE ( 'NONE', *, *, #27, .F. ) ;
#100 = CARTESIAN_POINT ( 'NONE',  ( 3.526396152231565067E-13, -1.236893267138826732E-14, 101.0000000000000000 ) ) ;
#101 = AXIS2_PLACEMENT_3D ( 'NONE', #211, #1, #8 ) ;
#102 = DIRECTION ( 'NONE',  ( 0.0000000000000000000, 1.000000000000000000, 0.0000000000000000000 ) ) ;
#103 = LINE ( 'NONE', #266, #192 ) ;
#104 = DIRECTION ( 'NONE',  ( -3.491481338843133355E-15, 1.224646799147353207E-16, -1.000000000000000000 ) ) ;
#105 = LOCAL_TIME ( 15, 38, 13.00000000000000000, #333 ) ;
#106 = DIRECTION ( 'NONE',  ( 4.275831445896958607E-31, 1.000000000000000000, 1.224646799147353454E-16 ) ) ;
#107 = DIRECTION ( 'NONE',  ( -4.740750632337820762E-31, -1.000000000000000000, -1.334402673828315804E-16 ) ) ;
#108 = APPLICATION_PROTOCOL_DEFINITION ( 'international standard', 'config_control_design', 1994, #24 ) ;
#109 = ORIENTED_EDGE ( 'NONE', *, *, #300, .T. ) ;
#110 = AXIS2_PLACEMENT_3D ( 'NONE', #193, #113, #115 ) ;
#111 = CALENDAR_DATE ( 2021, 2, 9 ) ;
#112 = ORIENTED_EDGE ( 'NONE', *, *, #137, .F. ) ;
#113 = DIRECTION ( 'NONE',  ( -3.491481338843133355E-15, 1.224646799147353207E-16, -1.000000000000000000 ) ) ;
#114 = ADVANCED_FACE ( 'NONE', ( #291 ), #217, .T. ) ;
#115 = DIRECTION ( 'NONE',  ( 4.740750632337820762E-31, 1.000000000000000000, 1.334402673828315804E-16 ) ) ;
#116 = ORIENTED_EDGE ( 'NONE', *, *, #140, .F. ) ;
#117 = CC_DESIGN_PERSON_AND_ORGANIZATION_ASSIGNMENT ( #257, #235, ( #141 ) ) ;
#118 = CIRCLE ( 'NONE', #302, 3.249999999999993339 ) ;
#119 = PRODUCT_DEFINITION_FORMATION_WITH_SPECIFIED_SOURCE ( 'ANY', '', #121, .NOT_KNOWN. ) ;
#120 = ORIENTED_EDGE ( 'NONE', *, *, #275, .F. ) ;
#121 = PRODUCT ( '54290', '54290', '', ( #144 ) ) ;
#122 = ORIENTED_EDGE ( 'NONE', *, *, #83, .T. ) ;
#123 = APPROVAL_DATE_TIME ( #21, #84 ) ;
#124 = VERTEX_POINT ( 'NONE', #35 ) ;
#125 = SHAPE_DEFINITION_REPRESENTATION ( #19, #73 ) ;
#126 = VECTOR ( 'NONE', #79, 999.9999999999998863 ) ;
#127 = ORIENTED_EDGE ( 'NONE', *, *, #166, .F. ) ;
#128 = APPROVAL_ROLE ( '' ) ;
#129 = ORIENTED_EDGE ( 'NONE', *, *, #267, .T. ) ;
#130 = EDGE_CURVE ( 'NONE', #22, #86, #159, .T. ) ;
#131 = PERSON_AND_ORGANIZATION ( #190, #26 ) ;
#132 = FACE_OUTER_BOUND ( 'NONE', #197, .T. ) ;
#133 = CARTESIAN_POINT ( 'NONE',  ( 2.199633243471174140E-13, 3.249999999999992895, 63.00000000000000000 ) ) ;
#134 = AXIS2_PLACEMENT_3D ( 'NONE', #295, #56, #162 ) ;
#135 = DIRECTION ( 'NONE',  ( -3.491481338843133355E-15, 1.224646799147353207E-16, -1.000000000000000000 ) ) ;
#136 = CARTESIAN_POINT ( 'NONE',  ( 0.0000000000000000000, 0.0000000000000000000, 0.0000000000000000000 ) ) ;
#137 = EDGE_CURVE ( 'NONE', #220, #173, #103, .T. ) ;
#138 = DIRECTION ( 'NONE',  ( -4.740750632337820762E-31, -1.000000000000000000, -1.334402673828315804E-16 ) ) ;
#139 = AXIS2_PLACEMENT_3D ( 'NONE', #207, #154, #283 ) ;
#140 = EDGE_CURVE ( 'NONE', #209, #86, #118, .T. ) ;
#141 = SECURITY_CLASSIFICATION ( '', '', #230 ) ;
#142 = PLANE ( 'NONE',  #297 ) ;
#143 = ADVANCED_FACE ( 'NONE', ( #318 ), #59, .T. ) ;
#144 = MECHANICAL_CONTEXT ( 'NONE', #170, 'mechanical' ) ;
#145 = VERTEX_POINT ( 'NONE', #52 ) ;
#146 = DATE_AND_TIME ( #40, #198 ) ;
#147 = EDGE_CURVE ( 'NONE', #145, #209, #58, .T. ) ;
#148 = DIRECTION ( 'NONE',  ( -3.491481338843133355E-15, 1.224646799147353207E-16, -1.000000000000000000 ) ) ;
#149 =( NAMED_UNIT ( * ) PLANE_ANGLE_UNIT ( ) SI_UNIT ( $, .RADIAN. ) );
#150 = ORIENTED_EDGE ( 'NONE', *, *, #267, .F. ) ;
#151 = EDGE_LOOP ( 'NONE', ( #82, #306 ) ) ;
#152 = CARTESIAN_POINT ( 'NONE',  ( 1.389645219916510102E-30, 3.249999999999996891, 3.980102097228893794E-16 ) ) ;
#153 = DATE_AND_TIME ( #90, #105 ) ;
#154 = DIRECTION ( 'NONE',  ( -3.491481338843133355E-15, 1.224646799147353207E-16, -1.000000000000000000 ) ) ;
#155 = AXIS2_PLACEMENT_3D ( 'NONE', #53, #265, #107 ) ;
#156 = EDGE_LOOP ( 'NONE', ( #256, #335, #96 ) ) ;
#157 = CARTESIAN_POINT ( 'NONE',  ( 2.199633243471174140E-13, 2.437109646825507665E-32, 63.00000000000000000 ) ) ;
#158 = DIRECTION ( 'NONE',  ( -3.491481338843133355E-15, 1.224646799147353207E-16, -1.000000000000000000 ) ) ;
#159 = LINE ( 'NONE', #3, #232 ) ;
#160 = CIRCLE ( 'NONE', #242, 3.250000000000004885 ) ;
#161 = CARTESIAN_POINT ( 'NONE',  ( 2.199633243471174140E-13, 3.249999999999992895, 63.00000000000000000 ) ) ;
#162 = DIRECTION ( 'NONE',  ( 0.0000000000000000000, 1.000000000000000000, 0.0000000000000000000 ) ) ;
#163 = DIRECTION ( 'NONE',  ( 0.0000000000000000000, 1.000000000000000000, 0.0000000000000000000 ) ) ;
#164 = CONICAL_SURFACE ( 'NONE', #101, 2.550000000000005596, 0.7853981633974437271 ) ;
#165 = APPROVAL_PERSON_ORGANIZATION ( #18, #269, #128 ) ;
#166 = EDGE_CURVE ( 'NONE', #173, #255, #160, .T. ) ;
#167 = DESIGN_CONTEXT ( 'detailed design', #24, 'design' ) ;
#168 = DIRECTION ( 'NONE',  ( 1.000000000000000000, 0.0000000000000000000, 0.0000000000000000000 ) ) ;
#169 = CARTESIAN_POINT ( 'NONE',  ( 1.389645219916512729E-30, 3.250000000000002665, 3.980102097228901683E-16 ) ) ;
#170 = APPLICATION_CONTEXT ( 'configuration controlled 3d designs of mechanical parts and assemblies' ) ;
#171 = DIRECTION ( 'NONE',  ( 0.0000000000000000000, 1.000000000000000000, 0.0000000000000000000 ) ) ;
#172 = AXIS2_PLACEMENT_3D ( 'NONE', #329, #191, #168 ) ;
#173 = VERTEX_POINT ( 'NONE', #216 ) ;
#174 =( LENGTH_UNIT ( ) NAMED_UNIT ( * ) SI_UNIT ( .MILLI., .METRE. ) );
#175 = AXIS2_PLACEMENT_3D ( 'NONE', #100, #330, #67 ) ;
#176 = APPROVAL_DATE_TIME ( #153, #269 ) ;
#177 = EDGE_LOOP ( 'NONE', ( #328, #321 ) ) ;
#178 = VERTEX_POINT ( 'NONE', #133 ) ;
#179 = COORDINATED_UNIVERSAL_TIME_OFFSET ( 1, 0, .AHEAD. ) ;
#180 = EDGE_CURVE ( 'NONE', #173, #124, #2, .T. ) ;
#181 = ORIENTED_EDGE ( 'NONE', *, *, #130, .T. ) ;
#182 = APPROVAL_PERSON_ORGANIZATION ( #85, #84, #63 ) ;
#183 = PLANE ( 'NONE',  #43 ) ;
#184 = DIRECTION ( 'NONE',  ( -3.491481338843133355E-15, 1.224646799147353207E-16, -1.000000000000000000 ) ) ;
#185 = DIRECTION ( 'NONE',  ( 4.740750632337820762E-31, 1.000000000000000000, 1.334402673828315804E-16 ) ) ;
#186 = ADVANCED_FACE ( 'NONE', ( #74 ), #164, .T. ) ;
#187 = CARTESIAN_POINT ( 'NONE',  ( 7.216164535109446631E-15, 3.249999999999992895, 1.952797011839588759 ) ) ;
#188 = DIRECTION ( 'NONE',  ( 0.0000000000000000000, 1.000000000000000000, 0.0000000000000000000 ) ) ;
#189 = FACE_OUTER_BOUND ( 'NONE', #289, .T. ) ;
#190 = PERSON ( 'UNSPECIFIED', 'UNSPECIFIED', 'UNSPECIFIED', ('UNSPECIFIED'), ('UNSPECIFIED'), ('UNSPECIFIED') ) ;
#191 = DIRECTION ( 'NONE',  ( 0.0000000000000000000, 0.0000000000000000000, 1.000000000000000000 ) ) ;
#192 = VECTOR ( 'NONE', #238, 1000.000000000000000 ) ;
#193 = CARTESIAN_POINT ( 'NONE',  ( 6.818154325386556610E-15, -2.391486609933867970E-16, 1.952797011839588315 ) ) ;
#194 = EDGE_LOOP ( 'NONE', ( #313, #229, #28, #47 ) ) ;
#195 = APPROVAL_DATE_TIME ( #222, #239 ) ;
#196 = APPROVAL_STATUS ( 'not_yet_approved' ) ;
#197 = EDGE_LOOP ( 'NONE', ( #332, #109, #284, #250 ) ) ;
#198 = LOCAL_TIME ( 15, 38, 13.00000000000000000, #276 ) ;
#199 = DIRECTION ( 'NONE',  ( -3.491481338843133355E-15, 1.224646799147353207E-16, -1.000000000000000000 ) ) ;
#200 = ADVANCED_FACE ( 'NONE', ( #316 ), #142, .F. ) ;
#201 = PERSON_AND_ORGANIZATION_ROLE ( 'creator' ) ;
#202 = CYLINDRICAL_SURFACE ( 'NONE', #281, 3.250000000000002665 ) ;
#203 = CIRCLE ( 'NONE', #277, 3.250000000000000888 ) ;
#204 = CIRCLE ( 'NONE', #308, 3.250000000000000888 ) ;
#205 = DIRECTION ( 'NONE',  ( 3.491481338843133355E-15, -1.224646799147353207E-16, 1.000000000000000000 ) ) ;
#206 = ADVANCED_FACE ( 'NONE', ( #189 ), #95, .T. ) ;
#207 = CARTESIAN_POINT ( 'NONE',  ( 0.0000000000000000000, 0.0000000000000000000, 0.0000000000000000000 ) ) ;
#208 = ORIENTED_EDGE ( 'NONE', *, *, #290, .T. ) ;
#209 = VERTEX_POINT ( 'NONE', #187 ) ;
#210 = CARTESIAN_POINT ( 'NONE',  ( 7.216164535109446631E-15, 3.249999999999992895, 1.952797011839588759 ) ) ;
#211 = CARTESIAN_POINT ( 'NONE',  ( 3.526396152231565067E-13, -1.236893267138826732E-14, 101.0000000000000000 ) ) ;
#212 = CC_DESIGN_DATE_AND_TIME_ASSIGNMENT ( #146, #252, ( #263 ) ) ;
#213 = VECTOR ( 'NONE', #45, 1000.000000000000000 ) ;
#214 = CARTESIAN_POINT ( 'NONE',  ( 3.980102097228887878E-16, -3.250000000000002665, -3.980102097228914995E-16 ) ) ;
#215 = CIRCLE ( 'NONE', #134, 3.250000000000004885 ) ;
#216 = CARTESIAN_POINT ( 'NONE',  ( 2.854774615262646425E-13, -3.250000000000017319, 100.2999999999999972 ) ) ;
#217 = CYLINDRICAL_SURFACE ( 'NONE', #271, 3.250000000000002665 ) ;
#218 = APPROVAL_STATUS ( 'not_yet_approved' ) ;
#219 = VECTOR ( 'NONE', #80, 1000.000000000000000 ) ;
#220 = VERTEX_POINT ( 'NONE', #37 ) ;
#221 = AXIS2_PLACEMENT_3D ( 'NONE', #303, #148, #225 ) ;
#222 = DATE_AND_TIME ( #111, #5 ) ;
#223 = VERTEX_POINT ( 'NONE', #161 ) ;
#224 = ORIENTED_EDGE ( 'NONE', *, *, #57, .F. ) ;
#225 = DIRECTION ( 'NONE',  ( 0.0000000000000000000, 1.000000000000000000, 0.0000000000000000000 ) ) ;
#226 = EDGE_LOOP ( 'NONE', ( #112, #129, #98, #127 ) ) ;
#227 = CC_DESIGN_APPROVAL ( #269, ( #141 ) ) ;
#228 = DATE_AND_TIME ( #331, #273 ) ;
#229 = ORIENTED_EDGE ( 'NONE', *, *, #166, .T. ) ;
#230 = SECURITY_CLASSIFICATION_LEVEL ( 'unclassified' ) ;
#231 = ORIENTED_EDGE ( 'NONE', *, *, #241, .T. ) ;
#232 = VECTOR ( 'NONE', #104, 1000.000000000000000 ) ;
#233 = CARTESIAN_POINT ( 'NONE',  ( 0.0000000000000000000, 0.0000000000000000000, 0.0000000000000000000 ) ) ;
#234 = DIRECTION ( 'NONE',  ( -3.491481338843133355E-15, 1.224646799147353207E-16, -1.000000000000000000 ) ) ;
#235 = PERSON_AND_ORGANIZATION_ROLE ( 'classification_officer' ) ;
#236 = EDGE_LOOP ( 'NONE', ( #12, #150 ) ) ;
#237 = CARTESIAN_POINT ( 'NONE',  ( 6.818154325386555033E-15, -3.249999999999993783, 1.952797011839587871 ) ) ;
#238 = DIRECTION ( 'NONE',  ( -2.382254525458728119E-15, -0.7071067811865441310, -0.7071067811865507924 ) ) ;
#239 = APPROVAL ( #218, 'UNSPECIFIED' ) ;
#240 = CARTESIAN_POINT ( 'NONE',  ( 6.818154325386556610E-15, -2.391486609933867970E-16, 1.952797011839588315 ) ) ;
#241 = EDGE_CURVE ( 'NONE', #255, #173, #215, .T. ) ;
#242 = AXIS2_PLACEMENT_3D ( 'NONE', #78, #262, #102 ) ;
#243 = CARTESIAN_POINT ( 'NONE',  ( 2.199633243471174140E-13, -7.715274834628325378E-15, 63.00000000000000000 ) ) ;
#244 = APPROVAL_PERSON_ORGANIZATION ( #248, #239, #11 ) ;
#245 = CC_DESIGN_DATE_AND_TIME_ASSIGNMENT ( #228, #305, ( #141 ) ) ;
#246 = DIRECTION ( 'NONE',  ( -2.468850131082276388E-15, 0.7071067811865443531, -0.7071067811865506814 ) ) ;
#247 = DIRECTION ( 'NONE',  ( -3.491481338843133355E-15, 1.224646799147353207E-16, -1.000000000000000000 ) ) ;
#248 = PERSON_AND_ORGANIZATION ( #190, #26 ) ;
#249 = EDGE_CURVE ( 'NONE', #124, #178, #320, .T. ) ;
#250 = ORIENTED_EDGE ( 'NONE', *, *, #290, .F. ) ;
#251 = AXIS2_PLACEMENT_3D ( 'NONE', #233, #311, #69 ) ;
#252 = DATE_TIME_ROLE ( 'creation_date' ) ;
#253 = DIRECTION ( 'NONE',  ( -3.491481338843133355E-15, 1.224646799147353207E-16, -1.000000000000000000 ) ) ;
#254 = AXIS2_PLACEMENT_3D ( 'NONE', #314, #294, #138 ) ;
#255 = VERTEX_POINT ( 'NONE', #272 ) ;
#256 = ORIENTED_EDGE ( 'NONE', *, *, #77, .F. ) ;
#257 = PERSON_AND_ORGANIZATION ( #190, #26 ) ;
#258 = FACE_OUTER_BOUND ( 'NONE', #194, .T. ) ;
#259 = CARTESIAN_POINT ( 'NONE',  ( 1.137887495459746509E-13, -3.250000000000008438, 63.00000000000000000 ) ) ;
#260 = PERSON_AND_ORGANIZATION_ROLE ( 'design_supplier' ) ;
#261 = DIRECTION ( 'NONE',  ( 4.275831445896958607E-31, 1.000000000000000000, 1.224646799147353454E-16 ) ) ;
#262 = DIRECTION ( 'NONE',  ( -3.491481338843133355E-15, 1.224646799147353207E-16, -1.000000000000000000 ) ) ;
#263 = PRODUCT_DEFINITION ( 'UNKNOWN', '', #119, #167 ) ;
#264 = CIRCLE ( 'NONE', #110, 3.249999999999993339 ) ;
#265 = DIRECTION ( 'NONE',  ( 3.491481338843133355E-15, -1.224646799147353207E-16, 1.000000000000000000 ) ) ;
#266 = CARTESIAN_POINT ( 'NONE',  ( 3.529519001569390549E-13, -2.550000000000018030, 101.0000000000000000 ) ) ;
#267 = EDGE_CURVE ( 'NONE', #220, #92, #4, .T. ) ;
#268 = DIRECTION ( 'NONE',  ( -3.491481338843133355E-15, 1.224646799147353207E-16, -1.000000000000000000 ) ) ;
#269 = APPROVAL ( #48, 'UNSPECIFIED' ) ;
#270 = UNCERTAINTY_MEASURE_WITH_UNIT (LENGTH_MEASURE( 1.000000000000000082E-05 ), #174, 'distance_accuracy_value', 'NONE');
#271 = AXIS2_PLACEMENT_3D ( 'NONE', #136, #135, #106 ) ;
#272 = CARTESIAN_POINT ( 'NONE',  ( 3.501955782859662818E-13, 3.249999999999992895, 100.2999999999999972 ) ) ;
#273 = LOCAL_TIME ( 15, 38, 13.00000000000000000, #179 ) ;
#274 =( NAMED_UNIT ( * ) SI_UNIT ( $, .STERADIAN. ) SOLID_ANGLE_UNIT ( ) );
#275 = EDGE_CURVE ( 'NONE', #255, #178, #14, .T. ) ;
#276 = COORDINATED_UNIVERSAL_TIME_OFFSET ( 1, 0, .AHEAD. ) ;
#277 = AXIS2_PLACEMENT_3D ( 'NONE', #93, #184, #20 ) ;
#278 = CIRCLE ( 'NONE', #54, 2.550000000000005596 ) ;
#279 = COORDINATED_UNIVERSAL_TIME_OFFSET ( 1, 0, .AHEAD. ) ;
#280 = ORIENTED_EDGE ( 'NONE', *, *, #137, .T. ) ;
#281 = AXIS2_PLACEMENT_3D ( 'NONE', #70, #234, #261 ) ;
#282 = VECTOR ( 'NONE', #55, 1000.000000000000000 ) ;
#283 = DIRECTION ( 'NONE',  ( 4.275831445896958607E-31, 1.000000000000000000, 1.224646799147353207E-16 ) ) ;
#284 = ORIENTED_EDGE ( 'NONE', *, *, #27, .T. ) ;
#285 = PERSON_AND_ORGANIZATION ( #190, #26 ) ;
#286 = LINE ( 'NONE', #237, #219 ) ;
#287 = CLOSED_SHELL ( 'NONE', ( #186, #114, #46, #17, #68, #200 ) ) ;
#288 = LOCAL_TIME ( 15, 38, 13.00000000000000000, #279 ) ;
#289 = EDGE_LOOP ( 'NONE', ( #15, #325, #208 ) ) ;
#290 = EDGE_CURVE ( 'NONE', #86, #209, #264, .T. ) ;
#291 = FACE_OUTER_BOUND ( 'NONE', #41, .T. ) ;
#292 = DIRECTION ( 'NONE',  ( 4.275831445896958607E-31, 1.000000000000000000, 1.224646799147353207E-16 ) ) ;
#293 = AXIS2_PLACEMENT_3D ( 'NONE', #64, #323, #60 ) ;
#294 = DIRECTION ( 'NONE',  ( 3.491481338843133355E-15, -1.224646799147353207E-16, 1.000000000000000000 ) ) ;
#295 = CARTESIAN_POINT ( 'NONE',  ( 3.501955782859662818E-13, -1.228320739544795303E-14, 100.2999999999999972 ) ) ;
#296 = CARTESIAN_POINT ( 'NONE',  ( 2.199633243471174140E-13, -7.715274834628325378E-15, 63.00000000000000000 ) ) ;
#297 = AXIS2_PLACEMENT_3D ( 'NONE', #315, #75, #292 ) ;
#298 = DIRECTION ( 'NONE',  ( 0.0000000000000000000, 1.000000000000000000, 0.0000000000000000000 ) ) ;
#299 = PERSON_AND_ORGANIZATION ( #190, #26 ) ;
#300 = EDGE_CURVE ( 'NONE', #22, #223, #204, .T. ) ;
#301 = PLANE ( 'NONE',  #293 ) ;
#302 = AXIS2_PLACEMENT_3D ( 'NONE', #240, #158, #185 ) ;
#303 = CARTESIAN_POINT ( 'NONE',  ( 3.526396152231565067E-13, -1.236893267138826732E-14, 101.0000000000000000 ) ) ;
#304 = PRODUCT_RELATED_PRODUCT_CATEGORY ( 'detail', '', ( #121 ) ) ;
#305 = DATE_TIME_ROLE ( 'classification_date' ) ;
#306 = ORIENTED_EDGE ( 'NONE', *, *, #249, .T. ) ;
#307 = ORIENTED_EDGE ( 'NONE', *, *, #97, .F. ) ;
#308 = AXIS2_PLACEMENT_3D ( 'NONE', #327, #247, #298 ) ;
#309 = EDGE_CURVE ( 'NONE', #92, #220, #278, .T. ) ;
#310 = LINE ( 'NONE', #152, #213 ) ;
#311 = DIRECTION ( 'NONE',  ( -3.491481338843133355E-15, 1.224646799147353207E-16, -1.000000000000000000 ) ) ;
#312 = ORIENTED_EDGE ( 'NONE', *, *, #241, .F. ) ;
#313 = ORIENTED_EDGE ( 'NONE', *, *, #180, .F. ) ;
#314 = CARTESIAN_POINT ( 'NONE',  ( 6.818154325386556610E-15, -2.391486609933867970E-16, 1.952797011839588315 ) ) ;
#315 = CARTESIAN_POINT ( 'NONE',  ( 3.526396152231565067E-13, 1.912193722893853397E-32, 101.0000000000000000 ) ) ;
#316 = FACE_OUTER_BOUND ( 'NONE', #236, .T. ) ;
#317 = DIRECTION ( 'NONE',  ( -3.491481338843133355E-15, 1.224646799147353207E-16, -1.000000000000000000 ) ) ;
#318 = FACE_OUTER_BOUND ( 'NONE', #156, .T. ) ;
#319 = CONICAL_SURFACE ( 'NONE', #175, 2.550000000000005596, 0.7853981633974437271 ) ;
#320 = CIRCLE ( 'NONE', #31, 3.250000000000000888 ) ;
#321 = ORIENTED_EDGE ( 'NONE', *, *, #300, .F. ) ;
#322 = MANIFOLD_SOLID_BREP ( 'Corps-Déplacer/Copier1[2]', #94 ) ;
#323 = DIRECTION ( 'NONE',  ( 3.491481338843133355E-15, -1.224646799147353207E-16, 1.000000000000000000 ) ) ;
#324 = ADVANCED_FACE ( 'NONE', ( #42 ), #301, .T. ) ;
#325 = ORIENTED_EDGE ( 'NONE', *, *, #77, .T. ) ;
#326 = CC_DESIGN_PERSON_AND_ORGANIZATION_ASSIGNMENT ( #9, #16, ( #121 ) ) ;
#327 = CARTESIAN_POINT ( 'NONE',  ( 2.199633243471174140E-13, -7.715274834628325378E-15, 63.00000000000000000 ) ) ;
#328 = ORIENTED_EDGE ( 'NONE', *, *, #83, .F. ) ;
#329 = CARTESIAN_POINT ( 'NONE',  ( 0.0000000000000000000, 0.0000000000000000000, 0.0000000000000000000 ) ) ;
#330 = DIRECTION ( 'NONE',  ( -3.491481338843133355E-15, 1.224646799147353207E-16, -1.000000000000000000 ) ) ;
#331 = CALENDAR_DATE ( 2021, 2, 9 ) ;
#332 = ORIENTED_EDGE ( 'NONE', *, *, #130, .F. ) ;
#333 = COORDINATED_UNIVERSAL_TIME_OFFSET ( 1, 0, .AHEAD. ) ;
#334 = FACE_OUTER_BOUND ( 'NONE', #151, .T. ) ;
#335 = ORIENTED_EDGE ( 'NONE', *, *, #147, .T. ) ;
#336 = CC_DESIGN_PERSON_AND_ORGANIZATION_ASSIGNMENT ( #299, #61, ( #263 ) ) ;
#337 = FACE_OUTER_BOUND ( 'NONE', #226, .T. ) ;
ENDSEC;
END-ISO-10303-21;
