ISO-10303-21;
HEADER;
FILE_DESCRIPTION (( 'STEP AP203' ),
    '1' );
FILE_NAME ('54284.step',
    '2021-09-02T13:38:12',
    ( '' ),
    ( '' ),
    'SwSTEP 2.0',
    'SolidWorks 2019',
    '' );
FILE_SCHEMA (( 'CONFIG_CONTROL_DESIGN' ));
ENDSEC;

DATA;
#1 = MECHANICAL_CONTEXT ( 'NONE', #54, 'mechanical' ) ;
#2 = DATE_TIME_ROLE ( 'creation_date' ) ;
#3 = DIRECTION ( 'NONE',  ( -4.275831445896959482E-31, -1.000000000000000000, -1.224646799147353454E-16 ) ) ;
#4 = AXIS2_PLACEMENT_3D ( 'NONE', #281, #335, #256 ) ;
#5 = CC_DESIGN_DATE_AND_TIME_ASSIGNMENT ( #238, #82, ( #183 ) ) ;
#6 = CARTESIAN_POINT ( 'NONE',  ( 1.637473512766813001E-13, -1.400000000000002354, 60.69999999999999574 ) ) ;
#7 = PERSON_AND_ORGANIZATION ( #228, #296 ) ;
#8 = CIRCLE ( 'NONE', #4, 1.399999999999995026 ) ;
#9 = DIRECTION ( 'NONE',  ( -5.502656983963580430E-31, -1.000000000000000000, -1.548860246407877388E-16 ) ) ;
#10 = PRODUCT_DEFINITION_FORMATION_WITH_SPECIFIED_SOURCE ( 'ANY', '', #27, .NOT_KNOWN. ) ;
#11 = DIRECTION ( 'NONE',  ( 3.491481338843133355E-15, -1.224646799147353454E-16, 1.000000000000000000 ) ) ;
#12 = CARTESIAN_POINT ( 'NONE',  ( 3.108501645893279291E-15, 1.399999999999987477, 0.8412048666385865126 ) ) ;
#13 = EDGE_LOOP ( 'NONE', ( #147, #247, #15, #252 ) ) ;
#14 = CARTESIAN_POINT ( 'NONE',  ( 2.937051094012650321E-15, -1.399999999999987477, 0.8412048666385860685 ) ) ;
#15 = ORIENTED_EDGE ( 'NONE', *, *, #244, .F. ) ;
#16 = EDGE_CURVE ( 'NONE', #65, #25, #130, .T. ) ;
#17 = CC_DESIGN_APPROVAL ( #151, ( #53 ) ) ;
#18 = DIRECTION ( 'NONE',  ( 0.0000000000000000000, 1.000000000000000000, 0.0000000000000000000 ) ) ;
#19 = CARTESIAN_POINT ( 'NONE',  ( 2.119329172677781757E-13, -7.433606070824434221E-15, 60.69999999999999574 ) ) ;
#20 = VECTOR ( 'NONE', #224, 1000.000000000000000 ) ;
#21 = CIRCLE ( 'NONE', #164, 1.099999999999995204 ) ;
#22 = EDGE_LOOP ( 'NONE', ( #310, #158, #101, #122 ) ) ;
#23 = EDGE_LOOP ( 'NONE', ( #246, #232, #227, #95 ) ) ;
#24 = ORIENTED_EDGE ( 'NONE', *, *, #255, .T. ) ;
#25 = VERTEX_POINT ( 'NONE', #98 ) ;
#26 = AXIS2_PLACEMENT_3D ( 'NONE', #305, #61, #170 ) ;
#27 = PRODUCT ( '54284', '54284', '', ( #1 ) ) ;
#28 = CARTESIAN_POINT ( 'NONE',  ( 0.0000000000000000000, 0.0000000000000000000, 0.0000000000000000000 ) ) ;
#29 = EDGE_LOOP ( 'NONE', ( #329, #262, #257, #90 ) ) ;
#30 = EDGE_CURVE ( 'NONE', #253, #50, #274, .T. ) ;
#31 = DIRECTION ( 'NONE',  ( -3.491481338843133355E-15, 1.224646799147353454E-16, -1.000000000000000000 ) ) ;
#32 = CC_DESIGN_APPROVAL ( #48, ( #183 ) ) ;
#33 = COORDINATED_UNIVERSAL_TIME_OFFSET ( 1, 0, .AHEAD. ) ;
#34 = EDGE_CURVE ( 'NONE', #93, #253, #21, .T. ) ;
#35 = SECURITY_CLASSIFICATION_LEVEL ( 'unclassified' ) ;
#36 = AXIS2_PLACEMENT_3D ( 'NONE', #168, #273, #39 ) ;
#37 = CARTESIAN_POINT ( 'NONE',  ( 2.129803616694311221E-13, 1.099999999999987876, 61.00000000000000000 ) ) ;
#38 = CARTESIAN_POINT ( 'NONE',  ( 2.131150728173373534E-13, -1.100000000000002753, 61.00000000000000000 ) ) ;
#39 = DIRECTION ( 'NONE',  ( 0.0000000000000000000, 1.000000000000000000, 0.0000000000000000000 ) ) ;
#40 = CARTESIAN_POINT ( 'NONE',  ( 1.714505518806280586E-16, -1.399999999999993250, -1.714505518806292419E-16 ) ) ;
#41 = ADVANCED_FACE ( 'NONE', ( #229 ), #176, .T. ) ;
#42 = DIRECTION ( 'NONE',  ( -3.491481338843133355E-15, 1.224646799147353454E-16, -1.000000000000000000 ) ) ;
#43 = DIRECTION ( 'NONE',  ( 0.0000000000000000000, 1.000000000000000000, 0.0000000000000000000 ) ) ;
#44 = LOCAL_TIME ( 15, 38, 12.00000000000000000, #97 ) ;
#45 = CYLINDRICAL_SURFACE ( 'NONE', #167, 1.399999999999989475 ) ;
#46 = EDGE_LOOP ( 'NONE', ( #117, #278 ) ) ;
#47 = CONICAL_SURFACE ( 'NONE', #85, 1.399999999999987477, 1.029744258676649649 ) ;
#48 = APPROVAL ( #214, 'UNSPECIFIED' ) ;
#49 = LINE ( 'NONE', #40, #291 ) ;
#50 = VERTEX_POINT ( 'NONE', #333 ) ;
#51 = PERSON_AND_ORGANIZATION ( #228, #296 ) ;
#52 = ORIENTED_EDGE ( 'NONE', *, *, #115, .T. ) ;
#53 = PRODUCT_DEFINITION ( 'UNKNOWN', '', #10, #237 ) ;
#54 = APPLICATION_CONTEXT ( 'configuration controlled 3d designs of mechanical parts and assemblies' ) ;
#55 = LOCAL_TIME ( 15, 38, 12.00000000000000000, #185 ) ;
#56 = CC_DESIGN_PERSON_AND_ORGANIZATION_ASSIGNMENT ( #112, #140, ( #183 ) ) ;
#57 = CARTESIAN_POINT ( 'NONE',  ( 0.0000000000000000000, 0.0000000000000000000, 0.0000000000000000000 ) ) ;
#58 = CONICAL_SURFACE ( 'NONE', #230, 1.099999999999995204, 0.7853981633974450594 ) ;
#59 = DIRECTION ( 'NONE',  ( 0.0000000000000000000, 1.000000000000000000, 0.0000000000000000000 ) ) ;
#60 = CARTESIAN_POINT ( 'NONE',  ( 2.129803616694311221E-13, 1.099999999999987876, 61.00000000000000000 ) ) ;
#61 = DIRECTION ( 'NONE',  ( -3.491481338843133355E-15, 1.224646799147353454E-16, -1.000000000000000000 ) ) ;
#62 = DIRECTION ( 'NONE',  ( -3.491481338843133355E-15, 1.224646799147353454E-16, -1.000000000000000000 ) ) ;
#63 = CARTESIAN_POINT ( 'NONE',  ( 2.937051094012650321E-15, -1.399999999999987477, 0.8412048666385860685 ) ) ;
#64 = CARTESIAN_POINT ( 'NONE',  ( 2.937051094012650715E-15, -1.030178847356121034E-16, 0.8412048666385862905 ) ) ;
#65 = VERTEX_POINT ( 'NONE', #89 ) ;
#66 = VECTOR ( 'NONE', #275, 1000.000000000000000 ) ;
#67 = LINE ( 'NONE', #38, #99 ) ;
#68 = CC_DESIGN_PERSON_AND_ORGANIZATION_ASSIGNMENT ( #160, #206, ( #27 ) ) ;
#69 = LINE ( 'NONE', #243, #20 ) ;
#70 = ORIENTED_EDGE ( 'NONE', *, *, #16, .F. ) ;
#71 = CALENDAR_DATE ( 2021, 2, 9 ) ;
#72 =( NAMED_UNIT ( * ) PLANE_ANGLE_UNIT ( ) SI_UNIT ( $, .RADIAN. ) );
#73 = EDGE_CURVE ( 'NONE', #93, #146, #67, .T. ) ;
#74 = DIRECTION ( 'NONE',  ( 4.275831445896959482E-31, 1.000000000000000000, 1.224646799147353454E-16 ) ) ;
#75 = CLOSED_SHELL ( 'NONE', ( #41, #199, #172, #192, #268, #156 ) ) ;
#76 = APPROVAL_STATUS ( 'not_yet_approved' ) ;
#77 = CARTESIAN_POINT ( 'NONE',  ( 2.937051094012650715E-15, -1.030178847356121034E-16, 0.8412048666385862905 ) ) ;
#78 = SHAPE_DEFINITION_REPRESENTATION ( #261, #219 ) ;
#79 = AXIS2_PLACEMENT_3D ( 'NONE', #28, #260, #264 ) ;
#80 = VECTOR ( 'NONE', #118, 999.9999999999998863 ) ;
#81 = DATE_AND_TIME ( #293, #55 ) ;
#82 = DATE_TIME_ROLE ( 'classification_date' ) ;
#83 = CC_DESIGN_PERSON_AND_ORGANIZATION_ASSIGNMENT ( #322, #134, ( #53 ) ) ;
#84 = VECTOR ( 'NONE', #307, 1000.000000000000000 ) ;
#85 = AXIS2_PLACEMENT_3D ( 'NONE', #77, #11, #9 ) ;
#86 = DIRECTION ( 'NONE',  ( 4.275831445896959482E-31, 1.000000000000000000, 1.224646799147353454E-16 ) ) ;
#87 = EDGE_CURVE ( 'NONE', #205, #279, #69, .T. ) ;
#88 = CARTESIAN_POINT ( 'NONE',  ( 1.152188841818234133E-13, -4.041334437186266989E-15, 33.00000000000000000 ) ) ;
#89 = CARTESIAN_POINT ( 'NONE',  ( 1.637473512766814010E-13, -1.399999999999995914, 33.00000000000000000 ) ) ;
#90 = ORIENTED_EDGE ( 'NONE', *, *, #139, .F. ) ;
#91 = ORIENTED_EDGE ( 'NONE', *, *, #16, .T. ) ;
#92 = LINE ( 'NONE', #195, #137 ) ;
#93 = VERTEX_POINT ( 'NONE', #308 ) ;
#94 = FACE_OUTER_BOUND ( 'NONE', #22, .T. ) ;
#95 = ORIENTED_EDGE ( 'NONE', *, *, #30, .F. ) ;
#96 = EDGE_CURVE ( 'NONE', #146, #65, #49, .T. ) ;
#97 = COORDINATED_UNIVERSAL_TIME_OFFSET ( 1, 0, .AHEAD. ) ;
#98 = CARTESIAN_POINT ( 'NONE',  ( 1.152188841818234133E-13, 1.399999999999987699, 33.00000000000000000 ) ) ;
#99 = VECTOR ( 'NONE', #196, 1000.000000000000114 ) ;
#100 = APPLICATION_PROTOCOL_DEFINITION ( 'international standard', 'config_control_design', 1994, #54 ) ;
#101 = ORIENTED_EDGE ( 'NONE', *, *, #30, .T. ) ;
#102 = ADVANCED_FACE ( 'NONE', ( #191 ), #226, .T. ) ;
#103 =( NAMED_UNIT ( * ) SI_UNIT ( $, .STERADIAN. ) SOLID_ANGLE_UNIT ( ) );
#104 = CIRCLE ( 'NONE', #209, 1.399999999999987477 ) ;
#105 = APPROVAL_ROLE ( '' ) ;
#106 = DIRECTION ( 'NONE',  ( 5.502656983963580430E-31, 1.000000000000000000, 1.548860246407877388E-16 ) ) ;
#107 = CC_DESIGN_PERSON_AND_ORGANIZATION_ASSIGNMENT ( #235, #324, ( #10 ) ) ;
#108 = COORDINATED_UNIVERSAL_TIME_OFFSET ( 1, 0, .AHEAD. ) ;
#109 = MANIFOLD_SOLID_BREP ( 'Corps-Déplacer/Copier1[2]', #222 ) ;
#110 = AXIS2_PLACEMENT_3D ( 'NONE', #248, #42, #143 ) ;
#111 = FACE_OUTER_BOUND ( 'NONE', #181, .T. ) ;
#112 = PERSON_AND_ORGANIZATION ( #228, #296 ) ;
#113 = LOCAL_TIME ( 15, 38, 12.00000000000000000, #33 ) ;
#114 = AXIS2_PLACEMENT_3D ( 'NONE', #270, #148, #116 ) ;
#115 = EDGE_CURVE ( 'NONE', #146, #50, #8, .T. ) ;
#116 = DIRECTION ( 'NONE',  ( -4.275831445896959482E-31, -1.000000000000000000, -1.224646799147353454E-16 ) ) ;
#117 = ORIENTED_EDGE ( 'NONE', *, *, #295, .F. ) ;
#118 = DIRECTION ( 'NONE',  ( 1.903218546456022717E-15, 0.8571673007021097801, 0.5150380749100585964 ) ) ;
#119 = EDGE_LOOP ( 'NONE', ( #126, #91 ) ) ;
#120 = CARTESIAN_POINT ( 'NONE',  ( 1.152188841818234133E-13, -4.041334437186266989E-15, 33.00000000000000000 ) ) ;
#121 = DIRECTION ( 'NONE',  ( 0.0000000000000000000, 1.000000000000000000, 0.0000000000000000000 ) ) ;
#122 = ORIENTED_EDGE ( 'NONE', *, *, #115, .F. ) ;
#123 = PLANE ( 'NONE',  #114 ) ;
#124 = CC_DESIGN_PERSON_AND_ORGANIZATION_ASSIGNMENT ( #7, #161, ( #10 ) ) ;
#125 = ORIENTED_EDGE ( 'NONE', *, *, #96, .T. ) ;
#126 = ORIENTED_EDGE ( 'NONE', *, *, #309, .T. ) ;
#127 = ORIENTED_EDGE ( 'NONE', *, *, #96, .F. ) ;
#128 = CIRCLE ( 'NONE', #110, 1.399999999999987477 ) ;
#129 = CIRCLE ( 'NONE', #303, 1.399999999999991696 ) ;
#130 = CIRCLE ( 'NONE', #319, 1.399999999999991696 ) ;
#131 = DIRECTION ( 'NONE',  ( 4.275831445896959482E-31, 1.000000000000000000, 1.224646799147353454E-16 ) ) ;
#132 = EDGE_LOOP ( 'NONE', ( #221, #194 ) ) ;
#133 = DATE_AND_TIME ( #71, #318 ) ;
#134 = PERSON_AND_ORGANIZATION_ROLE ( 'creator' ) ;
#135 = EDGE_CURVE ( 'NONE', #50, #146, #251, .T. ) ;
#136 = PERSON_AND_ORGANIZATION ( #228, #296 ) ;
#137 = VECTOR ( 'NONE', #173, 1000.000000000000000 ) ;
#138 = AXIS2_PLACEMENT_3D ( 'NONE', #57, #145, #86 ) ;
#139 = EDGE_CURVE ( 'NONE', #279, #250, #104, .T. ) ;
#140 = PERSON_AND_ORGANIZATION_ROLE ( 'classification_officer' ) ;
#141 = APPROVAL_ROLE ( '' ) ;
#142 = AXIS2_PLACEMENT_3D ( 'NONE', #315, #302, #178 ) ;
#143 = DIRECTION ( 'NONE',  ( 5.502656983963580430E-31, 1.000000000000000000, 1.548860246407877388E-16 ) ) ;
#144 = ORIENTED_EDGE ( 'NONE', *, *, #255, .F. ) ;
#145 = DIRECTION ( 'NONE',  ( -3.491481338843133355E-15, 1.224646799147353454E-16, -1.000000000000000000 ) ) ;
#146 = VERTEX_POINT ( 'NONE', #6 ) ;
#147 = ORIENTED_EDGE ( 'NONE', *, *, #298, .T. ) ;
#148 = DIRECTION ( 'NONE',  ( 3.491481338843133355E-15, -1.224646799147353454E-16, 1.000000000000000000 ) ) ;
#149 = DIRECTION ( 'NONE',  ( -3.491481338843133355E-15, 1.224646799147353454E-16, -1.000000000000000000 ) ) ;
#150 = ORIENTED_EDGE ( 'NONE', *, *, #316, .F. ) ;
#151 = APPROVAL ( #76, 'UNSPECIFIED' ) ;
#152 = DIRECTION ( 'NONE',  ( 4.275831445896959482E-31, 1.000000000000000000, 1.224646799147353454E-16 ) ) ;
#153 = EDGE_LOOP ( 'NONE', ( #258, #125, #231, #150 ) ) ;
#154 = EDGE_LOOP ( 'NONE', ( #157, #24, #331 ) ) ;
#155 = DIRECTION ( 'NONE',  ( -3.491481338843133355E-15, 1.224646799147353454E-16, -1.000000000000000000 ) ) ;
#156 = ADVANCED_FACE ( 'NONE', ( #283 ), #211, .F. ) ;
#157 = ORIENTED_EDGE ( 'NONE', *, *, #212, .F. ) ;
#158 = ORIENTED_EDGE ( 'NONE', *, *, #34, .T. ) ;
#159 = DIRECTION ( 'NONE',  ( -3.491481338843133355E-15, 1.224646799147353454E-16, -1.000000000000000000 ) ) ;
#160 = PERSON_AND_ORGANIZATION ( #228, #296 ) ;
#161 = PERSON_AND_ORGANIZATION_ROLE ( 'creator' ) ;
#162 = UNCERTAINTY_MEASURE_WITH_UNIT (LENGTH_MEASURE( 1.000000000000000082E-05 ), #285, 'distance_accuracy_value', 'NONE');
#163 = CC_DESIGN_SECURITY_CLASSIFICATION ( #183, ( #10 ) ) ;
#164 = AXIS2_PLACEMENT_3D ( 'NONE', #249, #62, #198 ) ;
#165 = VECTOR ( 'NONE', #169, 1000.000000000000000 ) ;
#166 = CARTESIAN_POINT ( 'NONE',  ( 5.924941818979848607E-14, -1.399999999999995914, 33.00000000000000000 ) ) ;
#167 = AXIS2_PLACEMENT_3D ( 'NONE', #311, #31, #131 ) ;
#168 = CARTESIAN_POINT ( 'NONE',  ( 1.152188841818234133E-13, -4.041334437186266989E-15, 33.00000000000000000 ) ) ;
#169 = DIRECTION ( 'NONE',  ( -2.468850131082272838E-15, 0.7071067811865453523, -0.7071067811865496822 ) ) ;
#170 = DIRECTION ( 'NONE',  ( 0.0000000000000000000, 1.000000000000000000, 0.0000000000000000000 ) ) ;
#171 = CARTESIAN_POINT ( 'NONE',  ( 2.129803616694311221E-13, -7.470345474798856659E-15, 61.00000000000000000 ) ) ;
#172 = ADVANCED_FACE ( 'NONE', ( #287 ), #286, .F. ) ;
#173 = DIRECTION ( 'NONE',  ( -3.491481338843133355E-15, 1.224646799147353454E-16, -1.000000000000000000 ) ) ;
#174 = DIRECTION ( 'NONE',  ( -3.491481338843133355E-15, 1.224646799147353454E-16, -1.000000000000000000 ) ) ;
#175 = APPROVAL_PERSON_ORGANIZATION ( #320, #215, #184 ) ;
#176 = CONICAL_SURFACE ( 'NONE', #241, 1.099999999999995204, 0.7853981633974450594 ) ;
#177 = FACE_OUTER_BOUND ( 'NONE', #153, .T. ) ;
#178 = DIRECTION ( 'NONE',  ( 4.275831445896959482E-31, 1.000000000000000000, 1.224646799147353454E-16 ) ) ;
#179 = ADVANCED_FACE ( 'NONE', ( #323 ), #47, .T. ) ;
#180 = DIRECTION ( 'NONE',  ( -3.491481338843133355E-15, 1.224646799147353454E-16, -1.000000000000000000 ) ) ;
#181 = EDGE_LOOP ( 'NONE', ( #127, #52, #312, #70 ) ) ;
#182 = COORDINATED_UNIVERSAL_TIME_OFFSET ( 1, 0, .AHEAD. ) ;
#183 = SECURITY_CLASSIFICATION ( '', '', #35 ) ;
#184 = APPROVAL_ROLE ( '' ) ;
#185 = COORDINATED_UNIVERSAL_TIME_OFFSET ( 1, 0, .AHEAD. ) ;
#186 = CC_DESIGN_APPROVAL ( #215, ( #10 ) ) ;
#187 = AXIS2_PLACEMENT_3D ( 'NONE', #19, #155, #121 ) ;
#188 = ADVANCED_FACE ( 'NONE', ( #218 ), #207, .T. ) ;
#189 = CARTESIAN_POINT ( 'NONE',  ( 0.0000000000000000000, 0.0000000000000000000, 0.0000000000000000000 ) ) ;
#190 = DIRECTION ( 'NONE',  ( -3.491481338843133355E-15, 1.224646799147353454E-16, -1.000000000000000000 ) ) ;
#191 = FACE_OUTER_BOUND ( 'NONE', #29, .T. ) ;
#192 = ADVANCED_FACE ( 'NONE', ( #111 ), #254, .T. ) ;
#193 = ORIENTED_EDGE ( 'NONE', *, *, #139, .T. ) ;
#194 = ORIENTED_EDGE ( 'NONE', *, *, #263, .F. ) ;
#195 = CARTESIAN_POINT ( 'NONE',  ( 5.986164024255714724E-31, 1.399999999999993250, 1.714505518806286503E-16 ) ) ;
#196 = DIRECTION ( 'NONE',  ( -2.382254525458724175E-15, -0.7071067811865451302, -0.7071067811865499042 ) ) ;
#197 = DIRECTION ( 'NONE',  ( -3.491481338843133355E-15, 1.224646799147353454E-16, -1.000000000000000000 ) ) ;
#198 = DIRECTION ( 'NONE',  ( 0.0000000000000000000, 1.000000000000000000, 0.0000000000000000000 ) ) ;
#199 = ADVANCED_FACE ( 'NONE', ( #177 ), #245, .T. ) ;
#200 = CALENDAR_DATE ( 2021, 2, 9 ) ;
#201 = DIRECTION ( 'NONE',  ( 0.0000000000000000000, 1.000000000000000000, 0.0000000000000000000 ) ) ;
#202 = EDGE_LOOP ( 'NONE', ( #144, #336, #193 ) ) ;
#203 = APPLICATION_PROTOCOL_DEFINITION ( 'international standard', 'config_control_design', 1994, #304 ) ;
#204 = CARTESIAN_POINT ( 'NONE',  ( 2.129803616694311221E-13, 8.248678804640074524E-33, 61.00000000000000000 ) ) ;
#205 = VERTEX_POINT ( 'NONE', #166 ) ;
#206 = PERSON_AND_ORGANIZATION_ROLE ( 'design_owner' ) ;
#207 = CONICAL_SURFACE ( 'NONE', #271, 1.399999999999987477, 1.029744258676649649 ) ;
#208 = EDGE_CURVE ( 'NONE', #337, #250, #334, .T. ) ;
#209 = AXIS2_PLACEMENT_3D ( 'NONE', #64, #174, #106 ) ;
#210 = APPROVAL_STATUS ( 'not_yet_approved' ) ;
#211 = PLANE ( 'NONE',  #234 ) ;
#212 = EDGE_CURVE ( 'NONE', #313, #279, #328, .T. ) ;
#213 = CIRCLE ( 'NONE', #259, 1.399999999999991696 ) ;
#214 = APPROVAL_STATUS ( 'not_yet_approved' ) ;
#215 = APPROVAL ( #210, 'UNSPECIFIED' ) ;
#216 = AXIS2_PLACEMENT_3D ( 'NONE', #189, #299, #152 ) ;
#217 = MANIFOLD_SOLID_BREP ( 'Corps-Déplacer/Copier1[1]', #75 ) ;
#218 = FACE_OUTER_BOUND ( 'NONE', #154, .T. ) ;
#219 = ADVANCED_BREP_SHAPE_REPRESENTATION ( '54284', ( #217, #109, #79 ), #327 ) ;
#220 = LINE ( 'NONE', #242, #80 ) ;
#221 = ORIENTED_EDGE ( 'NONE', *, *, #298, .F. ) ;
#222 = CLOSED_SHELL ( 'NONE', ( #325, #188, #179, #102, #240 ) ) ;
#223 = DIRECTION ( 'NONE',  ( -3.491481338843133355E-15, 1.224646799147353454E-16, -1.000000000000000000 ) ) ;
#224 = DIRECTION ( 'NONE',  ( -3.491481338843133355E-15, 1.224646799147353454E-16, -1.000000000000000000 ) ) ;
#225 = CARTESIAN_POINT ( 'NONE',  ( 2.129803616694311221E-13, -7.470345474798856659E-15, 61.00000000000000000 ) ) ;
#226 = CYLINDRICAL_SURFACE ( 'NONE', #142, 1.399999999999989475 ) ;
#227 = ORIENTED_EDGE ( 'NONE', *, *, #135, .F. ) ;
#228 = PERSON ( 'UNSPECIFIED', 'UNSPECIFIED', 'UNSPECIFIED', ('UNSPECIFIED'), ('UNSPECIFIED'), ('UNSPECIFIED') ) ;
#229 = FACE_OUTER_BOUND ( 'NONE', #23, .T. ) ;
#230 = AXIS2_PLACEMENT_3D ( 'NONE', #225, #197, #301 ) ;
#231 = ORIENTED_EDGE ( 'NONE', *, *, #309, .F. ) ;
#232 = ORIENTED_EDGE ( 'NONE', *, *, #73, .T. ) ;
#233 = CALENDAR_DATE ( 2021, 2, 9 ) ;
#234 = AXIS2_PLACEMENT_3D ( 'NONE', #204, #159, #74 ) ;
#235 = PERSON_AND_ORGANIZATION ( #228, #296 ) ;
#236 = CC_DESIGN_DATE_AND_TIME_ASSIGNMENT ( #133, #2, ( #53 ) ) ;
#237 = DESIGN_CONTEXT ( 'detailed design', #304, 'design' ) ;
#238 = DATE_AND_TIME ( #269, #289 ) ;
#239 = APPROVAL_DATE_TIME ( #81, #48 ) ;
#240 = ADVANCED_FACE ( 'NONE', ( #330 ), #123, .T. ) ;
#241 = AXIS2_PLACEMENT_3D ( 'NONE', #171, #276, #43 ) ;
#242 = CARTESIAN_POINT ( 'NONE',  ( 3.108501645893279291E-15, 1.399999999999987477, 0.8412048666385865126 ) ) ;
#243 = CARTESIAN_POINT ( 'NONE',  ( 1.714505518806275903E-16, -1.399999999999989475, -1.714505518806287982E-16 ) ) ;
#244 = EDGE_CURVE ( 'NONE', #250, #279, #128, .T. ) ;
#245 = CYLINDRICAL_SURFACE ( 'NONE', #216, 1.399999999999993250 ) ;
#246 = ORIENTED_EDGE ( 'NONE', *, *, #295, .T. ) ;
#247 = ORIENTED_EDGE ( 'NONE', *, *, #87, .T. ) ;
#248 = CARTESIAN_POINT ( 'NONE',  ( 2.937051094012650715E-15, -1.030178847356121034E-16, 0.8412048666385862905 ) ) ;
#249 = CARTESIAN_POINT ( 'NONE',  ( 2.129803616694311221E-13, -7.470345474798856659E-15, 61.00000000000000000 ) ) ;
#250 = VERTEX_POINT ( 'NONE', #12 ) ;
#251 = CIRCLE ( 'NONE', #187, 1.399999999999995026 ) ;
#252 = ORIENTED_EDGE ( 'NONE', *, *, #208, .F. ) ;
#253 = VERTEX_POINT ( 'NONE', #37 ) ;
#254 = CYLINDRICAL_SURFACE ( 'NONE', #138, 1.399999999999993250 ) ;
#255 = EDGE_CURVE ( 'NONE', #313, #250, #220, .T. ) ;
#256 = DIRECTION ( 'NONE',  ( 0.0000000000000000000, 1.000000000000000000, 0.0000000000000000000 ) ) ;
#257 = ORIENTED_EDGE ( 'NONE', *, *, #208, .T. ) ;
#258 = ORIENTED_EDGE ( 'NONE', *, *, #135, .T. ) ;
#259 = AXIS2_PLACEMENT_3D ( 'NONE', #120, #223, #59 ) ;
#260 = DIRECTION ( 'NONE',  ( 0.0000000000000000000, 0.0000000000000000000, 1.000000000000000000 ) ) ;
#261 = PRODUCT_DEFINITION_SHAPE ( 'NONE', 'NONE',  #53 ) ;
#262 = ORIENTED_EDGE ( 'NONE', *, *, #263, .T. ) ;
#263 = EDGE_CURVE ( 'NONE', #205, #337, #129, .T. ) ;
#264 = DIRECTION ( 'NONE',  ( 1.000000000000000000, 0.0000000000000000000, 0.0000000000000000000 ) ) ;
#265 = DIRECTION ( 'NONE',  ( 3.491481338843133355E-15, -1.224646799147353454E-16, 1.000000000000000000 ) ) ;
#266 = APPROVAL_DATE_TIME ( #317, #151 ) ;
#267 = PRODUCT_RELATED_PRODUCT_CATEGORY ( 'detail', '', ( #27 ) ) ;
#268 = ADVANCED_FACE ( 'NONE', ( #94 ), #58, .T. ) ;
#269 = CALENDAR_DATE ( 2021, 2, 9 ) ;
#270 = CARTESIAN_POINT ( 'NONE',  ( 1.152188841818234133E-13, 1.049831847863288557E-32, 33.00000000000000000 ) ) ;
#271 = AXIS2_PLACEMENT_3D ( 'NONE', #294, #292, #326 ) ;
#272 = CIRCLE ( 'NONE', #26, 1.099999999999995204 ) ;
#273 = DIRECTION ( 'NONE',  ( -3.491481338843133355E-15, 1.224646799147353454E-16, -1.000000000000000000 ) ) ;
#274 = LINE ( 'NONE', #60, #165 ) ;
#275 = DIRECTION ( 'NONE',  ( -3.491481338843133355E-15, 1.224646799147353454E-16, -1.000000000000000000 ) ) ;
#276 = DIRECTION ( 'NONE',  ( -3.491481338843133355E-15, 1.224646799147353454E-16, -1.000000000000000000 ) ) ;
#277 = FACE_OUTER_BOUND ( 'NONE', #13, .T. ) ;
#278 = ORIENTED_EDGE ( 'NONE', *, *, #34, .F. ) ;
#279 = VERTEX_POINT ( 'NONE', #14 ) ;
#280 = CARTESIAN_POINT ( 'NONE',  ( 5.986164024255698083E-31, 1.399999999999989475, 1.714505518806282065E-16 ) ) ;
#281 = CARTESIAN_POINT ( 'NONE',  ( 2.119329172677781757E-13, -7.433606070824434221E-15, 60.69999999999999574 ) ) ;
#282 = APPROVAL_DATE_TIME ( #314, #215 ) ;
#283 = FACE_OUTER_BOUND ( 'NONE', #46, .T. ) ;
#284 = CIRCLE ( 'NONE', #36, 1.399999999999991696 ) ;
#285 =( LENGTH_UNIT ( ) NAMED_UNIT ( * ) SI_UNIT ( .MILLI., .METRE. ) );
#286 = PLANE ( 'NONE',  #297 ) ;
#287 = FACE_OUTER_BOUND ( 'NONE', #119, .T. ) ;
#288 = CARTESIAN_POINT ( 'NONE',  ( 1.152188841818234133E-13, 1.399999999999987699, 33.00000000000000000 ) ) ;
#289 = LOCAL_TIME ( 15, 38, 12.00000000000000000, #108 ) ;
#290 = APPROVAL_PERSON_ORGANIZATION ( #136, #48, #141 ) ;
#291 = VECTOR ( 'NONE', #149, 1000.000000000000000 ) ;
#292 = DIRECTION ( 'NONE',  ( 3.491481338843133355E-15, -1.224646799147353454E-16, 1.000000000000000000 ) ) ;
#293 = CALENDAR_DATE ( 2021, 2, 9 ) ;
#294 = CARTESIAN_POINT ( 'NONE',  ( 2.937051094012650715E-15, -1.030178847356121034E-16, 0.8412048666385862905 ) ) ;
#295 = EDGE_CURVE ( 'NONE', #253, #93, #272, .T. ) ;
#296 = ORGANIZATION ( 'UNSPECIFIED', 'UNSPECIFIED', '' ) ;
#297 = AXIS2_PLACEMENT_3D ( 'NONE', #321, #265, #3 ) ;
#298 = EDGE_CURVE ( 'NONE', #337, #205, #213, .T. ) ;
#299 = DIRECTION ( 'NONE',  ( -3.491481338843133355E-15, 1.224646799147353454E-16, -1.000000000000000000 ) ) ;
#300 = APPROVAL_PERSON_ORGANIZATION ( #51, #151, #105 ) ;
#301 = DIRECTION ( 'NONE',  ( 0.0000000000000000000, 1.000000000000000000, 0.0000000000000000000 ) ) ;
#302 = DIRECTION ( 'NONE',  ( -3.491481338843133355E-15, 1.224646799147353454E-16, -1.000000000000000000 ) ) ;
#303 = AXIS2_PLACEMENT_3D ( 'NONE', #88, #190, #18 ) ;
#304 = APPLICATION_CONTEXT ( 'configuration controlled 3d designs of mechanical parts and assemblies' ) ;
#305 = CARTESIAN_POINT ( 'NONE',  ( 2.129803616694311221E-13, -7.470345474798856659E-15, 61.00000000000000000 ) ) ;
#306 = CARTESIAN_POINT ( 'NONE',  ( 1.152188841818234133E-13, -4.041334437186266989E-15, 33.00000000000000000 ) ) ;
#307 = DIRECTION ( 'NONE',  ( 1.798245827342160317E-15, -0.8571673007021098911, 0.5150380749100582634 ) ) ;
#308 = CARTESIAN_POINT ( 'NONE',  ( 2.126097203184980741E-13, -1.100000000000002753, 61.00000000000000000 ) ) ;
#309 = EDGE_CURVE ( 'NONE', #25, #65, #284, .T. ) ;
#310 = ORIENTED_EDGE ( 'NONE', *, *, #73, .F. ) ;
#311 = CARTESIAN_POINT ( 'NONE',  ( 0.0000000000000000000, 0.0000000000000000000, 0.0000000000000000000 ) ) ;
#312 = ORIENTED_EDGE ( 'NONE', *, *, #316, .T. ) ;
#313 = VERTEX_POINT ( 'NONE', #332 ) ;
#314 = DATE_AND_TIME ( #200, #44 ) ;
#315 = CARTESIAN_POINT ( 'NONE',  ( 0.0000000000000000000, 0.0000000000000000000, 0.0000000000000000000 ) ) ;
#316 = EDGE_CURVE ( 'NONE', #50, #25, #92, .T. ) ;
#317 = DATE_AND_TIME ( #233, #113 ) ;
#318 = LOCAL_TIME ( 15, 38, 12.00000000000000000, #182 ) ;
#319 = AXIS2_PLACEMENT_3D ( 'NONE', #306, #180, #201 ) ;
#320 = PERSON_AND_ORGANIZATION ( #228, #296 ) ;
#321 = CARTESIAN_POINT ( 'NONE',  ( 1.152188841818234133E-13, 1.049831847863288557E-32, 33.00000000000000000 ) ) ;
#322 = PERSON_AND_ORGANIZATION ( #228, #296 ) ;
#323 = FACE_OUTER_BOUND ( 'NONE', #202, .T. ) ;
#324 = PERSON_AND_ORGANIZATION_ROLE ( 'design_supplier' ) ;
#325 = ADVANCED_FACE ( 'NONE', ( #277 ), #45, .T. ) ;
#326 = DIRECTION ( 'NONE',  ( -5.502656983963580430E-31, -1.000000000000000000, -1.548860246407877388E-16 ) ) ;
#327 =( GEOMETRIC_REPRESENTATION_CONTEXT ( 3 ) GLOBAL_UNCERTAINTY_ASSIGNED_CONTEXT ( ( #162 ) ) GLOBAL_UNIT_ASSIGNED_CONTEXT ( ( #285, #72, #103 ) ) REPRESENTATION_CONTEXT ( 'NONE', 'WORKASPACE' ) );
#328 = LINE ( 'NONE', #63, #84 ) ;
#329 = ORIENTED_EDGE ( 'NONE', *, *, #87, .F. ) ;
#330 = FACE_OUTER_BOUND ( 'NONE', #132, .T. ) ;
#331 = ORIENTED_EDGE ( 'NONE', *, *, #244, .T. ) ;
#332 = CARTESIAN_POINT ( 'NONE',  ( 0.0000000000000000000, 0.0000000000000000000, 0.0000000000000000000 ) ) ;
#333 = CARTESIAN_POINT ( 'NONE',  ( 2.119329172677781757E-13, 1.399999999999987699, 60.69999999999999574 ) ) ;
#334 = LINE ( 'NONE', #280, #66 ) ;
#335 = DIRECTION ( 'NONE',  ( -3.491481338843133355E-15, 1.224646799147353454E-16, -1.000000000000000000 ) ) ;
#336 = ORIENTED_EDGE ( 'NONE', *, *, #212, .T. ) ;
#337 = VERTEX_POINT ( 'NONE', #288 ) ;
ENDSEC;
END-ISO-10303-21;
