ISO-10303-21;
HEADER;
FILE_DESCRIPTION (( 'STEP AP203' ),
    '1' );
FILE_NAME ('54283.step',
    '2021-09-02T13:38:11',
    ( '' ),
    ( '' ),
    'SwSTEP 2.0',
    'SolidWorks 2019',
    '' );
FILE_SCHEMA (( 'CONFIG_CONTROL_DESIGN' ));
ENDSEC;

DATA;
#1 = ORIENTED_EDGE ( 'NONE', *, *, #219, .F. ) ;
#2 = ORIENTED_EDGE ( 'NONE', *, *, #214, .F. ) ;
#3 = ORIENTED_EDGE ( 'NONE', *, *, #87, .F. ) ;
#4 = EDGE_CURVE ( 'NONE', #265, #318, #205, .T. ) ;
#5 = PLANE ( 'NONE',  #306 ) ;
#6 = PERSON_AND_ORGANIZATION ( #9, #213 ) ;
#7 = CARTESIAN_POINT ( 'NONE',  ( 2.199633243471174140E-13, -7.715274834628325378E-15, 63.00000000000000000 ) ) ;
#8 = DATE_TIME_ROLE ( 'classification_date' ) ;
#9 = PERSON ( 'UNSPECIFIED', 'UNSPECIFIED', 'UNSPECIFIED', ('UNSPECIFIED'), ('UNSPECIFIED'), ('UNSPECIFIED') ) ;
#10 = CARTESIAN_POINT ( 'NONE',  ( 3.517604978583226578E-13, -2.450000000000013056, 101.0000000000000000 ) ) ;
#11 = CLOSED_SHELL ( 'NONE', ( #147, #325, #56, #152, #319, #45 ) ) ;
#12 = APPROVAL_PERSON_ORGANIZATION ( #182, #159, #198 ) ;
#13 = CARTESIAN_POINT ( 'NONE',  ( 3.501955782859662818E-13, -1.228320739544795303E-14, 100.2999999999999972 ) ) ;
#14 = COORDINATED_UNIVERSAL_TIME_OFFSET ( 1, 0, .AHEAD. ) ;
#15 = CARTESIAN_POINT ( 'NONE',  ( 0.0000000000000000000, 0.0000000000000000000, 0.0000000000000000000 ) ) ;
#16 = CARTESIAN_POINT ( 'NONE',  ( 2.199633243471174140E-13, 2.362121657692410679E-32, 63.00000000000000000 ) ) ;
#17 = CALENDAR_DATE ( 2021, 2, 9 ) ;
#18 = ORIENTED_EDGE ( 'NONE', *, *, #214, .T. ) ;
#19 = PERSON_AND_ORGANIZATION_ROLE ( 'design_owner' ) ;
#20 = EDGE_CURVE ( 'NONE', #43, #270, #238, .T. ) ;
#21 = CYLINDRICAL_SURFACE ( 'NONE', #164, 3.149999999999997691 ) ;
#22 = CC_DESIGN_APPROVAL ( #159, ( #267 ) ) ;
#23 = CONICAL_SURFACE ( 'NONE', #115, 2.450000000000000178, 0.7853981633974437271 ) ;
#24 = CC_DESIGN_APPROVAL ( #138, ( #282 ) ) ;
#25 = LINE ( 'NONE', #260, #190 ) ;
#26 = CARTESIAN_POINT ( 'NONE',  ( 6.608364961528494382E-15, -3.149999999999988809, 1.892710949936827980 ) ) ;
#27 = DIRECTION ( 'NONE',  ( 0.0000000000000000000, 1.000000000000000000, 0.0000000000000000000 ) ) ;
#28 = ORIENTED_EDGE ( 'NONE', *, *, #309, .F. ) ;
#29 = DIRECTION ( 'NONE',  ( -3.491481338843133355E-15, 1.224646799147353207E-16, -1.000000000000000000 ) ) ;
#30 = ADVANCED_BREP_SHAPE_REPRESENTATION ( '54283', ( #116, #113, #323 ), #136 ) ;
#31 = CC_DESIGN_PERSON_AND_ORGANIZATION_ASSIGNMENT ( #126, #19, ( #145 ) ) ;
#32 = ORIENTED_EDGE ( 'NONE', *, *, #20, .T. ) ;
#33 = APPROVAL_PERSON_ORGANIZATION ( #201, #138, #229 ) ;
#34 = CIRCLE ( 'NONE', #258, 3.149999999999988365 ) ;
#35 = EDGE_LOOP ( 'NONE', ( #132, #291, #82, #3 ) ) ;
#36 = DIRECTION ( 'NONE',  ( 4.275831445896958607E-31, 1.000000000000000000, 1.224646799147353207E-16 ) ) ;
#37 = PERSON_AND_ORGANIZATION ( #9, #213 ) ;
#38 = CC_DESIGN_DATE_AND_TIME_ASSIGNMENT ( #141, #8, ( #131 ) ) ;
#39 = AXIS2_PLACEMENT_3D ( 'NONE', #192, #300, #27 ) ;
#40 = EDGE_LOOP ( 'NONE', ( #18, #81, #58, #57 ) ) ;
#41 = CARTESIAN_POINT ( 'NONE',  ( 2.199633243471174140E-13, 3.149999999999987921, 63.00000000000000000 ) ) ;
#42 = CARTESIAN_POINT ( 'NONE',  ( 2.199633243471174140E-13, -7.715274834628325378E-15, 63.00000000000000000 ) ) ;
#43 = VERTEX_POINT ( 'NONE', #316 ) ;
#44 = FACE_OUTER_BOUND ( 'NONE', #158, .T. ) ;
#45 = ADVANCED_FACE ( 'NONE', ( #234 ), #293, .F. ) ;
#46 = LINE ( 'NONE', #64, #277 ) ;
#47 = COORDINATED_UNIVERSAL_TIME_OFFSET ( 1, 0, .AHEAD. ) ;
#48 = FACE_OUTER_BOUND ( 'NONE', #302, .T. ) ;
#49 = EDGE_LOOP ( 'NONE', ( #193, #108 ) ) ;
#50 = DIRECTION ( 'NONE',  ( -3.491481338843133355E-15, 1.224646799147353207E-16, -1.000000000000000000 ) ) ;
#51 = VERTEX_POINT ( 'NONE', #10 ) ;
#52 = CLOSED_SHELL ( 'NONE', ( #243, #246, #324, #93, #104 ) ) ;
#53 = LINE ( 'NONE', #266, #71 ) ;
#54 = EDGE_LOOP ( 'NONE', ( #172, #195, #163 ) ) ;
#55 = PERSON_AND_ORGANIZATION ( #9, #213 ) ;
#56 = ADVANCED_FACE ( 'NONE', ( #148 ), #242, .F. ) ;
#57 = ORIENTED_EDGE ( 'NONE', *, *, #261, .F. ) ;
#58 = ORIENTED_EDGE ( 'NONE', *, *, #250, .F. ) ;
#59 = AXIS2_PLACEMENT_3D ( 'NONE', #150, #253, #151 ) ;
#60 = DIRECTION ( 'NONE',  ( -4.275831445896958607E-31, -1.000000000000000000, -1.224646799147353207E-16 ) ) ;
#61 = VECTOR ( 'NONE', #99, 1000.000000000000000 ) ;
#62 = EDGE_CURVE ( 'NONE', #105, #177, #130, .T. ) ;
#63 = CARTESIAN_POINT ( 'NONE',  ( 6.608364961528495959E-15, -2.317902406551283450E-16, 1.892710949936828424 ) ) ;
#64 = CARTESIAN_POINT ( 'NONE',  ( 1.346886905457538572E-30, 3.149999999999992362, 3.857637417314152828E-16 ) ) ;
#65 = VECTOR ( 'NONE', #333, 1000.000000000000000 ) ;
#66 = AXIS2_PLACEMENT_3D ( 'NONE', #161, #334, #94 ) ;
#67 = PERSON_AND_ORGANIZATION_ROLE ( 'creator' ) ;
#68 = EDGE_LOOP ( 'NONE', ( #313, #236, #135, #102 ) ) ;
#69 = APPROVAL_STATUS ( 'not_yet_approved' ) ;
#70 = CARTESIAN_POINT ( 'NONE',  ( 0.0000000000000000000, 0.0000000000000000000, 0.0000000000000000000 ) ) ;
#71 = VECTOR ( 'NONE', #133, 1000.000000000000000 ) ;
#72 = DATE_AND_TIME ( #202, #204 ) ;
#73 = VECTOR ( 'NONE', #263, 1000.000000000000114 ) ;
#74 = CC_DESIGN_PERSON_AND_ORGANIZATION_ASSIGNMENT ( #6, #110, ( #282 ) ) ;
#75 = CARTESIAN_POINT ( 'NONE',  ( 2.199633243471174140E-13, -7.715274834628325378E-15, 63.00000000000000000 ) ) ;
#76 = ORIENTED_EDGE ( 'NONE', *, *, #271, .F. ) ;
#77 = ORIENTED_EDGE ( 'NONE', *, *, #167, .T. ) ;
#78 = EDGE_CURVE ( 'NONE', #318, #209, #34, .T. ) ;
#79 = CIRCLE ( 'NONE', #143, 3.149999999999995470 ) ;
#80 = CONICAL_SURFACE ( 'NONE', #278, 3.149999999999988365, 1.029744258676649871 ) ;
#81 = ORIENTED_EDGE ( 'NONE', *, *, #191, .T. ) ;
#82 = ORIENTED_EDGE ( 'NONE', *, *, #261, .T. ) ;
#83 = DIRECTION ( 'NONE',  ( -3.491481338843133355E-15, 1.224646799147353207E-16, -1.000000000000000000 ) ) ;
#84 = PERSON_AND_ORGANIZATION_ROLE ( 'design_supplier' ) ;
#85 = CARTESIAN_POINT ( 'NONE',  ( 2.854652150582732472E-13, -3.150000000000003464, 63.00000000000000000 ) ) ;
#86 = UNCERTAINTY_MEASURE_WITH_UNIT (LENGTH_MEASURE( 1.000000000000000082E-05 ), #311, 'distance_accuracy_value', 'NONE');
#87 = EDGE_CURVE ( 'NONE', #187, #328, #79, .T. ) ;
#88 = CIRCLE ( 'NONE', #222, 3.149999999999995470 ) ;
#89 = CIRCLE ( 'NONE', #39, 3.149999999999999911 ) ;
#90 = CARTESIAN_POINT ( 'NONE',  ( 6.994128703259912623E-15, 3.149999999999987921, 1.892710949936828868 ) ) ;
#91 = APPROVAL_ROLE ( '' ) ;
#92 = DIRECTION ( 'NONE',  ( -3.491481338843133355E-15, 1.224646799147353207E-16, -1.000000000000000000 ) ) ;
#93 = ADVANCED_FACE ( 'NONE', ( #217 ), #321, .T. ) ;
#94 = DIRECTION ( 'NONE',  ( 4.891250652412045219E-31, 1.000000000000000000, 1.376764663473661394E-16 ) ) ;
#95 = DIRECTION ( 'NONE',  ( 4.275831445896958607E-31, 1.000000000000000000, 1.224646799147352961E-16 ) ) ;
#96 = DIRECTION ( 'NONE',  ( -3.491481338843133355E-15, 1.224646799147353207E-16, -1.000000000000000000 ) ) ;
#97 = CYLINDRICAL_SURFACE ( 'NONE', #59, 3.149999999999992362 ) ;
#98 = DIRECTION ( 'NONE',  ( 1.000000000000000000, 0.0000000000000000000, 0.0000000000000000000 ) ) ;
#99 = DIRECTION ( 'NONE',  ( -2.468850131082276388E-15, 0.7071067811865443531, -0.7071067811865506814 ) ) ;
#100 = AXIS2_PLACEMENT_3D ( 'NONE', #199, #337, #256 ) ;
#101 = CARTESIAN_POINT ( 'NONE',  ( 6.608364961528495959E-15, -2.317902406551283450E-16, 1.892710949936828424 ) ) ;
#102 = ORIENTED_EDGE ( 'NONE', *, *, #78, .F. ) ;
#103 = CARTESIAN_POINT ( 'NONE',  ( 3.526396152231565067E-13, -1.236893267138826732E-14, 101.0000000000000000 ) ) ;
#104 = ADVANCED_FACE ( 'NONE', ( #283 ), #5, .T. ) ;
#105 = VERTEX_POINT ( 'NONE', #275 ) ;
#106 = APPROVAL_PERSON_ORGANIZATION ( #55, #315, #91 ) ;
#107 = AXIS2_PLACEMENT_3D ( 'NONE', #220, #140, #36 ) ;
#108 = ORIENTED_EDGE ( 'NONE', *, *, #62, .F. ) ;
#109 = CYLINDRICAL_SURFACE ( 'NONE', #107, 3.149999999999997691 ) ;
#110 = PERSON_AND_ORGANIZATION_ROLE ( 'creator' ) ;
#111 = CARTESIAN_POINT ( 'NONE',  ( 3.857637417314140009E-16, -3.149999999999992362, -3.857637417314166633E-16 ) ) ;
#112 = AXIS2_PLACEMENT_3D ( 'NONE', #118, #225, #297 ) ;
#113 = MANIFOLD_SOLID_BREP ( 'Corps-Déplacer/Copier1[2]', #52 ) ;
#114 = CIRCLE ( 'NONE', #66, 3.149999999999988365 ) ;
#115 = AXIS2_PLACEMENT_3D ( 'NONE', #165, #280, #227 ) ;
#116 = MANIFOLD_SOLID_BREP ( 'Corps-Déplacer/Copier1[1]', #11 ) ;
#117 = CC_DESIGN_PERSON_AND_ORGANIZATION_ASSIGNMENT ( #37, #269, ( #131 ) ) ;
#118 = CARTESIAN_POINT ( 'NONE',  ( 2.199633243471174140E-13, 2.362121657692410679E-32, 63.00000000000000000 ) ) ;
#119 = ORIENTED_EDGE ( 'NONE', *, *, #176, .F. ) ;
#120 = CALENDAR_DATE ( 2021, 2, 9 ) ;
#121 = DIRECTION ( 'NONE',  ( 4.275831445896958607E-31, 1.000000000000000000, 1.224646799147353207E-16 ) ) ;
#122 = ORIENTED_EDGE ( 'NONE', *, *, #301, .F. ) ;
#123 = LOCAL_TIME ( 15, 38, 11.00000000000000000, #47 ) ;
#124 = DIRECTION ( 'NONE',  ( -3.491481338843133355E-15, 1.224646799147353207E-16, -1.000000000000000000 ) ) ;
#125 = EDGE_CURVE ( 'NONE', #177, #209, #46, .T. ) ;
#126 = PERSON_AND_ORGANIZATION ( #9, #213 ) ;
#127 = CALENDAR_DATE ( 2021, 2, 9 ) ;
#128 = CARTESIAN_POINT ( 'NONE',  ( 6.994128703259912623E-15, 3.149999999999987921, 1.892710949936828868 ) ) ;
#129 = ORIENTED_EDGE ( 'NONE', *, *, #271, .T. ) ;
#130 = CIRCLE ( 'NONE', #185, 3.149999999999995470 ) ;
#131 = SECURITY_CLASSIFICATION ( '', '', #189 ) ;
#132 = ORIENTED_EDGE ( 'NONE', *, *, #191, .F. ) ;
#133 = DIRECTION ( 'NONE',  ( -2.382254525458728119E-15, -0.7071067811865441310, -0.7071067811865507924 ) ) ;
#134 = ORIENTED_EDGE ( 'NONE', *, *, #301, .T. ) ;
#135 = ORIENTED_EDGE ( 'NONE', *, *, #125, .T. ) ;
#136 =( GEOMETRIC_REPRESENTATION_CONTEXT ( 3 ) GLOBAL_UNCERTAINTY_ASSIGNED_CONTEXT ( ( #86 ) ) GLOBAL_UNIT_ASSIGNED_CONTEXT ( ( #311, #178, #305 ) ) REPRESENTATION_CONTEXT ( 'NONE', 'WORKASPACE' ) );
#137 = CARTESIAN_POINT ( 'NONE',  ( 6.608364961528494382E-15, -3.149999999999988809, 1.892710949936827980 ) ) ;
#138 = APPROVAL ( #287, 'UNSPECIFIED' ) ;
#139 = LINE ( 'NONE', #111, #169 ) ;
#140 = DIRECTION ( 'NONE',  ( -3.491481338843133355E-15, 1.224646799147353207E-16, -1.000000000000000000 ) ) ;
#141 = DATE_AND_TIME ( #276, #168 ) ;
#142 = AXIS2_PLACEMENT_3D ( 'NONE', #103, #156, #312 ) ;
#143 = AXIS2_PLACEMENT_3D ( 'NONE', #42, #320, #284 ) ;
#144 = CC_DESIGN_DATE_AND_TIME_ASSIGNMENT ( #285, #331, ( #267 ) ) ;
#145 = PRODUCT ( '54283', '54283', '', ( #231 ) ) ;
#146 = APPLICATION_CONTEXT ( 'configuration controlled 3d designs of mechanical parts and assemblies' ) ;
#147 = ADVANCED_FACE ( 'NONE', ( #188 ), #23, .T. ) ;
#148 = FACE_OUTER_BOUND ( 'NONE', #336, .T. ) ;
#149 = CONICAL_SURFACE ( 'NONE', #100, 3.149999999999988365, 1.029744258676649871 ) ;
#150 = CARTESIAN_POINT ( 'NONE',  ( 0.0000000000000000000, 0.0000000000000000000, 0.0000000000000000000 ) ) ;
#151 = DIRECTION ( 'NONE',  ( 4.275831445896958607E-31, 1.000000000000000000, 1.224646799147352961E-16 ) ) ;
#152 = ADVANCED_FACE ( 'NONE', ( #274 ), #109, .T. ) ;
#153 = CC_DESIGN_APPROVAL ( #315, ( #131 ) ) ;
#154 = CIRCLE ( 'NONE', #299, 3.149999999999999911 ) ;
#155 = CARTESIAN_POINT ( 'NONE',  ( 0.0000000000000000000, 0.0000000000000000000, 0.0000000000000000000 ) ) ;
#156 = DIRECTION ( 'NONE',  ( -3.491481338843133355E-15, 1.224646799147353207E-16, -1.000000000000000000 ) ) ;
#157 = PRODUCT_DEFINITION_SHAPE ( 'NONE', 'NONE',  #267 ) ;
#158 = EDGE_LOOP ( 'NONE', ( #122, #268, #32, #119 ) ) ;
#159 = APPROVAL ( #69, 'UNSPECIFIED' ) ;
#160 = DIRECTION ( 'NONE',  ( 0.0000000000000000000, 1.000000000000000000, 0.0000000000000000000 ) ) ;
#161 = CARTESIAN_POINT ( 'NONE',  ( 6.608364961528495959E-15, -2.317902406551283450E-16, 1.892710949936828424 ) ) ;
#162 = ORIENTED_EDGE ( 'NONE', *, *, #4, .T. ) ;
#163 = ORIENTED_EDGE ( 'NONE', *, *, #309, .T. ) ;
#164 = AXIS2_PLACEMENT_3D ( 'NONE', #15, #96, #121 ) ;
#165 = CARTESIAN_POINT ( 'NONE',  ( 3.526396152231565067E-13, -1.236893267138826732E-14, 101.0000000000000000 ) ) ;
#166 = CARTESIAN_POINT ( 'NONE',  ( 3.857637417314146912E-16, -3.149999999999997691, -3.857637417314173043E-16 ) ) ;
#167 = EDGE_CURVE ( 'NONE', #105, #318, #139, .T. ) ;
#168 = LOCAL_TIME ( 15, 38, 11.00000000000000000, #322 ) ;
#169 = VECTOR ( 'NONE', #329, 1000.000000000000000 ) ;
#170 = DIRECTION ( 'NONE',  ( -3.491481338843133355E-15, 1.224646799147353207E-16, -1.000000000000000000 ) ) ;
#171 = LINE ( 'NONE', #166, #179 ) ;
#172 = ORIENTED_EDGE ( 'NONE', *, *, #4, .F. ) ;
#173 = DIRECTION ( 'NONE',  ( 4.275831445896958607E-31, 1.000000000000000000, 1.224646799147353207E-16 ) ) ;
#174 = DATE_AND_TIME ( #17, #186 ) ;
#175 = COORDINATED_UNIVERSAL_TIME_OFFSET ( 1, 0, .AHEAD. ) ;
#176 = EDGE_CURVE ( 'NONE', #215, #270, #154, .T. ) ;
#177 = VERTEX_POINT ( 'NONE', #224 ) ;
#178 =( NAMED_UNIT ( * ) PLANE_ANGLE_UNIT ( ) SI_UNIT ( $, .RADIAN. ) );
#179 = VECTOR ( 'NONE', #326, 1000.000000000000000 ) ;
#180 = CARTESIAN_POINT ( 'NONE',  ( 3.526396152231565067E-13, -1.236893267138826732E-14, 101.0000000000000000 ) ) ;
#181 = CC_DESIGN_PERSON_AND_ORGANIZATION_ASSIGNMENT ( #226, #67, ( #267 ) ) ;
#182 = PERSON_AND_ORGANIZATION ( #9, #213 ) ;
#183 = CARTESIAN_POINT ( 'NONE',  ( 2.854652150582731463E-13, -3.150000000000012346, 100.2999999999999972 ) ) ;
#184 = EDGE_LOOP ( 'NONE', ( #129, #134, #2, #292 ) ) ;
#185 = AXIS2_PLACEMENT_3D ( 'NONE', #7, #303, #248 ) ;
#186 = LOCAL_TIME ( 15, 38, 11.00000000000000000, #14 ) ;
#187 = VERTEX_POINT ( 'NONE', #85 ) ;
#188 = FACE_OUTER_BOUND ( 'NONE', #184, .T. ) ;
#189 = SECURITY_CLASSIFICATION_LEVEL ( 'unclassified' ) ;
#190 = VECTOR ( 'NONE', #124, 1000.000000000000000 ) ;
#191 = EDGE_CURVE ( 'NONE', #215, #187, #171, .T. ) ;
#192 = CARTESIAN_POINT ( 'NONE',  ( 3.501955782859662818E-13, -1.228320739544795303E-14, 100.2999999999999972 ) ) ;
#193 = ORIENTED_EDGE ( 'NONE', *, *, #279, .F. ) ;
#194 = DIRECTION ( 'NONE',  ( 0.0000000000000000000, 1.000000000000000000, 0.0000000000000000000 ) ) ;
#195 = ORIENTED_EDGE ( 'NONE', *, *, #221, .T. ) ;
#196 = DIRECTION ( 'NONE',  ( 3.491481338843133355E-15, -1.224646799147353207E-16, 1.000000000000000000 ) ) ;
#197 = DIRECTION ( 'NONE',  ( -3.491481338843133355E-15, 1.224646799147353207E-16, -1.000000000000000000 ) ) ;
#198 = APPROVAL_ROLE ( '' ) ;
#199 = CARTESIAN_POINT ( 'NONE',  ( 6.608364961528495959E-15, -2.317902406551283450E-16, 1.892710949936828424 ) ) ;
#200 = ORIENTED_EDGE ( 'NONE', *, *, #87, .T. ) ;
#201 = PERSON_AND_ORGANIZATION ( #9, #213 ) ;
#202 = CALENDAR_DATE ( 2021, 2, 9 ) ;
#203 = CC_DESIGN_PERSON_AND_ORGANIZATION_ASSIGNMENT ( #218, #84, ( #282 ) ) ;
#204 = LOCAL_TIME ( 15, 38, 11.00000000000000000, #332 ) ;
#205 = LINE ( 'NONE', #137, #65 ) ;
#206 = FACE_OUTER_BOUND ( 'NONE', #40, .T. ) ;
#207 = FACE_OUTER_BOUND ( 'NONE', #54, .T. ) ;
#208 = SHAPE_DEFINITION_REPRESENTATION ( #157, #30 ) ;
#209 = VERTEX_POINT ( 'NONE', #90 ) ;
#210 = CARTESIAN_POINT ( 'NONE',  ( 2.199633243471174140E-13, -7.715274834628325378E-15, 63.00000000000000000 ) ) ;
#211 = ORIENTED_EDGE ( 'NONE', *, *, #125, .F. ) ;
#212 = CARTESIAN_POINT ( 'NONE',  ( 3.526396152231565067E-13, 2.449999999999987743, 101.0000000000000000 ) ) ;
#213 = ORGANIZATION ( 'UNSPECIFIED', 'UNSPECIFIED', '' ) ;
#214 = EDGE_CURVE ( 'NONE', #270, #215, #89, .T. ) ;
#215 = VERTEX_POINT ( 'NONE', #183 ) ;
#216 = APPROVAL_DATE_TIME ( #72, #138 ) ;
#217 = FACE_OUTER_BOUND ( 'NONE', #68, .T. ) ;
#218 = PERSON_AND_ORGANIZATION ( #9, #213 ) ;
#219 = EDGE_CURVE ( 'NONE', #51, #43, #289, .T. ) ;
#220 = CARTESIAN_POINT ( 'NONE',  ( 0.0000000000000000000, 0.0000000000000000000, 0.0000000000000000000 ) ) ;
#221 = EDGE_CURVE ( 'NONE', #265, #209, #230, .T. ) ;
#222 = AXIS2_PLACEMENT_3D ( 'NONE', #210, #29, #237 ) ;
#223 = AXIS2_PLACEMENT_3D ( 'NONE', #235, #288, #310 ) ;
#224 = CARTESIAN_POINT ( 'NONE',  ( 2.199633243471174140E-13, 3.149999999999987921, 63.00000000000000000 ) ) ;
#225 = DIRECTION ( 'NONE',  ( 3.491481338843133355E-15, -1.224646799147353207E-16, 1.000000000000000000 ) ) ;
#226 = PERSON_AND_ORGANIZATION ( #9, #213 ) ;
#227 = DIRECTION ( 'NONE',  ( 0.0000000000000000000, 1.000000000000000000, 0.0000000000000000000 ) ) ;
#228 = EDGE_LOOP ( 'NONE', ( #304, #162, #294 ) ) ;
#229 = APPROVAL_ROLE ( '' ) ;
#230 = LINE ( 'NONE', #128, #73 ) ;
#231 = MECHANICAL_CONTEXT ( 'NONE', #146, 'mechanical' ) ;
#232 = CIRCLE ( 'NONE', #142, 2.450000000000000178 ) ;
#233 = CONICAL_SURFACE ( 'NONE', #241, 2.450000000000000178, 0.7853981633974437271 ) ;
#234 = FACE_OUTER_BOUND ( 'NONE', #308, .T. ) ;
#235 = CARTESIAN_POINT ( 'NONE',  ( 3.526396152231565067E-13, -1.236893267138826732E-14, 101.0000000000000000 ) ) ;
#236 = ORIENTED_EDGE ( 'NONE', *, *, #62, .T. ) ;
#237 = DIRECTION ( 'NONE',  ( 0.0000000000000000000, 1.000000000000000000, 0.0000000000000000000 ) ) ;
#238 = LINE ( 'NONE', #212, #61 ) ;
#239 = APPROVAL_STATUS ( 'not_yet_approved' ) ;
#240 = ORIENTED_EDGE ( 'NONE', *, *, #250, .T. ) ;
#241 = AXIS2_PLACEMENT_3D ( 'NONE', #180, #314, #255 ) ;
#242 = PLANE ( 'NONE',  #112 ) ;
#243 = ADVANCED_FACE ( 'NONE', ( #48 ), #97, .T. ) ;
#244 = DESIGN_CONTEXT ( 'detailed design', #273, 'design' ) ;
#245 = DIRECTION ( 'NONE',  ( 3.491481338843133355E-15, -1.224646799147353207E-16, 1.000000000000000000 ) ) ;
#246 = ADVANCED_FACE ( 'NONE', ( #207 ), #149, .T. ) ;
#247 = CIRCLE ( 'NONE', #335, 3.149999999999995470 ) ;
#248 = DIRECTION ( 'NONE',  ( 0.0000000000000000000, 1.000000000000000000, 0.0000000000000000000 ) ) ;
#249 = APPROVAL_DATE_TIME ( #307, #159 ) ;
#250 = EDGE_CURVE ( 'NONE', #328, #187, #247, .T. ) ;
#251 = DIRECTION ( 'NONE',  ( -3.491481338843133355E-15, 1.224646799147353207E-16, -1.000000000000000000 ) ) ;
#252 = DIRECTION ( 'NONE',  ( 0.0000000000000000000, 0.0000000000000000000, 1.000000000000000000 ) ) ;
#253 = DIRECTION ( 'NONE',  ( -3.491481338843133355E-15, 1.224646799147353207E-16, -1.000000000000000000 ) ) ;
#254 = APPROVAL_DATE_TIME ( #174, #315 ) ;
#255 = DIRECTION ( 'NONE',  ( 0.0000000000000000000, 1.000000000000000000, 0.0000000000000000000 ) ) ;
#256 = DIRECTION ( 'NONE',  ( -4.891250652412045219E-31, -1.000000000000000000, -1.376764663473661394E-16 ) ) ;
#257 = LOCAL_TIME ( 15, 38, 11.00000000000000000, #175 ) ;
#258 = AXIS2_PLACEMENT_3D ( 'NONE', #63, #197, #296 ) ;
#259 = FACE_OUTER_BOUND ( 'NONE', #228, .T. ) ;
#260 = CARTESIAN_POINT ( 'NONE',  ( 1.346886905457541024E-30, 3.149999999999997691, 3.857637417314159731E-16 ) ) ;
#261 = EDGE_CURVE ( 'NONE', #270, #328, #25, .T. ) ;
#262 = APPLICATION_PROTOCOL_DEFINITION ( 'international standard', 'config_control_design', 1994, #146 ) ;
#263 = DIRECTION ( 'NONE',  ( 1.903218546456021928E-15, 0.8571673007021098911, 0.5150380749100583744 ) ) ;
#264 = CARTESIAN_POINT ( 'NONE',  ( 3.501955782859662818E-13, 3.149999999999987921, 100.2999999999999972 ) ) ;
#265 = VERTEX_POINT ( 'NONE', #70 ) ;
#266 = CARTESIAN_POINT ( 'NONE',  ( 3.529396536889475586E-13, -2.450000000000013056, 101.0000000000000000 ) ) ;
#267 = PRODUCT_DEFINITION ( 'UNKNOWN', '', #282, #244 ) ;
#268 = ORIENTED_EDGE ( 'NONE', *, *, #219, .T. ) ;
#269 = PERSON_AND_ORGANIZATION_ROLE ( 'classification_officer' ) ;
#270 = VERTEX_POINT ( 'NONE', #264 ) ;
#271 = EDGE_CURVE ( 'NONE', #43, #51, #232, .T. ) ;
#272 = CC_DESIGN_SECURITY_CLASSIFICATION ( #131, ( #282 ) ) ;
#273 = APPLICATION_CONTEXT ( 'configuration controlled 3d designs of mechanical parts and assemblies' ) ;
#274 = FACE_OUTER_BOUND ( 'NONE', #35, .T. ) ;
#275 = CARTESIAN_POINT ( 'NONE',  ( 1.136716083960541279E-13, -3.150000000000003464, 63.00000000000000000 ) ) ;
#276 = CALENDAR_DATE ( 2021, 2, 9 ) ;
#277 = VECTOR ( 'NONE', #170, 1000.000000000000000 ) ;
#278 = AXIS2_PLACEMENT_3D ( 'NONE', #101, #196, #290 ) ;
#279 = EDGE_CURVE ( 'NONE', #177, #105, #88, .T. ) ;
#280 = DIRECTION ( 'NONE',  ( -3.491481338843133355E-15, 1.224646799147353207E-16, -1.000000000000000000 ) ) ;
#281 = AXIS2_PLACEMENT_3D ( 'NONE', #327, #83, #95 ) ;
#282 = PRODUCT_DEFINITION_FORMATION_WITH_SPECIFIED_SOURCE ( 'ANY', '', #145, .NOT_KNOWN. ) ;
#283 = FACE_OUTER_BOUND ( 'NONE', #49, .T. ) ;
#284 = DIRECTION ( 'NONE',  ( 0.0000000000000000000, 1.000000000000000000, 0.0000000000000000000 ) ) ;
#285 = DATE_AND_TIME ( #120, #257 ) ;
#286 = ORIENTED_EDGE ( 'NONE', *, *, #279, .T. ) ;
#287 = APPROVAL_STATUS ( 'not_yet_approved' ) ;
#288 = DIRECTION ( 'NONE',  ( -3.491481338843133355E-15, 1.224646799147353207E-16, -1.000000000000000000 ) ) ;
#289 = CIRCLE ( 'NONE', #223, 2.450000000000000178 ) ;
#290 = DIRECTION ( 'NONE',  ( -4.891250652412045219E-31, -1.000000000000000000, -1.376764663473661394E-16 ) ) ;
#291 = ORIENTED_EDGE ( 'NONE', *, *, #176, .T. ) ;
#292 = ORIENTED_EDGE ( 'NONE', *, *, #20, .F. ) ;
#293 = PLANE ( 'NONE',  #295 ) ;
#294 = ORIENTED_EDGE ( 'NONE', *, *, #78, .T. ) ;
#295 = AXIS2_PLACEMENT_3D ( 'NONE', #317, #251, #173 ) ;
#296 = DIRECTION ( 'NONE',  ( 4.891250652412045219E-31, 1.000000000000000000, 1.376764663473661394E-16 ) ) ;
#297 = DIRECTION ( 'NONE',  ( -4.275831445896958607E-31, -1.000000000000000000, -1.224646799147353207E-16 ) ) ;
#298 = PRODUCT_RELATED_PRODUCT_CATEGORY ( 'detail', '', ( #145 ) ) ;
#299 = AXIS2_PLACEMENT_3D ( 'NONE', #13, #92, #194 ) ;
#300 = DIRECTION ( 'NONE',  ( -3.491481338843133355E-15, 1.224646799147353207E-16, -1.000000000000000000 ) ) ;
#301 = EDGE_CURVE ( 'NONE', #51, #215, #53, .T. ) ;
#302 = EDGE_LOOP ( 'NONE', ( #286, #77, #28, #211 ) ) ;
#303 = DIRECTION ( 'NONE',  ( -3.491481338843133355E-15, 1.224646799147353207E-16, -1.000000000000000000 ) ) ;
#304 = ORIENTED_EDGE ( 'NONE', *, *, #221, .F. ) ;
#305 =( NAMED_UNIT ( * ) SI_UNIT ( $, .STERADIAN. ) SOLID_ANGLE_UNIT ( ) );
#306 = AXIS2_PLACEMENT_3D ( 'NONE', #16, #245, #60 ) ;
#307 = DATE_AND_TIME ( #127, #123 ) ;
#308 = EDGE_LOOP ( 'NONE', ( #76, #1 ) ) ;
#309 = EDGE_CURVE ( 'NONE', #209, #318, #114, .T. ) ;
#310 = DIRECTION ( 'NONE',  ( 0.0000000000000000000, 1.000000000000000000, 0.0000000000000000000 ) ) ;
#311 =( LENGTH_UNIT ( ) NAMED_UNIT ( * ) SI_UNIT ( .MILLI., .METRE. ) );
#312 = DIRECTION ( 'NONE',  ( 0.0000000000000000000, 1.000000000000000000, 0.0000000000000000000 ) ) ;
#313 = ORIENTED_EDGE ( 'NONE', *, *, #167, .F. ) ;
#314 = DIRECTION ( 'NONE',  ( -3.491481338843133355E-15, 1.224646799147353207E-16, -1.000000000000000000 ) ) ;
#315 = APPROVAL ( #239, 'UNSPECIFIED' ) ;
#316 = CARTESIAN_POINT ( 'NONE',  ( 3.526396152231565067E-13, 2.449999999999987743, 101.0000000000000000 ) ) ;
#317 = CARTESIAN_POINT ( 'NONE',  ( 3.526396152231565067E-13, 1.837205733760756959E-32, 101.0000000000000000 ) ) ;
#318 = VERTEX_POINT ( 'NONE', #26 ) ;
#319 = ADVANCED_FACE ( 'NONE', ( #44 ), #233, .T. ) ;
#320 = DIRECTION ( 'NONE',  ( -3.491481338843133355E-15, 1.224646799147353207E-16, -1.000000000000000000 ) ) ;
#321 = CYLINDRICAL_SURFACE ( 'NONE', #281, 3.149999999999992362 ) ;
#322 = COORDINATED_UNIVERSAL_TIME_OFFSET ( 1, 0, .AHEAD. ) ;
#323 = AXIS2_PLACEMENT_3D ( 'NONE', #155, #252, #98 ) ;
#324 = ADVANCED_FACE ( 'NONE', ( #259 ), #80, .T. ) ;
#325 = ADVANCED_FACE ( 'NONE', ( #206 ), #21, .T. ) ;
#326 = DIRECTION ( 'NONE',  ( -3.491481338843133355E-15, 1.224646799147353207E-16, -1.000000000000000000 ) ) ;
#327 = CARTESIAN_POINT ( 'NONE',  ( 0.0000000000000000000, 0.0000000000000000000, 0.0000000000000000000 ) ) ;
#328 = VERTEX_POINT ( 'NONE', #41 ) ;
#329 = DIRECTION ( 'NONE',  ( -3.491481338843133355E-15, 1.224646799147353207E-16, -1.000000000000000000 ) ) ;
#330 = APPLICATION_PROTOCOL_DEFINITION ( 'international standard', 'config_control_design', 1994, #273 ) ;
#331 = DATE_TIME_ROLE ( 'creation_date' ) ;
#332 = COORDINATED_UNIVERSAL_TIME_OFFSET ( 1, 0, .AHEAD. ) ;
#333 = DIRECTION ( 'NONE',  ( 1.798245827342159528E-15, -0.8571673007021100021, 0.5150380749100580413 ) ) ;
#334 = DIRECTION ( 'NONE',  ( -3.491481338843133355E-15, 1.224646799147353207E-16, -1.000000000000000000 ) ) ;
#335 = AXIS2_PLACEMENT_3D ( 'NONE', #75, #50, #160 ) ;
#336 = EDGE_LOOP ( 'NONE', ( #240, #200 ) ) ;
#337 = DIRECTION ( 'NONE',  ( 3.491481338843133355E-15, -1.224646799147353207E-16, 1.000000000000000000 ) ) ;
ENDSEC;
END-ISO-10303-21;
