ISO-10303-21;
HEADER;
FILE_DESCRIPTION (( 'STEP AP203' ),
    '1' );
FILE_NAME ('5418.step',
    '2021-10-06T08:25:04',
    ( '' ),
    ( '' ),
    'SwSTEP 2.0',
    'SolidWorks 2019',
    '' );
FILE_SCHEMA (( 'CONFIG_CONTROL_DESIGN' ));
ENDSEC;

DATA;
#1 = CC_DESIGN_APPROVAL ( #31, ( #132 ) ) ;
#2 = EDGE_LOOP ( 'NONE', ( #49 ) ) ;
#3 = EDGE_LOOP ( 'NONE', ( #81 ) ) ;
#4 = CIRCLE ( 'NONE', #79, 0.8249999999999964029 ) ;
#5 = DIRECTION ( 'NONE',  ( 0.0000000000000000000, 1.000000000000000000, 0.0000000000000000000 ) ) ;
#6 = DIRECTION ( 'NONE',  ( -3.491481338843133355E-15, 1.224646799147353207E-16, -1.000000000000000000 ) ) ;
#7 = FACE_OUTER_BOUND ( 'NONE', #96, .T. ) ;
#8 = FACE_OUTER_BOUND ( 'NONE', #26, .T. ) ;
#9 = CONICAL_SURFACE ( 'NONE', #70, 0.8249999999999954037, 1.047197551196592746 ) ;
#10 = VERTEX_POINT ( 'NONE', #159 ) ;
#11 =( LENGTH_UNIT ( ) NAMED_UNIT ( * ) SI_UNIT ( .MILLI., .METRE. ) );
#12 = PERSON_AND_ORGANIZATION_ROLE ( 'creator' ) ;
#13 = PRODUCT_DEFINITION ( 'UNKNOWN', '', #132, #128 ) ;
#14 = EDGE_LOOP ( 'NONE', ( #189 ) ) ;
#15 = CC_DESIGN_PERSON_AND_ORGANIZATION_ASSIGNMENT ( #124, #184, ( #132 ) ) ;
#16 = CIRCLE ( 'NONE', #74, 0.8249999999999999556 ) ;
#17 = CYLINDRICAL_SURFACE ( 'NONE', #27, 0.8249999999999958478 ) ;
#18 = FACE_OUTER_BOUND ( 'NONE', #173, .T. ) ;
#19 = DIRECTION ( 'NONE',  ( 4.275831445896958607E-31, 1.000000000000000000, 1.224646799147353207E-16 ) ) ;
#20 = FACE_OUTER_BOUND ( 'NONE', #14, .T. ) ;
#21 = DATE_AND_TIME ( #94, #28 ) ;
#22 = APPROVAL_DATE_TIME ( #21, #153 ) ;
#23 = DATE_AND_TIME ( #123, #161 ) ;
#24 = DATE_AND_TIME ( #93, #188 ) ;
#25 = APPROVAL_ROLE ( '' ) ;
#26 = EDGE_LOOP ( 'NONE', ( #158 ) ) ;
#27 = AXIS2_PLACEMENT_3D ( 'NONE', #198, #177, #102 ) ;
#28 = LOCAL_TIME ( 10, 25, 4.000000000000000000, #183 ) ;
#29 = ORIENTED_EDGE ( 'NONE', *, *, #127, .F. ) ;
#30 = ADVANCED_FACE ( 'NONE', ( #156 ), #119, .F. ) ;
#31 = APPROVAL ( #142, 'UNSPECIFIED' ) ;
#32 = CARTESIAN_POINT ( 'NONE',  ( 1.326762908760390423E-13, 4.686749320818235233E-33, 38.00000000000000000 ) ) ;
#33 = DIRECTION ( 'NONE',  ( -4.275831445896958607E-31, -1.000000000000000000, -1.224646799147353207E-16 ) ) ;
#34 = DIRECTION ( 'NONE',  ( -3.491481338843133355E-15, 1.224646799147353207E-16, -1.000000000000000000 ) ) ;
#35 = CARTESIAN_POINT ( 'NONE',  ( 3.142333204958819389E-14, -1.892425610156524231E-14, 8.999999999999998224 ) ) ;
#36 = VERTEX_POINT ( 'NONE', #151 ) ;
#37 = CLOSED_SHELL ( 'NONE', ( #30, #152, #163, #112 ) ) ;
#38 = PERSON_AND_ORGANIZATION ( #90, #121 ) ;
#39 = MECHANICAL_CONTEXT ( 'NONE', #107, 'mechanical' ) ;
#40 = SECURITY_CLASSIFICATION_LEVEL ( 'unclassified' ) ;
#41 = AXIS2_PLACEMENT_3D ( 'NONE', #84, #67, #82 ) ;
#42 = COORDINATED_UNIVERSAL_TIME_OFFSET ( 1, 0, .AHEAD. ) ;
#43 = DATE_AND_TIME ( #180, #75 ) ;
#44 = CIRCLE ( 'NONE', #83, 0.6250000000000000000 ) ;
#45 = ADVANCED_FACE ( 'NONE', ( #20 ), #179, .T. ) ;
#46 = EDGE_LOOP ( 'NONE', ( #63 ) ) ;
#47 = EDGE_CURVE ( 'NONE', #53, #53, #16, .T. ) ;
#48 = CC_DESIGN_APPROVAL ( #153, ( #13 ) ) ;
#49 = ORIENTED_EDGE ( 'NONE', *, *, #200, .T. ) ;
#50 = DIRECTION ( 'NONE',  ( -4.275831445896958607E-31, -1.000000000000000000, -1.224646799147353207E-16 ) ) ;
#51 = FACE_OUTER_BOUND ( 'NONE', #46, .T. ) ;
#52 = CC_DESIGN_DATE_AND_TIME_ASSIGNMENT ( #141, #143, ( #13 ) ) ;
#53 = VERTEX_POINT ( 'NONE', #118 ) ;
#54 =( GEOMETRIC_REPRESENTATION_CONTEXT ( 3 ) GLOBAL_UNCERTAINTY_ASSIGNED_CONTEXT ( ( #157 ) ) GLOBAL_UNIT_ASSIGNED_CONTEXT ( ( #11, #203, #57 ) ) REPRESENTATION_CONTEXT ( 'NONE', 'WORKASPACE' ) );
#55 = CARTESIAN_POINT ( 'NONE',  ( 3.142333204958819389E-14, 0.8249999999999952927, 8.999999999999998224 ) ) ;
#56 = FACE_BOUND ( 'NONE', #2, .T. ) ;
#57 =( NAMED_UNIT ( * ) SI_UNIT ( $, .STERADIAN. ) SOLID_ANGLE_UNIT ( ) );
#58 = AXIS2_PLACEMENT_3D ( 'NONE', #32, #34, #19 ) ;
#59 = CC_DESIGN_SECURITY_CLASSIFICATION ( #136, ( #132 ) ) ;
#60 = APPROVAL_ROLE ( '' ) ;
#61 = EDGE_CURVE ( 'NONE', #178, #178, #4, .T. ) ;
#62 = APPROVAL ( #170, 'UNSPECIFIED' ) ;
#63 = ORIENTED_EDGE ( 'NONE', *, *, #200, .F. ) ;
#64 = CC_DESIGN_PERSON_AND_ORGANIZATION_ASSIGNMENT ( #104, #155, ( #132 ) ) ;
#65 = AXIS2_PLACEMENT_3D ( 'NONE', #176, #147, #134 ) ;
#66 = CARTESIAN_POINT ( 'NONE',  ( 1.663041344952610813E-15, -5.833163812987022174E-17, 0.4763139720814439926 ) ) ;
#67 = DIRECTION ( 'NONE',  ( -3.491481338843133355E-15, 1.224646799147353207E-16, -1.000000000000000000 ) ) ;
#68 = DIRECTION ( 'NONE',  ( 3.491481338843133355E-15, -1.224646799147353207E-16, 1.000000000000000000 ) ) ;
#69 = CARTESIAN_POINT ( 'NONE',  ( 1.663041344952610813E-15, -5.833163812987022174E-17, 0.4763139720814439926 ) ) ;
#70 = AXIS2_PLACEMENT_3D ( 'NONE', #69, #68, #135 ) ;
#71 = VERTEX_POINT ( 'NONE', #138 ) ;
#72 = PERSON_AND_ORGANIZATION_ROLE ( 'design_owner' ) ;
#73 = PERSON_AND_ORGANIZATION ( #90, #121 ) ;
#74 = AXIS2_PLACEMENT_3D ( 'NONE', #160, #6, #5 ) ;
#75 = LOCAL_TIME ( 10, 25, 4.000000000000000000, #78 ) ;
#76 = ADVANCED_FACE ( 'NONE', ( #18, #149 ), #17, .T. ) ;
#77 = PERSON_AND_ORGANIZATION ( #90, #121 ) ;
#78 = COORDINATED_UNIVERSAL_TIME_OFFSET ( 1, 0, .AHEAD. ) ;
#79 = AXIS2_PLACEMENT_3D ( 'NONE', #101, #99, #162 ) ;
#80 = APPROVAL_DATE_TIME ( #43, #62 ) ;
#81 = ORIENTED_EDGE ( 'NONE', *, *, #47, .F. ) ;
#82 = DIRECTION ( 'NONE',  ( 0.0000000000000000000, 1.000000000000000000, 0.0000000000000000000 ) ) ;
#83 = AXIS2_PLACEMENT_3D ( 'NONE', #137, #197, #195 ) ;
#84 = CARTESIAN_POINT ( 'NONE',  ( 3.142333204958819389E-14, -1.102182119232617517E-15, 8.999999999999998224 ) ) ;
#85 = CARTESIAN_POINT ( 'NONE',  ( 3.142333204958819389E-14, -1.892425610156524231E-14, 8.999999999999998224 ) ) ;
#86 = FACE_OUTER_BOUND ( 'NONE', #3, .T. ) ;
#87 = FACE_OUTER_BOUND ( 'NONE', #172, .T. ) ;
#88 = APPROVAL_PERSON_ORGANIZATION ( #77, #62, #25 ) ;
#89 = PERSON_AND_ORGANIZATION ( #90, #121 ) ;
#90 = PERSON ( 'UNSPECIFIED', 'UNSPECIFIED', 'UNSPECIFIED', ('UNSPECIFIED'), ('UNSPECIFIED'), ('UNSPECIFIED') ) ;
#91 = CARTESIAN_POINT ( 'NONE',  ( 0.0000000000000000000, 0.0000000000000000000, 0.0000000000000000000 ) ) ;
#92 = CC_DESIGN_PERSON_AND_ORGANIZATION_ASSIGNMENT ( #89, #12, ( #13 ) ) ;
#93 = CALENDAR_DATE ( 2021, 6, 10 ) ;
#94 = CALENDAR_DATE ( 2021, 6, 10 ) ;
#95 = SHAPE_DEFINITION_REPRESENTATION ( #202, #116 ) ;
#96 = EDGE_LOOP ( 'NONE', ( #130 ) ) ;
#97 = AXIS2_PLACEMENT_3D ( 'NONE', #85, #145, #50 ) ;
#98 = CONICAL_SURFACE ( 'NONE', #174, 0.6250000000000000000, 0.7853981633974512766 ) ;
#99 = DIRECTION ( 'NONE',  ( -3.491481338843133355E-15, 1.224646799147353207E-16, -1.000000000000000000 ) ) ;
#100 = EDGE_CURVE ( 'NONE', #36, #36, #196, .T. ) ;
#101 = CARTESIAN_POINT ( 'NONE',  ( 3.142333204958819389E-14, -1.102182119232617517E-15, 8.999999999999998224 ) ) ;
#102 = DIRECTION ( 'NONE',  ( 4.275831445896958607E-31, 1.000000000000000000, 1.224646799147353207E-16 ) ) ;
#103 = AXIS2_PLACEMENT_3D ( 'NONE', #91, #168, #110 ) ;
#104 = PERSON_AND_ORGANIZATION ( #90, #121 ) ;
#105 = MANIFOLD_SOLID_BREP ( 'Corps-Déplacer/Copier1[1]', #37 ) ;
#106 = PERSON_AND_ORGANIZATION ( #90, #121 ) ;
#107 = APPLICATION_CONTEXT ( 'configuration controlled 3d designs of mechanical parts and assemblies' ) ;
#108 = PERSON_AND_ORGANIZATION ( #90, #121 ) ;
#109 = AXIS2_PLACEMENT_3D ( 'NONE', #66, #148, #114 ) ;
#110 = DIRECTION ( 'NONE',  ( 1.000000000000000000, 0.0000000000000000000, 0.0000000000000000000 ) ) ;
#111 = ORIENTED_EDGE ( 'NONE', *, *, #61, .T. ) ;
#112 = ADVANCED_FACE ( 'NONE', ( #51 ), #133, .F. ) ;
#113 = ORIENTED_EDGE ( 'NONE', *, *, #127, .T. ) ;
#114 = DIRECTION ( 'NONE',  ( 4.668921077302415797E-31, 1.000000000000000000, 1.314184451497588408E-16 ) ) ;
#115 = DIRECTION ( 'NONE',  ( 0.0000000000000000000, 1.000000000000000000, 0.0000000000000000000 ) ) ;
#116 = ADVANCED_BREP_SHAPE_REPRESENTATION ( '5418', ( #105, #167, #103 ), #54 ) ;
#117 = LOCAL_TIME ( 10, 25, 4.000000000000000000, #185 ) ;
#118 = CARTESIAN_POINT ( 'NONE',  ( 1.319779946082704535E-13, 0.8249999999999952927, 37.79999999999999716 ) ) ;
#119 = PLANE ( 'NONE',  #181 ) ;
#120 = CALENDAR_DATE ( 2021, 6, 10 ) ;
#121 = ORGANIZATION ( 'UNSPECIFIED', 'UNSPECIFIED', '' ) ;
#122 = APPROVAL_ROLE ( '' ) ;
#123 = CALENDAR_DATE ( 2021, 6, 10 ) ;
#124 = PERSON_AND_ORGANIZATION ( #90, #121 ) ;
#125 = APPLICATION_PROTOCOL_DEFINITION ( 'international standard', 'config_control_design', 1994, #140 ) ;
#126 = APPROVAL_PERSON_ORGANIZATION ( #38, #153, #122 ) ;
#127 = EDGE_CURVE ( 'NONE', #10, #10, #187, .T. ) ;
#128 = DESIGN_CONTEXT ( 'detailed design', #140, 'design' ) ;
#129 = CC_DESIGN_PERSON_AND_ORGANIZATION_ASSIGNMENT ( #106, #72, ( #166 ) ) ;
#130 = ORIENTED_EDGE ( 'NONE', *, *, #47, .T. ) ;
#131 = CLOSED_SHELL ( 'NONE', ( #193, #76, #45 ) ) ;
#132 = PRODUCT_DEFINITION_FORMATION_WITH_SPECIFIED_SOURCE ( 'ANY', '', #166, .NOT_KNOWN. ) ;
#133 = PLANE ( 'NONE',  #58 ) ;
#134 = DIRECTION ( 'NONE',  ( 4.275831445896958607E-31, 1.000000000000000000, 1.224646799147353207E-16 ) ) ;
#135 = DIRECTION ( 'NONE',  ( -4.668921077302415797E-31, -1.000000000000000000, -1.314184451497588408E-16 ) ) ;
#136 = SECURITY_CLASSIFICATION ( '', '', #40 ) ;
#137 = CARTESIAN_POINT ( 'NONE',  ( 1.326762908760390423E-13, -4.653657836759941941E-15, 38.00000000000000000 ) ) ;
#138 = CARTESIAN_POINT ( 'NONE',  ( 1.326762908760390423E-13, 0.6249999999999953371, 38.00000000000000000 ) ) ;
#139 = APPROVAL_STATUS ( 'not_yet_approved' ) ;
#140 = APPLICATION_CONTEXT ( 'configuration controlled 3d designs of mechanical parts and assemblies' ) ;
#141 = DATE_AND_TIME ( #120, #117 ) ;
#142 = APPROVAL_STATUS ( 'not_yet_approved' ) ;
#143 = DATE_TIME_ROLE ( 'creation_date' ) ;
#144 = APPLICATION_PROTOCOL_DEFINITION ( 'international standard', 'config_control_design', 1994, #107 ) ;
#145 = DIRECTION ( 'NONE',  ( 3.491481338843133355E-15, -1.224646799147353207E-16, 1.000000000000000000 ) ) ;
#146 = CC_DESIGN_DATE_AND_TIME_ASSIGNMENT ( #24, #154, ( #136 ) ) ;
#147 = DIRECTION ( 'NONE',  ( -3.491481338843133355E-15, 1.224646799147353207E-16, -1.000000000000000000 ) ) ;
#148 = DIRECTION ( 'NONE',  ( -3.491481338843133355E-15, 1.224646799147353207E-16, -1.000000000000000000 ) ) ;
#149 = FACE_OUTER_BOUND ( 'NONE', #190, .T. ) ;
#150 = CC_DESIGN_APPROVAL ( #62, ( #136 ) ) ;
#151 = CARTESIAN_POINT ( 'NONE',  ( 1.663041344952611208E-15, 0.8249999999999952927, 0.4763139720814441036 ) ) ;
#152 = ADVANCED_FACE ( 'NONE', ( #87, #7 ), #192, .T. ) ;
#153 = APPROVAL ( #139, 'UNSPECIFIED' ) ;
#154 = DATE_TIME_ROLE ( 'classification_date' ) ;
#155 = PERSON_AND_ORGANIZATION_ROLE ( 'design_supplier' ) ;
#156 = FACE_OUTER_BOUND ( 'NONE', #171, .T. ) ;
#157 = UNCERTAINTY_MEASURE_WITH_UNIT (LENGTH_MEASURE( 1.000000000000000082E-05 ), #11, 'distance_accuracy_value', 'NONE');
#158 = ORIENTED_EDGE ( 'NONE', *, *, #100, .T. ) ;
#159 = CARTESIAN_POINT ( 'NONE',  ( 3.142333204958819389E-14, 0.8249999999999952927, 8.999999999999998224 ) ) ;
#160 = CARTESIAN_POINT ( 'NONE',  ( 1.319779946082704535E-13, -4.629164900776995227E-15, 37.79999999999999716 ) ) ;
#161 = LOCAL_TIME ( 10, 25, 4.000000000000000000, #199 ) ;
#162 = DIRECTION ( 'NONE',  ( 0.0000000000000000000, 1.000000000000000000, 0.0000000000000000000 ) ) ;
#163 = ADVANCED_FACE ( 'NONE', ( #86, #56 ), #98, .T. ) ;
#164 = DIRECTION ( 'NONE',  ( 3.491481338843133355E-15, -1.224646799147353207E-16, 1.000000000000000000 ) ) ;
#165 = PRODUCT_RELATED_PRODUCT_CATEGORY ( 'detail', '', ( #166 ) ) ;
#166 = PRODUCT ( '5418', '5418', '', ( #39 ) ) ;
#167 = MANIFOLD_SOLID_BREP ( 'Corps-Déplacer/Copier1[2]', #131 ) ;
#168 = DIRECTION ( 'NONE',  ( 0.0000000000000000000, 0.0000000000000000000, 1.000000000000000000 ) ) ;
#169 = PERSON_AND_ORGANIZATION_ROLE ( 'classification_officer' ) ;
#170 = APPROVAL_STATUS ( 'not_yet_approved' ) ;
#171 = EDGE_LOOP ( 'NONE', ( #113 ) ) ;
#172 = EDGE_LOOP ( 'NONE', ( #29 ) ) ;
#173 = EDGE_LOOP ( 'NONE', ( #191 ) ) ;
#174 = AXIS2_PLACEMENT_3D ( 'NONE', #175, #194, #115 ) ;
#175 = CARTESIAN_POINT ( 'NONE',  ( 1.326762908760390423E-13, -4.653657836759941941E-15, 38.00000000000000000 ) ) ;
#176 = CARTESIAN_POINT ( 'NONE',  ( 0.0000000000000000000, 0.0000000000000000000, 0.0000000000000000000 ) ) ;
#177 = DIRECTION ( 'NONE',  ( -3.491481338843133355E-15, 1.224646799147353207E-16, -1.000000000000000000 ) ) ;
#178 = VERTEX_POINT ( 'NONE', #55 ) ;
#179 = PLANE ( 'NONE',  #97 ) ;
#180 = CALENDAR_DATE ( 2021, 6, 10 ) ;
#181 = AXIS2_PLACEMENT_3D ( 'NONE', #35, #164, #33 ) ;
#182 = APPROVAL_PERSON_ORGANIZATION ( #73, #31, #60 ) ;
#183 = COORDINATED_UNIVERSAL_TIME_OFFSET ( 1, 0, .AHEAD. ) ;
#184 = PERSON_AND_ORGANIZATION_ROLE ( 'creator' ) ;
#185 = COORDINATED_UNIVERSAL_TIME_OFFSET ( 1, 0, .AHEAD. ) ;
#186 = CC_DESIGN_PERSON_AND_ORGANIZATION_ASSIGNMENT ( #108, #169, ( #136 ) ) ;
#187 = CIRCLE ( 'NONE', #41, 0.8249999999999964029 ) ;
#188 = LOCAL_TIME ( 10, 25, 4.000000000000000000, #42 ) ;
#189 = ORIENTED_EDGE ( 'NONE', *, *, #61, .F. ) ;
#190 = EDGE_LOOP ( 'NONE', ( #111 ) ) ;
#191 = ORIENTED_EDGE ( 'NONE', *, *, #100, .F. ) ;
#192 = CYLINDRICAL_SURFACE ( 'NONE', #65, 0.8249999999999982903 ) ;
#193 = ADVANCED_FACE ( 'NONE', ( #8 ), #9, .T. ) ;
#194 = DIRECTION ( 'NONE',  ( -3.491481338843133355E-15, 1.224646799147353207E-16, -1.000000000000000000 ) ) ;
#195 = DIRECTION ( 'NONE',  ( 0.0000000000000000000, 1.000000000000000000, 0.0000000000000000000 ) ) ;
#196 = CIRCLE ( 'NONE', #109, 0.8249999999999954037 ) ;
#197 = DIRECTION ( 'NONE',  ( -3.491481338843133355E-15, 1.224646799147353207E-16, -1.000000000000000000 ) ) ;
#198 = CARTESIAN_POINT ( 'NONE',  ( 0.0000000000000000000, 0.0000000000000000000, 0.0000000000000000000 ) ) ;
#199 = COORDINATED_UNIVERSAL_TIME_OFFSET ( 1, 0, .AHEAD. ) ;
#200 = EDGE_CURVE ( 'NONE', #71, #71, #44, .T. ) ;
#201 = APPROVAL_DATE_TIME ( #23, #31 ) ;
#202 = PRODUCT_DEFINITION_SHAPE ( 'NONE', 'NONE',  #13 ) ;
#203 =( NAMED_UNIT ( * ) PLANE_ANGLE_UNIT ( ) SI_UNIT ( $, .RADIAN. ) );
ENDSEC;
END-ISO-10303-21;
