ISO-10303-21;
HEADER;
FILE_DESCRIPTION (( 'STEP AP203' ),
    '1' );
FILE_NAME ('5398.step',
    '2021-12-06T12:59:47',
    ( '' ),
    ( '' ),
    'SwSTEP 2.0',
    'SolidWorks 2019',
    '' );
FILE_SCHEMA (( 'CONFIG_CONTROL_DESIGN' ));
ENDSEC;

DATA;
#1 = EDGE_LOOP ( 'NONE', ( #9 ) ) ;
#2 = CYLINDRICAL_SURFACE ( 'NONE', #45, 8.000000000000000000 ) ;
#3 = FACE_OUTER_BOUND ( 'NONE', #51, .T. ) ;
#4 = PERSON_AND_ORGANIZATION ( #107, #123 ) ;
#5 = PERSON_AND_ORGANIZATION_ROLE ( 'creator' ) ;
#6 = APPLICATION_PROTOCOL_DEFINITION ( 'international standard', 'config_control_design', 1994, #154 ) ;
#7 = PRODUCT_DEFINITION_FORMATION_WITH_SPECIFIED_SOURCE ( 'ANY', '', #145, .NOT_KNOWN. ) ;
#8 = VERTEX_POINT ( 'NONE', #73 ) ;
#9 = ORIENTED_EDGE ( 'NONE', *, *, #158, .T. ) ;
#10 = ORIENTED_EDGE ( 'NONE', *, *, #168, .F. ) ;
#11 = FACE_OUTER_BOUND ( 'NONE', #104, .T. ) ;
#12 = EDGE_LOOP ( 'NONE', ( #100 ) ) ;
#13 = PERSON_AND_ORGANIZATION_ROLE ( 'design_owner' ) ;
#14 = APPROVAL_ROLE ( '' ) ;
#15 = CALENDAR_DATE ( 2021, 6, 12 ) ;
#16 = LOCAL_TIME ( 13, 59, 47.00000000000000000, #166 ) ;
#17 = CC_DESIGN_APPROVAL ( #81, ( #122 ) ) ;
#18 = CC_DESIGN_DATE_AND_TIME_ASSIGNMENT ( #67, #125, ( #133 ) ) ;
#19 = DIRECTION ( 'NONE',  ( -3.491481338843133355E-15, 1.224646799147353454E-16, -1.000000000000000000 ) ) ;
#20 = UNCERTAINTY_MEASURE_WITH_UNIT (LENGTH_MEASURE( 1.000000000000000082E-05 ), #139, 'distance_accuracy_value', 'NONE');
#21 = EDGE_LOOP ( 'NONE', ( #134 ) ) ;
#22 = PLANE ( 'NONE',  #98 ) ;
#23 = DIRECTION ( 'NONE',  ( -3.491481338843133355E-15, 1.224646799147353454E-16, -1.000000000000000000 ) ) ;
#24 = CARTESIAN_POINT ( 'NONE',  ( 0.0000000000000000000, 0.0000000000000000000, 0.0000000000000000000 ) ) ;
#25 = CC_DESIGN_PERSON_AND_ORGANIZATION_ASSIGNMENT ( #28, #82, ( #133 ) ) ;
#26 = PERSON_AND_ORGANIZATION_ROLE ( 'creator' ) ;
#27 = PERSON_AND_ORGANIZATION_ROLE ( 'design_supplier' ) ;
#28 = PERSON_AND_ORGANIZATION ( #107, #123 ) ;
#29 = CARTESIAN_POINT ( 'NONE',  ( 1.047444401652939612E-15, 31.50000000000000000, 0.2999999999999999334 ) ) ;
#30 = APPROVAL_STATUS ( 'not_yet_approved' ) ;
#31 = SHAPE_DEFINITION_REPRESENTATION ( #49, #83 ) ;
#32 = CC_DESIGN_PERSON_AND_ORGANIZATION_ASSIGNMENT ( #136, #13, ( #145 ) ) ;
#33 = AXIS2_PLACEMENT_3D ( 'NONE', #90, #144, #52 ) ;
#34 = ORIENTED_EDGE ( 'NONE', *, *, #168, .T. ) ;
#35 = ADVANCED_FACE ( 'NONE', ( #131, #72 ), #160, .T. ) ;
#36 = DIRECTION ( 'NONE',  ( 4.275831445896959482E-31, 1.000000000000000000, 1.224646799147353454E-16 ) ) ;
#37 = CC_DESIGN_APPROVAL ( #70, ( #133 ) ) ;
#38 = CARTESIAN_POINT ( 'NONE',  ( -5.024101948928927457E-30, 8.000000000000000000, -1.438959988998140357E-15 ) ) ;
#39 = APPROVAL_ROLE ( '' ) ;
#40 =( NAMED_UNIT ( * ) PLANE_ANGLE_UNIT ( ) SI_UNIT ( $, .RADIAN. ) );
#41 = DATE_AND_TIME ( #110, #16 ) ;
#42 = PERSON_AND_ORGANIZATION ( #107, #123 ) ;
#43 = DIRECTION ( 'NONE',  ( 1.000000000000000000, 0.0000000000000000000, 0.0000000000000000000 ) ) ;
#44 = APPROVAL_DATE_TIME ( #60, #70 ) ;
#45 = AXIS2_PLACEMENT_3D ( 'NONE', #50, #120, #103 ) ;
#46 = APPROVAL ( #163, 'UNSPECIFIED' ) ;
#47 = EDGE_LOOP ( 'NONE', ( #64 ) ) ;
#48 = FACE_OUTER_BOUND ( 'NONE', #1, .T. ) ;
#49 = PRODUCT_DEFINITION_SHAPE ( 'NONE', 'NONE',  #122 ) ;
#50 = CARTESIAN_POINT ( 'NONE',  ( 0.0000000000000000000, 0.0000000000000000000, 0.0000000000000000000 ) ) ;
#51 = EDGE_LOOP ( 'NONE', ( #10 ) ) ;
#52 = DIRECTION ( 'NONE',  ( 4.275831445896959482E-31, 1.000000000000000000, 1.224646799147353454E-16 ) ) ;
#53 = AXIS2_PLACEMENT_3D ( 'NONE', #66, #80, #43 ) ;
#54 = CALENDAR_DATE ( 2021, 6, 12 ) ;
#55 = PERSON_AND_ORGANIZATION ( #107, #123 ) ;
#56 = LOCAL_TIME ( 13, 59, 47.00000000000000000, #138 ) ;
#57 = PERSON_AND_ORGANIZATION ( #107, #123 ) ;
#58 = APPLICATION_PROTOCOL_DEFINITION ( 'international standard', 'config_control_design', 1994, #86 ) ;
#59 = CC_DESIGN_PERSON_AND_ORGANIZATION_ASSIGNMENT ( #55, #27, ( #7 ) ) ;
#60 = DATE_AND_TIME ( #115, #91 ) ;
#61 = VERTEX_POINT ( 'NONE', #167 ) ;
#62 = FACE_OUTER_BOUND ( 'NONE', #47, .T. ) ;
#63 = DIRECTION ( 'NONE',  ( -3.491481338843133355E-15, 1.224646799147353454E-16, -1.000000000000000000 ) ) ;
#64 = ORIENTED_EDGE ( 'NONE', *, *, #143, .F. ) ;
#65 = PERSON_AND_ORGANIZATION ( #107, #123 ) ;
#66 = CARTESIAN_POINT ( 'NONE',  ( 0.0000000000000000000, 0.0000000000000000000, 0.0000000000000000000 ) ) ;
#67 = DATE_AND_TIME ( #15, #56 ) ;
#68 = LOCAL_TIME ( 13, 59, 47.00000000000000000, #113 ) ;
#69 = APPROVAL_PERSON_ORGANIZATION ( #137, #81, #14 ) ;
#70 = APPROVAL ( #30, 'UNSPECIFIED' ) ;
#71 = DIRECTION ( 'NONE',  ( 4.333342374871280669E-31, 1.000000000000000000, 1.219727444046192488E-16 ) ) ;
#72 = FACE_OUTER_BOUND ( 'NONE', #21, .T. ) ;
#73 = CARTESIAN_POINT ( 'NONE',  ( 6.842277657836020854E-46, 8.000000000000000000, 0.0000000000000000000 ) ) ;
#74 = CLOSED_SHELL ( 'NONE', ( #162, #153, #35, #92 ) ) ;
#75 = CC_DESIGN_SECURITY_CLASSIFICATION ( #133, ( #7 ) ) ;
#76 = DIRECTION ( 'NONE',  ( 4.275831445896959482E-31, 1.000000000000000000, 1.224646799147353454E-16 ) ) ;
#77 = CARTESIAN_POINT ( 'NONE',  ( 1.047444401652939612E-15, 8.000000000000000000, 0.2999999999999999334 ) ) ;
#78 = DATE_TIME_ROLE ( 'creation_date' ) ;
#79 = AXIS2_PLACEMENT_3D ( 'NONE', #89, #23, #142 ) ;
#80 = DIRECTION ( 'NONE',  ( 0.0000000000000000000, 0.0000000000000000000, 1.000000000000000000 ) ) ;
#81 = APPROVAL ( #151, 'UNSPECIFIED' ) ;
#82 = PERSON_AND_ORGANIZATION_ROLE ( 'classification_officer' ) ;
#83 = ADVANCED_BREP_SHAPE_REPRESENTATION ( '5398', ( #99, #53 ), #106 ) ;
#84 = CIRCLE ( 'NONE', #146, 8.000000000000000000 ) ;
#85 = CC_DESIGN_APPROVAL ( #46, ( #7 ) ) ;
#86 = APPLICATION_CONTEXT ( 'configuration controlled 3d designs of mechanical parts and assemblies' ) ;
#87 = CIRCLE ( 'NONE', #157, 31.50000000000000000 ) ;
#88 = CARTESIAN_POINT ( 'NONE',  ( -1.346886905457542040E-29, 4.724243315384853326E-31, -3.857637417314163478E-15 ) ) ;
#89 = CARTESIAN_POINT ( 'NONE',  ( 1.047444401652926202E-15, -3.673940397442012043E-17, 0.2999999999999960476 ) ) ;
#90 = CARTESIAN_POINT ( 'NONE',  ( -3.420665156717566885E-30, 1.199807826129486524E-31, -9.797174393178827630E-16 ) ) ;
#91 = LOCAL_TIME ( 13, 59, 47.00000000000000000, #128 ) ;
#92 = ADVANCED_FACE ( 'NONE', ( #118, #3 ), #2, .F. ) ;
#93 = CARTESIAN_POINT ( 'NONE',  ( 1.047444401652936259E-15, -3.673940397442047172E-17, 0.2999999999999989342 ) ) ;
#94 =( NAMED_UNIT ( * ) SI_UNIT ( $, .STERADIAN. ) SOLID_ANGLE_UNIT ( ) );
#95 = CC_DESIGN_PERSON_AND_ORGANIZATION_ASSIGNMENT ( #65, #26, ( #122 ) ) ;
#96 = APPROVAL_DATE_TIME ( #111, #81 ) ;
#97 = SECURITY_CLASSIFICATION_LEVEL ( 'unclassified' ) ;
#98 = AXIS2_PLACEMENT_3D ( 'NONE', #38, #63, #135 ) ;
#99 = MANIFOLD_SOLID_BREP ( 'Corps-Déplacer/Copier1', #74 ) ;
#100 = ORIENTED_EDGE ( 'NONE', *, *, #109, .T. ) ;
#101 = APPROVAL_PERSON_ORGANIZATION ( #4, #46, #39 ) ;
#102 = DIRECTION ( 'NONE',  ( 3.491481338843133355E-15, -1.224646799147353454E-16, 1.000000000000000000 ) ) ;
#103 = DIRECTION ( 'NONE',  ( 4.275831445896959482E-31, 1.000000000000000000, 1.224646799147353454E-16 ) ) ;
#104 = EDGE_LOOP ( 'NONE', ( #130 ) ) ;
#105 = DIRECTION ( 'NONE',  ( -3.491481338843133355E-15, 1.224646799147353454E-16, -1.000000000000000000 ) ) ;
#106 =( GEOMETRIC_REPRESENTATION_CONTEXT ( 3 ) GLOBAL_UNCERTAINTY_ASSIGNED_CONTEXT ( ( #20 ) ) GLOBAL_UNIT_ASSIGNED_CONTEXT ( ( #139, #40, #94 ) ) REPRESENTATION_CONTEXT ( 'NONE', 'WORKASPACE' ) );
#107 = PERSON ( 'UNSPECIFIED', 'UNSPECIFIED', 'UNSPECIFIED', ('UNSPECIFIED'), ('UNSPECIFIED'), ('UNSPECIFIED') ) ;
#108 = MECHANICAL_CONTEXT ( 'NONE', #154, 'mechanical' ) ;
#109 = EDGE_CURVE ( 'NONE', #8, #8, #114, .T. ) ;
#110 = CALENDAR_DATE ( 2021, 6, 12 ) ;
#111 = DATE_AND_TIME ( #121, #68 ) ;
#112 = APPROVAL_DATE_TIME ( #41, #46 ) ;
#113 = COORDINATED_UNIVERSAL_TIME_OFFSET ( 1, 0, .AHEAD. ) ;
#114 = CIRCLE ( 'NONE', #33, 8.000000000000000000 ) ;
#115 = CALENDAR_DATE ( 2021, 6, 12 ) ;
#116 = ORIENTED_EDGE ( 'NONE', *, *, #109, .F. ) ;
#117 = CYLINDRICAL_SURFACE ( 'NONE', #149, 31.50000000000000000 ) ;
#118 = FACE_OUTER_BOUND ( 'NONE', #12, .T. ) ;
#119 = CARTESIAN_POINT ( 'NONE',  ( 1.047444401652934682E-15, 8.000000000000000000, 0.2999999999999984346 ) ) ;
#120 = DIRECTION ( 'NONE',  ( -3.491481338843133355E-15, 1.224646799147353454E-16, -1.000000000000000000 ) ) ;
#121 = CALENDAR_DATE ( 2021, 6, 12 ) ;
#122 = PRODUCT_DEFINITION ( 'UNKNOWN', '', #7, #155 ) ;
#123 = ORGANIZATION ( 'UNSPECIFIED', 'UNSPECIFIED', '' ) ;
#124 = COORDINATED_UNIVERSAL_TIME_OFFSET ( 1, 0, .AHEAD. ) ;
#125 = DATE_TIME_ROLE ( 'classification_date' ) ;
#126 = AXIS2_PLACEMENT_3D ( 'NONE', #119, #102, #147 ) ;
#127 = CC_DESIGN_DATE_AND_TIME_ASSIGNMENT ( #148, #78, ( #122 ) ) ;
#128 = COORDINATED_UNIVERSAL_TIME_OFFSET ( 1, 0, .AHEAD. ) ;
#129 = CIRCLE ( 'NONE', #79, 31.50000000000000000 ) ;
#130 = ORIENTED_EDGE ( 'NONE', *, *, #143, .T. ) ;
#131 = FACE_BOUND ( 'NONE', #141, .T. ) ;
#132 = CC_DESIGN_PERSON_AND_ORGANIZATION_ASSIGNMENT ( #42, #5, ( #7 ) ) ;
#133 = SECURITY_CLASSIFICATION ( '', '', #97 ) ;
#134 = ORIENTED_EDGE ( 'NONE', *, *, #158, .F. ) ;
#135 = DIRECTION ( 'NONE',  ( 4.275831445896959482E-31, 1.000000000000000000, 1.224646799147353454E-16 ) ) ;
#136 = PERSON_AND_ORGANIZATION ( #107, #123 ) ;
#137 = PERSON_AND_ORGANIZATION ( #107, #123 ) ;
#138 = COORDINATED_UNIVERSAL_TIME_OFFSET ( 1, 0, .AHEAD. ) ;
#139 =( LENGTH_UNIT ( ) NAMED_UNIT ( * ) SI_UNIT ( .MILLI., .METRE. ) );
#140 = LOCAL_TIME ( 13, 59, 47.00000000000000000, #124 ) ;
#141 = EDGE_LOOP ( 'NONE', ( #34 ) ) ;
#142 = DIRECTION ( 'NONE',  ( 4.279844320860524021E-31, 1.000000000000000000, 1.221878638832870080E-16 ) ) ;
#143 = EDGE_CURVE ( 'NONE', #61, #61, #87, .T. ) ;
#144 = DIRECTION ( 'NONE',  ( -3.491481338843133355E-15, 1.224646799147353454E-16, -1.000000000000000000 ) ) ;
#145 = PRODUCT ( '5398', '5398', '', ( #108 ) ) ;
#146 = AXIS2_PLACEMENT_3D ( 'NONE', #93, #19, #71 ) ;
#147 = DIRECTION ( 'NONE',  ( -4.275831445896959482E-31, -1.000000000000000000, -1.224646799147353454E-16 ) ) ;
#148 = DATE_AND_TIME ( #54, #140 ) ;
#149 = AXIS2_PLACEMENT_3D ( 'NONE', #24, #159, #76 ) ;
#150 = VERTEX_POINT ( 'NONE', #29 ) ;
#151 = APPROVAL_STATUS ( 'not_yet_approved' ) ;
#152 = APPROVAL_ROLE ( '' ) ;
#153 = ADVANCED_FACE ( 'NONE', ( #48, #62 ), #117, .T. ) ;
#154 = APPLICATION_CONTEXT ( 'configuration controlled 3d designs of mechanical parts and assemblies' ) ;
#155 = DESIGN_CONTEXT ( 'detailed design', #86, 'design' ) ;
#156 = EDGE_LOOP ( 'NONE', ( #116 ) ) ;
#157 = AXIS2_PLACEMENT_3D ( 'NONE', #88, #105, #36 ) ;
#158 = EDGE_CURVE ( 'NONE', #150, #150, #129, .T. ) ;
#159 = DIRECTION ( 'NONE',  ( -3.491481338843133355E-15, 1.224646799147353454E-16, -1.000000000000000000 ) ) ;
#160 = PLANE ( 'NONE',  #126 ) ;
#161 = FACE_BOUND ( 'NONE', #156, .T. ) ;
#162 = ADVANCED_FACE ( 'NONE', ( #11, #161 ), #22, .T. ) ;
#163 = APPROVAL_STATUS ( 'not_yet_approved' ) ;
#164 = VERTEX_POINT ( 'NONE', #77 ) ;
#165 = PRODUCT_RELATED_PRODUCT_CATEGORY ( 'detail', '', ( #145 ) ) ;
#166 = COORDINATED_UNIVERSAL_TIME_OFFSET ( 1, 0, .AHEAD. ) ;
#167 = CARTESIAN_POINT ( 'NONE',  ( 2.736911063134408342E-45, 31.50000000000000000, 0.0000000000000000000 ) ) ;
#168 = EDGE_CURVE ( 'NONE', #164, #164, #84, .T. ) ;
#169 = APPROVAL_PERSON_ORGANIZATION ( #57, #70, #152 ) ;
ENDSEC;
END-ISO-10303-21;
