ISO-10303-21;
HEADER;
FILE_DESCRIPTION (( 'STEP AP203' ),
    '1' );
FILE_NAME ('5389.STEP',
    '2021-10-05T09:08:21',
    ( '' ),
    ( '' ),
    'SwSTEP 2.0',
    'SolidWorks 2019',
    '' );
FILE_SCHEMA (( 'CONFIG_CONTROL_DESIGN' ));
ENDSEC;

DATA;
#1 = AXIS2_PLACEMENT_3D ( 'NONE', #104, #74, #199 ) ;
#2 = LOCAL_TIME ( 11, 8, 21.00000000000000000, #36 ) ;
#3 = DIRECTION ( 'NONE',  ( -3.491481338843133355E-15, 1.224646799147353207E-16, -1.000000000000000000 ) ) ;
#4 = ADVANCED_FACE ( 'NONE', ( #134, #146 ), #101, .T. ) ;
#5 = PERSON_AND_ORGANIZATION ( #6, #145 ) ;
#6 = PERSON ( 'UNSPECIFIED', 'UNSPECIFIED', 'UNSPECIFIED', ('UNSPECIFIED'), ('UNSPECIFIED'), ('UNSPECIFIED') ) ;
#7 = EDGE_LOOP ( 'NONE', ( #71 ) ) ;
#8 = AXIS2_PLACEMENT_3D ( 'NONE', #38, #51, #41 ) ;
#9 = DIRECTION ( 'NONE',  ( -4.275831445896958607E-31, -1.000000000000000000, -1.224646799147353207E-16 ) ) ;
#10 = EDGE_LOOP ( 'NONE', ( #109 ) ) ;
#11 = EDGE_CURVE ( 'NONE', #62, #62, #63, .T. ) ;
#12 = DATE_AND_TIME ( #91, #185 ) ;
#13 = CALENDAR_DATE ( 2021, 5, 10 ) ;
#14 = DATE_TIME_ROLE ( 'creation_date' ) ;
#15 = CYLINDRICAL_SURFACE ( 'NONE', #34, 3.749999999999996447 ) ;
#16 = AXIS2_PLACEMENT_3D ( 'NONE', #24, #132, #88 ) ;
#17 = APPROVAL_STATUS ( 'not_yet_approved' ) ;
#18 = DATE_AND_TIME ( #52, #157 ) ;
#19 = PERSON_AND_ORGANIZATION ( #6, #145 ) ;
#20 = UNCERTAINTY_MEASURE_WITH_UNIT (LENGTH_MEASURE( 1.000000000000000082E-05 ), #94, 'distance_accuracy_value', 'NONE');
#21 = PERSON_AND_ORGANIZATION ( #6, #145 ) ;
#22 = EDGE_LOOP ( 'NONE', ( #54 ) ) ;
#23 = CIRCLE ( 'NONE', #76, 3.749999999999993339 ) ;
#24 = CARTESIAN_POINT ( 'NONE',  ( 2.583696190743918430E-13, 2.212145679426226013E-32, 74.00000000000000000 ) ) ;
#25 = APPROVAL_STATUS ( 'not_yet_approved' ) ;
#26 = DIRECTION ( 'NONE',  ( 3.491481338843133355E-15, -1.224646799147353207E-16, 1.000000000000000000 ) ) ;
#27 = PLANE ( 'NONE',  #193 ) ;
#28 = DIRECTION ( 'NONE',  ( -4.275831445896958607E-31, -1.000000000000000000, -1.224646799147353207E-16 ) ) ;
#29 = VERTEX_POINT ( 'NONE', #80 ) ;
#30 = CARTESIAN_POINT ( 'NONE',  ( 8.728703347107833388E-14, 3.749999999999990230, 25.00000000000000000 ) ) ;
#31 = CC_DESIGN_PERSON_AND_ORGANIZATION_ASSIGNMENT ( #19, #177, ( #202 ) ) ;
#32 = PERSON_AND_ORGANIZATION ( #6, #145 ) ;
#33 = DATE_AND_TIME ( #13, #147 ) ;
#34 = AXIS2_PLACEMENT_3D ( 'NONE', #96, #137, #44 ) ;
#35 = CC_DESIGN_APPROVAL ( #55, ( #70 ) ) ;
#36 = COORDINATED_UNIVERSAL_TIME_OFFSET ( 1, 0, .AHEAD. ) ;
#37 = ORIENTED_EDGE ( 'NONE', *, *, #173, .T. ) ;
#38 = CARTESIAN_POINT ( 'NONE',  ( 2.583696190743918430E-13, -9.062386313690413585E-15, 74.00000000000000000 ) ) ;
#39 = APPROVAL_PERSON_ORGANIZATION ( #151, #55, #66 ) ;
#40 = DIRECTION ( 'NONE',  ( 0.0000000000000000000, 1.000000000000000000, 0.0000000000000000000 ) ) ;
#41 = DIRECTION ( 'NONE',  ( 0.0000000000000000000, 1.000000000000000000, 0.0000000000000000000 ) ) ;
#42 = ADVANCED_FACE ( 'NONE', ( #167, #118 ), #179, .T. ) ;
#43 = DIRECTION ( 'NONE',  ( 4.108650548026113079E-31, 1.000000000000000000, 1.156482317317874190E-16 ) ) ;
#44 = DIRECTION ( 'NONE',  ( 4.275831445896958607E-31, 1.000000000000000000, 1.224646799147353207E-16 ) ) ;
#45 = EDGE_CURVE ( 'NONE', #29, #29, #123, .T. ) ;
#46 = PERSON_AND_ORGANIZATION ( #6, #145 ) ;
#47 = APPROVAL_ROLE ( '' ) ;
#48 =( NAMED_UNIT ( * ) PLANE_ANGLE_UNIT ( ) SI_UNIT ( $, .RADIAN. ) );
#49 = CC_DESIGN_PERSON_AND_ORGANIZATION_ASSIGNMENT ( #46, #95, ( #92 ) ) ;
#50 = APPLICATION_CONTEXT ( 'configuration controlled 3d designs of mechanical parts and assemblies' ) ;
#51 = DIRECTION ( 'NONE',  ( -3.491481338843133355E-15, 1.224646799147353207E-16, -1.000000000000000000 ) ) ;
#52 = CALENDAR_DATE ( 2021, 5, 10 ) ;
#53 = EDGE_LOOP ( 'NONE', ( #164 ) ) ;
#54 = ORIENTED_EDGE ( 'NONE', *, *, #128, .T. ) ;
#55 = APPROVAL ( #25, 'UNSPECIFIED' ) ;
#56 = ORIENTED_EDGE ( 'NONE', *, *, #128, .F. ) ;
#57 = CIRCLE ( 'NONE', #192, 3.749999999999999556 ) ;
#58 = ADVANCED_FACE ( 'NONE', ( #169 ), #121, .F. ) ;
#59 = APPROVAL_PERSON_ORGANIZATION ( #5, #148, #81 ) ;
#60 = CARTESIAN_POINT ( 'NONE',  ( 2.555764340033173364E-13, -8.964414569758626729E-15, 73.20000000000000284 ) ) ;
#61 = MECHANICAL_CONTEXT ( 'NONE', #50, 'mechanical' ) ;
#62 = VERTEX_POINT ( 'NONE', #188 ) ;
#63 = CIRCLE ( 'NONE', #8, 2.949999999999999289 ) ;
#64 = FACE_OUTER_BOUND ( 'NONE', #7, .T. ) ;
#65 = CC_DESIGN_DATE_AND_TIME_ASSIGNMENT ( #195, #98, ( #70 ) ) ;
#66 = APPROVAL_ROLE ( '' ) ;
#67 = CALENDAR_DATE ( 2021, 5, 10 ) ;
#68 = MANIFOLD_SOLID_BREP ( 'Corps-Déplacer/Copier1[2]', #73 ) ;
#69 = CC_DESIGN_APPROVAL ( #148, ( #202 ) ) ;
#70 = SECURITY_CLASSIFICATION ( '', '', #105 ) ;
#71 = ORIENTED_EDGE ( 'NONE', *, *, #135, .F. ) ;
#72 = DIRECTION ( 'NONE',  ( 3.491481338843133355E-15, -1.224646799147353207E-16, 1.000000000000000000 ) ) ;
#73 = CLOSED_SHELL ( 'NONE', ( #181, #42, #100 ) ) ;
#74 = DIRECTION ( 'NONE',  ( -3.491481338843133355E-15, 1.224646799147353207E-16, -1.000000000000000000 ) ) ;
#75 = DIRECTION ( 'NONE',  ( 0.0000000000000000000, 1.000000000000000000, 0.0000000000000000000 ) ) ;
#76 = AXIS2_PLACEMENT_3D ( 'NONE', #168, #196, #40 ) ;
#77 = VERTEX_POINT ( 'NONE', #30 ) ;
#78 = COORDINATED_UNIVERSAL_TIME_OFFSET ( 1, 0, .AHEAD. ) ;
#79 = CONICAL_SURFACE ( 'NONE', #160, 3.749999999999990674, 1.029744258676649871 ) ;
#80 = CARTESIAN_POINT ( 'NONE',  ( 7.867101144676792023E-15, 3.749999999999990230, 2.253227321353370005 ) ) ;
#81 = APPROVAL_ROLE ( '' ) ;
#82 = PERSON_AND_ORGANIZATION_ROLE ( 'design_supplier' ) ;
#83 = PERSON_AND_ORGANIZATION ( #6, #145 ) ;
#84 = CC_DESIGN_DATE_AND_TIME_ASSIGNMENT ( #33, #14, ( #92 ) ) ;
#85 = EDGE_LOOP ( 'NONE', ( #37 ) ) ;
#86 =( GEOMETRIC_REPRESENTATION_CONTEXT ( 3 ) GLOBAL_UNCERTAINTY_ASSIGNED_CONTEXT ( ( #20 ) ) GLOBAL_UNIT_ASSIGNED_CONTEXT ( ( #94, #48, #127 ) ) REPRESENTATION_CONTEXT ( 'NONE', 'WORKASPACE' ) );
#87 = FACE_OUTER_BOUND ( 'NONE', #197, .T. ) ;
#88 = DIRECTION ( 'NONE',  ( 4.275831445896958607E-31, 1.000000000000000000, 1.224646799147353207E-16 ) ) ;
#89 = ORIENTED_EDGE ( 'NONE', *, *, #45, .T. ) ;
#90 = CARTESIAN_POINT ( 'NONE',  ( 8.728703347107833388E-14, 2.812049592490973436E-32, 25.00000000000000000 ) ) ;
#91 = CALENDAR_DATE ( 2021, 5, 10 ) ;
#92 = PRODUCT_DEFINITION ( 'UNKNOWN', '', #202, #178 ) ;
#93 = ADVANCED_BREP_SHAPE_REPRESENTATION ( '5389', ( #200, #68, #129 ), #86 ) ;
#94 =( LENGTH_UNIT ( ) NAMED_UNIT ( * ) SI_UNIT ( .MILLI., .METRE. ) );
#95 = PERSON_AND_ORGANIZATION_ROLE ( 'creator' ) ;
#96 = CARTESIAN_POINT ( 'NONE',  ( 0.0000000000000000000, 0.0000000000000000000, 0.0000000000000000000 ) ) ;
#97 = DIRECTION ( 'NONE',  ( 3.491481338843133355E-15, -1.224646799147353207E-16, 1.000000000000000000 ) ) ;
#98 = DATE_TIME_ROLE ( 'classification_date' ) ;
#99 = CC_DESIGN_APPROVAL ( #117, ( #92 ) ) ;
#100 = ADVANCED_FACE ( 'NONE', ( #87 ), #150, .T. ) ;
#101 = CONICAL_SURFACE ( 'NONE', #153, 2.949999999999999289, 0.7853981633974512766 ) ;
#102 = DATE_AND_TIME ( #175, #2 ) ;
#103 = EDGE_LOOP ( 'NONE', ( #89 ) ) ;
#104 = CARTESIAN_POINT ( 'NONE',  ( 0.0000000000000000000, 0.0000000000000000000, 0.0000000000000000000 ) ) ;
#105 = SECURITY_CLASSIFICATION_LEVEL ( 'unclassified' ) ;
#106 = FACE_OUTER_BOUND ( 'NONE', #155, .T. ) ;
#107 = CARTESIAN_POINT ( 'NONE',  ( 7.867101144676790445E-15, -2.759407626846768876E-16, 2.253227321353369561 ) ) ;
#108 = PRODUCT ( '5389', '5389', '', ( #61 ) ) ;
#109 = ORIENTED_EDGE ( 'NONE', *, *, #11, .T. ) ;
#110 = DIRECTION ( 'NONE',  ( 0.0000000000000000000, 1.000000000000000000, 0.0000000000000000000 ) ) ;
#111 = VERTEX_POINT ( 'NONE', #159 ) ;
#112 = FACE_OUTER_BOUND ( 'NONE', #85, .T. ) ;
#113 = CARTESIAN_POINT ( 'NONE',  ( 2.555764340033173364E-13, 3.749999999999990230, 73.20000000000000284 ) ) ;
#114 = COORDINATED_UNIVERSAL_TIME_OFFSET ( 1, 0, .AHEAD. ) ;
#115 = CC_DESIGN_PERSON_AND_ORGANIZATION_ASSIGNMENT ( #21, #82, ( #202 ) ) ;
#116 = COORDINATED_UNIVERSAL_TIME_OFFSET ( 1, 0, .AHEAD. ) ;
#117 = APPROVAL ( #122, 'UNSPECIFIED' ) ;
#118 = FACE_OUTER_BOUND ( 'NONE', #22, .T. ) ;
#119 = CARTESIAN_POINT ( 'NONE',  ( 2.583696190743918430E-13, -9.062386313690413585E-15, 74.00000000000000000 ) ) ;
#120 = ORIENTED_EDGE ( 'NONE', *, *, #173, .F. ) ;
#121 = PLANE ( 'NONE',  #16 ) ;
#122 = APPROVAL_STATUS ( 'not_yet_approved' ) ;
#123 = CIRCLE ( 'NONE', #201, 3.749999999999990674 ) ;
#124 = LOCAL_TIME ( 11, 8, 21.00000000000000000, #116 ) ;
#125 = PERSON_AND_ORGANIZATION ( #6, #145 ) ;
#126 = PERSON_AND_ORGANIZATION_ROLE ( 'design_owner' ) ;
#127 =( NAMED_UNIT ( * ) SI_UNIT ( $, .STERADIAN. ) SOLID_ANGLE_UNIT ( ) );
#128 = EDGE_CURVE ( 'NONE', #111, #111, #23, .T. ) ;
#129 = AXIS2_PLACEMENT_3D ( 'NONE', #170, #174, #140 ) ;
#130 = ADVANCED_FACE ( 'NONE', ( #106 ), #27, .F. ) ;
#131 = EDGE_LOOP ( 'NONE', ( #120 ) ) ;
#132 = DIRECTION ( 'NONE',  ( -3.491481338843133355E-15, 1.224646799147353207E-16, -1.000000000000000000 ) ) ;
#133 = CARTESIAN_POINT ( 'NONE',  ( 8.728703347107833388E-14, 2.812049592490973436E-32, 25.00000000000000000 ) ) ;
#134 = FACE_OUTER_BOUND ( 'NONE', #131, .T. ) ;
#135 = EDGE_CURVE ( 'NONE', #77, #77, #138, .T. ) ;
#136 = EDGE_LOOP ( 'NONE', ( #154 ) ) ;
#137 = DIRECTION ( 'NONE',  ( -3.491481338843133355E-15, 1.224646799147353207E-16, -1.000000000000000000 ) ) ;
#138 = CIRCLE ( 'NONE', #183, 3.749999999999993339 ) ;
#139 = CC_DESIGN_PERSON_AND_ORGANIZATION_ASSIGNMENT ( #83, #144, ( #70 ) ) ;
#140 = DIRECTION ( 'NONE',  ( 1.000000000000000000, 0.0000000000000000000, 0.0000000000000000000 ) ) ;
#141 = ADVANCED_FACE ( 'NONE', ( #64, #112 ), #15, .T. ) ;
#142 = APPROVAL_DATE_TIME ( #18, #55 ) ;
#143 = PRODUCT_RELATED_PRODUCT_CATEGORY ( 'detail', '', ( #108 ) ) ;
#144 = PERSON_AND_ORGANIZATION_ROLE ( 'classification_officer' ) ;
#145 = ORGANIZATION ( 'UNSPECIFIED', 'UNSPECIFIED', '' ) ;
#146 = FACE_BOUND ( 'NONE', #10, .T. ) ;
#147 = LOCAL_TIME ( 11, 8, 21.00000000000000000, #78 ) ;
#148 = APPROVAL ( #17, 'UNSPECIFIED' ) ;
#149 = SHAPE_DEFINITION_REPRESENTATION ( #191, #93 ) ;
#150 = PLANE ( 'NONE',  #165 ) ;
#151 = PERSON_AND_ORGANIZATION ( #6, #145 ) ;
#152 = ORIENTED_EDGE ( 'NONE', *, *, #135, .T. ) ;
#153 = AXIS2_PLACEMENT_3D ( 'NONE', #119, #3, #194 ) ;
#154 = ORIENTED_EDGE ( 'NONE', *, *, #11, .F. ) ;
#155 = EDGE_LOOP ( 'NONE', ( #152 ) ) ;
#156 = FACE_OUTER_BOUND ( 'NONE', #103, .T. ) ;
#157 = LOCAL_TIME ( 11, 8, 21.00000000000000000, #114 ) ;
#158 = VERTEX_POINT ( 'NONE', #113 ) ;
#159 = CARTESIAN_POINT ( 'NONE',  ( 8.728703347107833388E-14, 3.749999999999990230, 25.00000000000000000 ) ) ;
#160 = AXIS2_PLACEMENT_3D ( 'NONE', #203, #97, #187 ) ;
#161 = CLOSED_SHELL ( 'NONE', ( #130, #141, #4, #58 ) ) ;
#162 = APPROVAL_DATE_TIME ( #102, #148 ) ;
#163 = APPLICATION_CONTEXT ( 'configuration controlled 3d designs of mechanical parts and assemblies' ) ;
#164 = ORIENTED_EDGE ( 'NONE', *, *, #45, .F. ) ;
#165 = AXIS2_PLACEMENT_3D ( 'NONE', #133, #72, #28 ) ;
#166 = DIRECTION ( 'NONE',  ( -3.491481338843133355E-15, 1.224646799147353207E-16, -1.000000000000000000 ) ) ;
#167 = FACE_OUTER_BOUND ( 'NONE', #53, .T. ) ;
#168 = CARTESIAN_POINT ( 'NONE',  ( 8.728703347107833388E-14, -3.061616997868383043E-15, 25.00000000000000000 ) ) ;
#169 = FACE_OUTER_BOUND ( 'NONE', #136, .T. ) ;
#170 = CARTESIAN_POINT ( 'NONE',  ( 0.0000000000000000000, 0.0000000000000000000, 0.0000000000000000000 ) ) ;
#171 = APPLICATION_PROTOCOL_DEFINITION ( 'international standard', 'config_control_design', 1994, #163 ) ;
#172 = APPROVAL_DATE_TIME ( #12, #117 ) ;
#173 = EDGE_CURVE ( 'NONE', #158, #158, #57, .T. ) ;
#174 = DIRECTION ( 'NONE',  ( 0.0000000000000000000, 0.0000000000000000000, 1.000000000000000000 ) ) ;
#175 = CALENDAR_DATE ( 2021, 5, 10 ) ;
#176 = APPROVAL_PERSON_ORGANIZATION ( #32, #117, #47 ) ;
#177 = PERSON_AND_ORGANIZATION_ROLE ( 'creator' ) ;
#178 = DESIGN_CONTEXT ( 'detailed design', #163, 'design' ) ;
#179 = CYLINDRICAL_SURFACE ( 'NONE', #1, 3.749999999999992006 ) ;
#180 = CC_DESIGN_SECURITY_CLASSIFICATION ( #70, ( #202 ) ) ;
#181 = ADVANCED_FACE ( 'NONE', ( #156 ), #79, .T. ) ;
#182 = DIRECTION ( 'NONE',  ( -3.491481338843133355E-15, 1.224646799147353207E-16, -1.000000000000000000 ) ) ;
#183 = AXIS2_PLACEMENT_3D ( 'NONE', #198, #182, #75 ) ;
#184 = COORDINATED_UNIVERSAL_TIME_OFFSET ( 1, 0, .AHEAD. ) ;
#185 = LOCAL_TIME ( 11, 8, 21.00000000000000000, #184 ) ;
#186 = CC_DESIGN_PERSON_AND_ORGANIZATION_ASSIGNMENT ( #125, #126, ( #108 ) ) ;
#187 = DIRECTION ( 'NONE',  ( -4.108650548026113079E-31, -1.000000000000000000, -1.156482317317874190E-16 ) ) ;
#188 = CARTESIAN_POINT ( 'NONE',  ( 2.583696190743918430E-13, 2.949999999999990408, 74.00000000000000000 ) ) ;
#189 = APPLICATION_PROTOCOL_DEFINITION ( 'international standard', 'config_control_design', 1994, #50 ) ;
#190 = DIRECTION ( 'NONE',  ( -3.491481338843133355E-15, 1.224646799147353207E-16, -1.000000000000000000 ) ) ;
#191 = PRODUCT_DEFINITION_SHAPE ( 'NONE', 'NONE',  #92 ) ;
#192 = AXIS2_PLACEMENT_3D ( 'NONE', #60, #190, #110 ) ;
#193 = AXIS2_PLACEMENT_3D ( 'NONE', #90, #26, #9 ) ;
#194 = DIRECTION ( 'NONE',  ( 0.0000000000000000000, 1.000000000000000000, 0.0000000000000000000 ) ) ;
#195 = DATE_AND_TIME ( #67, #124 ) ;
#196 = DIRECTION ( 'NONE',  ( -3.491481338843133355E-15, 1.224646799147353207E-16, -1.000000000000000000 ) ) ;
#197 = EDGE_LOOP ( 'NONE', ( #56 ) ) ;
#198 = CARTESIAN_POINT ( 'NONE',  ( 8.728703347107833388E-14, -3.061616997868383043E-15, 25.00000000000000000 ) ) ;
#199 = DIRECTION ( 'NONE',  ( 4.275831445896958607E-31, 1.000000000000000000, 1.224646799147352961E-16 ) ) ;
#200 = MANIFOLD_SOLID_BREP ( 'Corps-Déplacer/Copier1[1]', #161 ) ;
#201 = AXIS2_PLACEMENT_3D ( 'NONE', #107, #166, #43 ) ;
#202 = PRODUCT_DEFINITION_FORMATION_WITH_SPECIFIED_SOURCE ( 'ANY', '', #108, .NOT_KNOWN. ) ;
#203 = CARTESIAN_POINT ( 'NONE',  ( 7.867101144676790445E-15, -2.759407626846768876E-16, 2.253227321353369561 ) ) ;
ENDSEC;
END-ISO-10303-21;
