ISO-10303-21;
HEADER;
FILE_DESCRIPTION (( 'STEP AP203' ),
    '1' );
FILE_NAME ('53761.step',
    '2021-09-02T13:38:08',
    ( '' ),
    ( '' ),
    'SwSTEP 2.0',
    'SolidWorks 2019',
    '' );
FILE_SCHEMA (( 'CONFIG_CONTROL_DESIGN' ));
ENDSEC;

DATA;
#1 = DIRECTION ( 'NONE',  ( 0.0000000000000000000, 1.000000000000000000, 0.0000000000000000000 ) ) ;
#2 = PERSON_AND_ORGANIZATION ( #277, #280 ) ;
#3 = PRODUCT_RELATED_PRODUCT_CATEGORY ( 'detail', '', ( #94 ) ) ;
#4 = CARTESIAN_POINT ( 'NONE',  ( 6.083891551883377070E-15, -2.133941898094831764E-16, 1.742495795179937135 ) ) ;
#5 = CARTESIAN_POINT ( 'NONE',  ( 1.990144363140586139E-13, 2.174651684859679847E-32, 57.00000000000000000 ) ) ;
#6 = CARTESIAN_POINT ( 'NONE',  ( 1.990144363140586139E-13, -6.980486755139912911E-15, 57.00000000000000000 ) ) ;
#7 = DIRECTION ( 'NONE',  ( -3.491481338843133355E-15, 1.224646799147353207E-16, -1.000000000000000000 ) ) ;
#8 = FACE_OUTER_BOUND ( 'NONE', #35, .T. ) ;
#9 = DIRECTION ( 'NONE',  ( 0.0000000000000000000, 0.0000000000000000000, 1.000000000000000000 ) ) ;
#10 = CARTESIAN_POINT ( 'NONE',  ( 3.247077645124113894E-13, -1.138921523207038456E-14, 93.00000000000000000 ) ) ;
#11 = AXIS2_PLACEMENT_3D ( 'NONE', #251, #303, #137 ) ;
#12 = CYLINDRICAL_SURFACE ( 'NONE', #221, 2.899999999999997691 ) ;
#13 = DIRECTION ( 'NONE',  ( 4.275831445896958607E-31, 1.000000000000000000, 1.224646799147353454E-16 ) ) ;
#14 = EDGE_CURVE ( 'NONE', #46, #122, #308, .T. ) ;
#15 = PERSON_AND_ORGANIZATION ( #277, #280 ) ;
#16 = ADVANCED_FACE ( 'NONE', ( #45 ), #333, .T. ) ;
#17 = ORIENTED_EDGE ( 'NONE', *, *, #223, .F. ) ;
#18 = APPROVAL_STATUS ( 'not_yet_approved' ) ;
#19 = EDGE_CURVE ( 'NONE', #26, #208, #209, .T. ) ;
#20 = VECTOR ( 'NONE', #222, 1000.000000000000000 ) ;
#21 = VERTEX_POINT ( 'NONE', #230 ) ;
#22 = PERSON_AND_ORGANIZATION ( #277, #280 ) ;
#23 = ORIENTED_EDGE ( 'NONE', *, *, #174, .T. ) ;
#24 = CARTESIAN_POINT ( 'NONE',  ( 0.0000000000000000000, 0.0000000000000000000, 0.0000000000000000000 ) ) ;
#25 = APPROVAL_PERSON_ORGANIZATION ( #104, #321, #335 ) ;
#26 = VERTEX_POINT ( 'NONE', #98 ) ;
#27 = CARTESIAN_POINT ( 'NONE',  ( 2.611688035833347519E-13, -2.900000000000002576, 57.00000000000000000 ) ) ;
#28 = DIRECTION ( 'NONE',  ( 0.0000000000000000000, 1.000000000000000000, 0.0000000000000000000 ) ) ;
#29 = CC_DESIGN_DATE_AND_TIME_ASSIGNMENT ( #257, #314, ( #34 ) ) ;
#30 = FACE_OUTER_BOUND ( 'NONE', #47, .T. ) ;
#31 = CARTESIAN_POINT ( 'NONE',  ( 3.247077645124113894E-13, -1.138921523207038456E-14, 93.00000000000000000 ) ) ;
#32 = CARTESIAN_POINT ( 'NONE',  ( 3.239787282785367393E-13, -2.300000000000011369, 93.00000000000000000 ) ) ;
#33 = ADVANCED_FACE ( 'NONE', ( #309 ), #163, .T. ) ;
#34 = SECURITY_CLASSIFICATION ( '', '', #231 ) ;
#35 = EDGE_LOOP ( 'NONE', ( #289, #153 ) ) ;
#36 = DIRECTION ( 'NONE',  ( 0.0000000000000000000, 1.000000000000000000, 0.0000000000000000000 ) ) ;
#37 = AXIS2_PLACEMENT_3D ( 'NONE', #322, #170, #300 ) ;
#38 = CARTESIAN_POINT ( 'NONE',  ( 0.0000000000000000000, 0.0000000000000000000, 0.0000000000000000000 ) ) ;
#39 = VECTOR ( 'NONE', #55, 1000.000000000000000 ) ;
#40 = CYLINDRICAL_SURFACE ( 'NONE', #119, 2.899999999999991918 ) ;
#41 = VERTEX_POINT ( 'NONE', #292 ) ;
#42 = ORIENTED_EDGE ( 'NONE', *, *, #78, .F. ) ;
#43 = EDGE_CURVE ( 'NONE', #122, #73, #253, .T. ) ;
#44 = PERSON_AND_ORGANIZATION_ROLE ( 'design_supplier' ) ;
#45 = FACE_OUTER_BOUND ( 'NONE', #249, .T. ) ;
#46 = VERTEX_POINT ( 'NONE', #109 ) ;
#47 = EDGE_LOOP ( 'NONE', ( #204, #145, #261, #332 ) ) ;
#48 = ORIENTED_EDGE ( 'NONE', *, *, #146, .F. ) ;
#49 = LOCAL_TIME ( 15, 38, 8.000000000000000000, #210 ) ;
#50 = CALENDAR_DATE ( 2021, 2, 9 ) ;
#51 = DIRECTION ( 'NONE',  ( 3.491481338843133355E-15, -1.224646799147353207E-16, 1.000000000000000000 ) ) ;
#52 = EDGE_CURVE ( 'NONE', #41, #234, #293, .T. ) ;
#53 = CARTESIAN_POINT ( 'NONE',  ( 1.990144363140586139E-13, -6.980486755139912911E-15, 57.00000000000000000 ) ) ;
#54 = DESIGN_CONTEXT ( 'detailed design', #105, 'design' ) ;
#55 = DIRECTION ( 'NONE',  ( -3.491481338843133355E-15, 1.224646799147353207E-16, -1.000000000000000000 ) ) ;
#56 = AXIS2_PLACEMENT_3D ( 'NONE', #326, #325, #65 ) ;
#57 = AXIS2_PLACEMENT_3D ( 'NONE', #259, #80, #135 ) ;
#58 = CARTESIAN_POINT ( 'NONE',  ( 3.247077645124113894E-13, -1.138921523207038456E-14, 93.00000000000000000 ) ) ;
#59 = EDGE_CURVE ( 'NONE', #208, #26, #298, .T. ) ;
#60 = LINE ( 'NONE', #81, #191 ) ;
#61 = DIRECTION ( 'NONE',  ( 4.275831445896958607E-31, 1.000000000000000000, 1.224646799147353207E-16 ) ) ;
#62 = LOCAL_TIME ( 15, 38, 8.000000000000000000, #291 ) ;
#63 = PERSON_AND_ORGANIZATION ( #277, #280 ) ;
#64 = CARTESIAN_POINT ( 'NONE',  ( 1.990144363140586139E-13, -6.980486755139912911E-15, 57.00000000000000000 ) ) ;
#65 = DIRECTION ( 'NONE',  ( 4.275831445896958607E-31, 1.000000000000000000, 1.224646799147353207E-16 ) ) ;
#66 = AXIS2_PLACEMENT_3D ( 'NONE', #224, #92, #283 ) ;
#67 = DIRECTION ( 'NONE',  ( -3.491481338843133355E-15, 1.224646799147353207E-16, -1.000000000000000000 ) ) ;
#68 = CARTESIAN_POINT ( 'NONE',  ( 3.247077645124113894E-13, -1.138921523207038456E-14, 93.00000000000000000 ) ) ;
#69 = APPROVAL ( #18, 'UNSPECIFIED' ) ;
#70 = ORIENTED_EDGE ( 'NONE', *, *, #43, .T. ) ;
#71 = APPROVAL_STATUS ( 'not_yet_approved' ) ;
#72 = AXIS2_PLACEMENT_3D ( 'NONE', #273, #319, #213 ) ;
#73 = VERTEX_POINT ( 'NONE', #27 ) ;
#74 = ORIENTED_EDGE ( 'NONE', *, *, #146, .T. ) ;
#75 = COORDINATED_UNIVERSAL_TIME_OFFSET ( 1, 0, .AHEAD. ) ;
#76 = EDGE_CURVE ( 'NONE', #73, #122, #264, .T. ) ;
#77 = ORIENTED_EDGE ( 'NONE', *, *, #268, .T. ) ;
#78 = EDGE_CURVE ( 'NONE', #21, #234, #112, .T. ) ;
#79 = LINE ( 'NONE', #85, #246 ) ;
#80 = DIRECTION ( 'NONE',  ( 3.491481338843133355E-15, -1.224646799147353207E-16, 1.000000000000000000 ) ) ;
#81 = CARTESIAN_POINT ( 'NONE',  ( 6.439039123636109157E-15, 2.899999999999988365, 1.742495795179937357 ) ) ;
#82 = DIRECTION ( 'NONE',  ( 5.312910191413085714E-31, 1.000000000000000000, 1.495451272393805212E-16 ) ) ;
#83 = EDGE_CURVE ( 'NONE', #284, #21, #245, .T. ) ;
#84 = AXIS2_PLACEMENT_3D ( 'NONE', #243, #51, #316 ) ;
#85 = CARTESIAN_POINT ( 'NONE',  ( 3.249894332762152979E-13, -2.300000000000011369, 93.00000000000000000 ) ) ;
#86 = ADVANCED_FACE ( 'NONE', ( #30 ), #96, .T. ) ;
#87 = DIRECTION ( 'NONE',  ( -3.491481338843133355E-15, 1.224646799147353207E-16, -1.000000000000000000 ) ) ;
#88 = CARTESIAN_POINT ( 'NONE',  ( 6.083891551883375492E-15, -2.899999999999988365, 1.742495795179936691 ) ) ;
#89 = FACE_OUTER_BOUND ( 'NONE', #123, .T. ) ;
#90 =( NAMED_UNIT ( * ) PLANE_ANGLE_UNIT ( ) SI_UNIT ( $, .RADIAN. ) );
#91 = APPLICATION_CONTEXT ( 'configuration controlled 3d designs of mechanical parts and assemblies' ) ;
#92 = DIRECTION ( 'NONE',  ( -3.491481338843133355E-15, 1.224646799147353207E-16, -1.000000000000000000 ) ) ;
#93 = EDGE_CURVE ( 'NONE', #260, #21, #60, .T. ) ;
#94 = PRODUCT ( '53761', '53761', '', ( #275 ) ) ;
#95 = EDGE_LOOP ( 'NONE', ( #301, #313, #42, #232 ) ) ;
#96 = CONICAL_SURFACE ( 'NONE', #168, 2.299999999999999822, 0.7853981633974453924 ) ;
#97 = CC_DESIGN_PERSON_AND_ORGANIZATION_ASSIGNMENT ( #63, #276, ( #94 ) ) ;
#98 = CARTESIAN_POINT ( 'NONE',  ( 3.247077645124113894E-13, 2.299999999999988720, 93.00000000000000000 ) ) ;
#99 = CARTESIAN_POINT ( 'NONE',  ( 1.239991119310116927E-30, 2.899999999999997691, 3.551475717527321860E-16 ) ) ;
#100 =( GEOMETRIC_REPRESENTATION_CONTEXT ( 3 ) GLOBAL_UNCERTAINTY_ASSIGNED_CONTEXT ( ( #219 ) ) GLOBAL_UNIT_ASSIGNED_CONTEXT ( ( #169, #90, #304 ) ) REPRESENTATION_CONTEXT ( 'NONE', 'WORKASPACE' ) );
#101 = ORIENTED_EDGE ( 'NONE', *, *, #14, .F. ) ;
#102 = CALENDAR_DATE ( 2021, 2, 9 ) ;
#103 = DIRECTION ( 'NONE',  ( -3.491481338843133355E-15, 1.224646799147353207E-16, -1.000000000000000000 ) ) ;
#104 = PERSON_AND_ORGANIZATION ( #277, #280 ) ;
#105 = APPLICATION_CONTEXT ( 'configuration controlled 3d designs of mechanical parts and assemblies' ) ;
#106 = PLANE ( 'NONE',  #84 ) ;
#107 = DIRECTION ( 'NONE',  ( 0.0000000000000000000, 1.000000000000000000, 0.0000000000000000000 ) ) ;
#108 = FACE_OUTER_BOUND ( 'NONE', #156, .T. ) ;
#109 = CARTESIAN_POINT ( 'NONE',  ( 3.226128757091054968E-13, 2.899999999999988365, 92.39999999999999147 ) ) ;
#110 = CARTESIAN_POINT ( 'NONE',  ( 1.239991119310114650E-30, 2.899999999999991918, 3.551475717527314465E-16 ) ) ;
#111 = CONICAL_SURFACE ( 'NONE', #160, 2.299999999999999822, 0.7853981633974453924 ) ;
#112 = CIRCLE ( 'NONE', #140, 2.899999999999988365 ) ;
#113 = EDGE_CURVE ( 'NONE', #234, #21, #186, .T. ) ;
#114 = PLANE ( 'NONE',  #56 ) ;
#115 = LOCAL_TIME ( 15, 38, 8.000000000000000000, #255 ) ;
#116 = CARTESIAN_POINT ( 'NONE',  ( 3.247077645124113894E-13, 2.299999999999988720, 93.00000000000000000 ) ) ;
#117 = CALENDAR_DATE ( 2021, 2, 9 ) ;
#118 = LOCAL_TIME ( 15, 38, 8.000000000000000000, #75 ) ;
#119 = AXIS2_PLACEMENT_3D ( 'NONE', #324, #278, #61 ) ;
#120 = ORIENTED_EDGE ( 'NONE', *, *, #331, .F. ) ;
#121 = APPROVAL_ROLE ( '' ) ;
#122 = VERTEX_POINT ( 'NONE', #295 ) ;
#123 = EDGE_LOOP ( 'NONE', ( #194, #175, #287, #144 ) ) ;
#124 = CALENDAR_DATE ( 2021, 2, 9 ) ;
#125 = ORIENTED_EDGE ( 'NONE', *, *, #215, .F. ) ;
#126 = DATE_AND_TIME ( #124, #201 ) ;
#127 = AXIS2_PLACEMENT_3D ( 'NONE', #53, #271, #1 ) ;
#128 = EDGE_LOOP ( 'NONE', ( #70, #167 ) ) ;
#129 = DIRECTION ( 'NONE',  ( 1.903218546456022717E-15, 0.8571673007021097801, 0.5150380749100585964 ) ) ;
#130 = ADVANCED_FACE ( 'NONE', ( #108 ), #106, .T. ) ;
#131 = DIRECTION ( 'NONE',  ( -3.491481338843133355E-15, 1.224646799147353207E-16, -1.000000000000000000 ) ) ;
#132 = CLOSED_SHELL ( 'NONE', ( #240, #16, #143, #328, #86, #282 ) ) ;
#133 = FACE_OUTER_BOUND ( 'NONE', #138, .T. ) ;
#134 = LINE ( 'NONE', #241, #20 ) ;
#135 = DIRECTION ( 'NONE',  ( -5.312910191413085714E-31, -1.000000000000000000, -1.495451272393805212E-16 ) ) ;
#136 = CONICAL_SURFACE ( 'NONE', #72, 2.899999999999988365, 1.029744258676649649 ) ;
#137 = DIRECTION ( 'NONE',  ( 0.0000000000000000000, 1.000000000000000000, 0.0000000000000000000 ) ) ;
#138 = EDGE_LOOP ( 'NONE', ( #238, #77, #337, #177 ) ) ;
#139 = APPLICATION_PROTOCOL_DEFINITION ( 'international standard', 'config_control_design', 1994, #105 ) ;
#140 = AXIS2_PLACEMENT_3D ( 'NONE', #218, #272, #318 ) ;
#141 = DIRECTION ( 'NONE',  ( 1.000000000000000000, 0.0000000000000000000, 0.0000000000000000000 ) ) ;
#142 = APPROVAL_ROLE ( '' ) ;
#143 = ADVANCED_FACE ( 'NONE', ( #190 ), #159, .F. ) ;
#144 = ORIENTED_EDGE ( 'NONE', *, *, #76, .F. ) ;
#145 = ORIENTED_EDGE ( 'NONE', *, *, #59, .T. ) ;
#146 = EDGE_CURVE ( 'NONE', #260, #234, #134, .T. ) ;
#147 = DATE_AND_TIME ( #102, #62 ) ;
#148 = CIRCLE ( 'NONE', #37, 2.899999999999995470 ) ;
#149 = DIRECTION ( 'NONE',  ( -3.491481338843133355E-15, 1.224646799147353207E-16, -1.000000000000000000 ) ) ;
#150 = CC_DESIGN_PERSON_AND_ORGANIZATION_ASSIGNMENT ( #2, #178, ( #171 ) ) ;
#151 = ORIENTED_EDGE ( 'NONE', *, *, #215, .T. ) ;
#152 = PRODUCT_DEFINITION_SHAPE ( 'NONE', 'NONE',  #199 ) ;
#153 = ORIENTED_EDGE ( 'NONE', *, *, #59, .F. ) ;
#154 = CC_DESIGN_SECURITY_CLASSIFICATION ( #34, ( #171 ) ) ;
#155 = ADVANCED_FACE ( 'NONE', ( #133 ), #216, .T. ) ;
#156 = EDGE_LOOP ( 'NONE', ( #17, #256 ) ) ;
#157 = PERSON_AND_ORGANIZATION ( #277, #280 ) ;
#158 = CARTESIAN_POINT ( 'NONE',  ( 3.551475717527302139E-16, -2.899999999999991918, -3.551475717527326298E-16 ) ) ;
#159 = PLANE ( 'NONE',  #281 ) ;
#160 = AXIS2_PLACEMENT_3D ( 'NONE', #10, #67, #36 ) ;
#161 = DIRECTION ( 'NONE',  ( 0.0000000000000000000, 1.000000000000000000, 0.0000000000000000000 ) ) ;
#162 = CC_DESIGN_DATE_AND_TIME_ASSIGNMENT ( #126, #235, ( #199 ) ) ;
#163 = CONICAL_SURFACE ( 'NONE', #57, 2.899999999999988365, 1.029744258676649649 ) ;
#164 = DIRECTION ( 'NONE',  ( 3.491481338843133355E-15, -1.224646799147353207E-16, 1.000000000000000000 ) ) ;
#165 = MANIFOLD_SOLID_BREP ( 'Corps-Déplacer/Copier1[1]', #132 ) ;
#166 = DIRECTION ( 'NONE',  ( -3.491481338843133355E-15, 1.224646799147353207E-16, -1.000000000000000000 ) ) ;
#167 = ORIENTED_EDGE ( 'NONE', *, *, #76, .T. ) ;
#168 = AXIS2_PLACEMENT_3D ( 'NONE', #58, #267, #28 ) ;
#169 =( LENGTH_UNIT ( ) NAMED_UNIT ( * ) SI_UNIT ( .MILLI., .METRE. ) );
#170 = DIRECTION ( 'NONE',  ( -3.491481338843133355E-15, 1.224646799147353207E-16, -1.000000000000000000 ) ) ;
#171 = PRODUCT_DEFINITION_FORMATION_WITH_SPECIFIED_SOURCE ( 'ANY', '', #94, .NOT_KNOWN. ) ;
#172 = CC_DESIGN_PERSON_AND_ORGANIZATION_ASSIGNMENT ( #285, #262, ( #199 ) ) ;
#173 = CARTESIAN_POINT ( 'NONE',  ( 0.0000000000000000000, 0.0000000000000000000, 0.0000000000000000000 ) ) ;
#174 = EDGE_CURVE ( 'NONE', #208, #176, #79, .T. ) ;
#175 = ORIENTED_EDGE ( 'NONE', *, *, #307, .T. ) ;
#176 = VERTEX_POINT ( 'NONE', #317 ) ;
#177 = ORIENTED_EDGE ( 'NONE', *, *, #113, .F. ) ;
#178 = PERSON_AND_ORGANIZATION_ROLE ( 'creator' ) ;
#179 = ORIENTED_EDGE ( 'NONE', *, *, #78, .T. ) ;
#180 = DATE_AND_TIME ( #330, #118 ) ;
#181 = ADVANCED_FACE ( 'NONE', ( #220 ), #136, .T. ) ;
#182 = ORIENTED_EDGE ( 'NONE', *, *, #93, .T. ) ;
#183 = EDGE_CURVE ( 'NONE', #176, #73, #192, .T. ) ;
#184 = AXIS2_PLACEMENT_3D ( 'NONE', #64, #87, #305 ) ;
#185 = DIRECTION ( 'NONE',  ( -2.382254525458723780E-15, -0.7071067811865453523, -0.7071067811865496822 ) ) ;
#186 = CIRCLE ( 'NONE', #217, 2.899999999999988365 ) ;
#187 = CARTESIAN_POINT ( 'NONE',  ( 0.0000000000000000000, 0.0000000000000000000, 0.0000000000000000000 ) ) ;
#188 = DIRECTION ( 'NONE',  ( -4.275831445896958607E-31, -1.000000000000000000, -1.224646799147353207E-16 ) ) ;
#189 = AXIS2_PLACEMENT_3D ( 'NONE', #187, #244, #320 ) ;
#190 = FACE_OUTER_BOUND ( 'NONE', #128, .T. ) ;
#191 = VECTOR ( 'NONE', #129, 999.9999999999998863 ) ;
#192 = LINE ( 'NONE', #299, #334 ) ;
#193 = CARTESIAN_POINT ( 'NONE',  ( 0.0000000000000000000, 0.0000000000000000000, 0.0000000000000000000 ) ) ;
#194 = ORIENTED_EDGE ( 'NONE', *, *, #183, .F. ) ;
#195 = CC_DESIGN_PERSON_AND_ORGANIZATION_ASSIGNMENT ( #22, #44, ( #171 ) ) ;
#196 = AXIS2_PLACEMENT_3D ( 'NONE', #38, #9, #141 ) ;
#197 = LINE ( 'NONE', #116, #252 ) ;
#198 = FACE_OUTER_BOUND ( 'NONE', #95, .T. ) ;
#199 = PRODUCT_DEFINITION ( 'UNKNOWN', '', #171, #54 ) ;
#200 = FACE_OUTER_BOUND ( 'NONE', #311, .T. ) ;
#201 = LOCAL_TIME ( 15, 38, 8.000000000000000000, #207 ) ;
#202 = EDGE_LOOP ( 'NONE', ( #288, #74, #239 ) ) ;
#203 = CC_DESIGN_PERSON_AND_ORGANIZATION_ASSIGNMENT ( #233, #214, ( #34 ) ) ;
#204 = ORIENTED_EDGE ( 'NONE', *, *, #174, .F. ) ;
#205 = APPROVAL_DATE_TIME ( #180, #69 ) ;
#206 = ORIENTED_EDGE ( 'NONE', *, *, #43, .F. ) ;
#207 = COORDINATED_UNIVERSAL_TIME_OFFSET ( 1, 0, .AHEAD. ) ;
#208 = VERTEX_POINT ( 'NONE', #32 ) ;
#209 = CIRCLE ( 'NONE', #312, 2.299999999999999822 ) ;
#210 = COORDINATED_UNIVERSAL_TIME_OFFSET ( 1, 0, .AHEAD. ) ;
#211 = DIRECTION ( 'NONE',  ( 4.275831445896958607E-31, 1.000000000000000000, 1.224646799147353454E-16 ) ) ;
#212 = APPROVAL_DATE_TIME ( #147, #321 ) ;
#213 = DIRECTION ( 'NONE',  ( -5.312910191413085714E-31, -1.000000000000000000, -1.495451272393805212E-16 ) ) ;
#214 = PERSON_AND_ORGANIZATION_ROLE ( 'classification_officer' ) ;
#215 = EDGE_CURVE ( 'NONE', #46, #176, #302, .T. ) ;
#216 = CYLINDRICAL_SURFACE ( 'NONE', #189, 2.899999999999991918 ) ;
#217 = AXIS2_PLACEMENT_3D ( 'NONE', #4, #131, #82 ) ;
#218 = CARTESIAN_POINT ( 'NONE',  ( 6.083891551883377070E-15, -2.133941898094831764E-16, 1.742495795179937135 ) ) ;
#219 = UNCERTAINTY_MEASURE_WITH_UNIT (LENGTH_MEASURE( 1.000000000000000082E-05 ), #169, 'distance_accuracy_value', 'NONE');
#220 = FACE_OUTER_BOUND ( 'NONE', #329, .T. ) ;
#221 = AXIS2_PLACEMENT_3D ( 'NONE', #193, #248, #13 ) ;
#222 = DIRECTION ( 'NONE',  ( 1.798245827342160317E-15, -0.8571673007021098911, 0.5150380749100582634 ) ) ;
#223 = EDGE_CURVE ( 'NONE', #284, #41, #274, .T. ) ;
#224 = CARTESIAN_POINT ( 'NONE',  ( 3.226128757091054968E-13, -1.131573642412154441E-14, 92.39999999999999147 ) ) ;
#225 = AXIS2_PLACEMENT_3D ( 'NONE', #24, #149, #211 ) ;
#226 = DIRECTION ( 'NONE',  ( -2.468850131082271655E-15, 0.7071067811865455743, -0.7071067811865493491 ) ) ;
#227 = APPLICATION_PROTOCOL_DEFINITION ( 'international standard', 'config_control_design', 1994, #91 ) ;
#228 = DATE_AND_TIME ( #117, #115 ) ;
#229 = VECTOR ( 'NONE', #103, 1000.000000000000000 ) ;
#230 = CARTESIAN_POINT ( 'NONE',  ( 6.439039123636109157E-15, 2.899999999999988365, 1.742495795179937357 ) ) ;
#231 = SECURITY_CLASSIFICATION_LEVEL ( 'unclassified' ) ;
#232 = ORIENTED_EDGE ( 'NONE', *, *, #83, .F. ) ;
#233 = PERSON_AND_ORGANIZATION ( #277, #280 ) ;
#234 = VERTEX_POINT ( 'NONE', #88 ) ;
#235 = DATE_TIME_ROLE ( 'creation_date' ) ;
#236 = CIRCLE ( 'NONE', #66, 2.899999999999999911 ) ;
#237 = CLOSED_SHELL ( 'NONE', ( #294, #181, #33, #155, #130 ) ) ;
#238 = ORIENTED_EDGE ( 'NONE', *, *, #52, .F. ) ;
#239 = ORIENTED_EDGE ( 'NONE', *, *, #113, .T. ) ;
#240 = ADVANCED_FACE ( 'NONE', ( #200 ), #111, .T. ) ;
#241 = CARTESIAN_POINT ( 'NONE',  ( 6.083891551883375492E-15, -2.899999999999988365, 1.742495795179936691 ) ) ;
#242 = CC_DESIGN_APPROVAL ( #321, ( #171 ) ) ;
#243 = CARTESIAN_POINT ( 'NONE',  ( 1.990144363140586139E-13, 2.174651684859679847E-32, 57.00000000000000000 ) ) ;
#244 = DIRECTION ( 'NONE',  ( -3.491481338843133355E-15, 1.224646799147353207E-16, -1.000000000000000000 ) ) ;
#245 = LINE ( 'NONE', #110, #336 ) ;
#246 = VECTOR ( 'NONE', #185, 1000.000000000000000 ) ;
#247 = APPROVAL ( #327, 'UNSPECIFIED' ) ;
#248 = DIRECTION ( 'NONE',  ( -3.491481338843133355E-15, 1.224646799147353207E-16, -1.000000000000000000 ) ) ;
#249 = EDGE_LOOP ( 'NONE', ( #151, #265, #206, #101 ) ) ;
#250 = CARTESIAN_POINT ( 'NONE',  ( 1.990144363140586139E-13, 2.899999999999988365, 57.00000000000000000 ) ) ;
#251 = CARTESIAN_POINT ( 'NONE',  ( 3.226128757091054968E-13, -1.131573642412154441E-14, 92.39999999999999147 ) ) ;
#252 = VECTOR ( 'NONE', #226, 1000.000000000000114 ) ;
#253 = CIRCLE ( 'NONE', #306, 2.899999999999995470 ) ;
#254 = APPROVAL_DATE_TIME ( #228, #247 ) ;
#255 = COORDINATED_UNIVERSAL_TIME_OFFSET ( 1, 0, .AHEAD. ) ;
#256 = ORIENTED_EDGE ( 'NONE', *, *, #268, .F. ) ;
#257 = DATE_AND_TIME ( #50, #49 ) ;
#258 = AXIS2_PLACEMENT_3D ( 'NONE', #31, #297, #161 ) ;
#259 = CARTESIAN_POINT ( 'NONE',  ( 6.083891551883377070E-15, -2.133941898094831764E-16, 1.742495795179937135 ) ) ;
#260 = VERTEX_POINT ( 'NONE', #173 ) ;
#261 = ORIENTED_EDGE ( 'NONE', *, *, #331, .T. ) ;
#262 = PERSON_AND_ORGANIZATION_ROLE ( 'creator' ) ;
#263 = APPROVAL_PERSON_ORGANIZATION ( #157, #69, #121 ) ;
#264 = CIRCLE ( 'NONE', #127, 2.899999999999995470 ) ;
#265 = ORIENTED_EDGE ( 'NONE', *, *, #183, .T. ) ;
#266 = ADVANCED_BREP_SHAPE_REPRESENTATION ( '53761', ( #165, #279, #196 ), #100 ) ;
#267 = DIRECTION ( 'NONE',  ( -3.491481338843133355E-15, 1.224646799147353207E-16, -1.000000000000000000 ) ) ;
#268 = EDGE_CURVE ( 'NONE', #41, #284, #148, .T. ) ;
#269 = DIRECTION ( 'NONE',  ( -3.491481338843133355E-15, 1.224646799147353207E-16, -1.000000000000000000 ) ) ;
#270 = APPROVAL_PERSON_ORGANIZATION ( #15, #247, #142 ) ;
#271 = DIRECTION ( 'NONE',  ( -3.491481338843133355E-15, 1.224646799147353207E-16, -1.000000000000000000 ) ) ;
#272 = DIRECTION ( 'NONE',  ( -3.491481338843133355E-15, 1.224646799147353207E-16, -1.000000000000000000 ) ) ;
#273 = CARTESIAN_POINT ( 'NONE',  ( 6.083891551883377070E-15, -2.133941898094831764E-16, 1.742495795179937135 ) ) ;
#274 = CIRCLE ( 'NONE', #184, 2.899999999999995470 ) ;
#275 = MECHANICAL_CONTEXT ( 'NONE', #91, 'mechanical' ) ;
#276 = PERSON_AND_ORGANIZATION_ROLE ( 'design_owner' ) ;
#277 = PERSON ( 'UNSPECIFIED', 'UNSPECIFIED', 'UNSPECIFIED', ('UNSPECIFIED'), ('UNSPECIFIED'), ('UNSPECIFIED') ) ;
#278 = DIRECTION ( 'NONE',  ( -3.491481338843133355E-15, 1.224646799147353207E-16, -1.000000000000000000 ) ) ;
#279 = MANIFOLD_SOLID_BREP ( 'Corps-Déplacer/Copier1[2]', #237 ) ;
#280 = ORGANIZATION ( 'UNSPECIFIED', 'UNSPECIFIED', '' ) ;
#281 = AXIS2_PLACEMENT_3D ( 'NONE', #5, #164, #188 ) ;
#282 = ADVANCED_FACE ( 'NONE', ( #8 ), #114, .F. ) ;
#283 = DIRECTION ( 'NONE',  ( 0.0000000000000000000, 1.000000000000000000, 0.0000000000000000000 ) ) ;
#284 = VERTEX_POINT ( 'NONE', #250 ) ;
#285 = PERSON_AND_ORGANIZATION ( #277, #280 ) ;
#286 = DIRECTION ( 'NONE',  ( -3.491481338843133355E-15, 1.224646799147353207E-16, -1.000000000000000000 ) ) ;
#287 = ORIENTED_EDGE ( 'NONE', *, *, #14, .T. ) ;
#288 = ORIENTED_EDGE ( 'NONE', *, *, #93, .F. ) ;
#289 = ORIENTED_EDGE ( 'NONE', *, *, #19, .F. ) ;
#290 = ORIENTED_EDGE ( 'NONE', *, *, #19, .T. ) ;
#291 = COORDINATED_UNIVERSAL_TIME_OFFSET ( 1, 0, .AHEAD. ) ;
#292 = CARTESIAN_POINT ( 'NONE',  ( 1.029043115047234897E-13, -2.900000000000002576, 57.00000000000000000 ) ) ;
#293 = LINE ( 'NONE', #158, #39 ) ;
#294 = ADVANCED_FACE ( 'NONE', ( #198 ), #40, .T. ) ;
#295 = CARTESIAN_POINT ( 'NONE',  ( 1.990144363140586139E-13, 2.899999999999988365, 57.00000000000000000 ) ) ;
#296 = CC_DESIGN_APPROVAL ( #247, ( #199 ) ) ;
#297 = DIRECTION ( 'NONE',  ( -3.491481338843133355E-15, 1.224646799147353207E-16, -1.000000000000000000 ) ) ;
#298 = CIRCLE ( 'NONE', #258, 2.299999999999999822 ) ;
#299 = CARTESIAN_POINT ( 'NONE',  ( 3.551475717527309041E-16, -2.899999999999997691, -3.551475717527333693E-16 ) ) ;
#300 = DIRECTION ( 'NONE',  ( 0.0000000000000000000, 1.000000000000000000, 0.0000000000000000000 ) ) ;
#301 = ORIENTED_EDGE ( 'NONE', *, *, #223, .T. ) ;
#302 = CIRCLE ( 'NONE', #11, 2.899999999999999911 ) ;
#303 = DIRECTION ( 'NONE',  ( -3.491481338843133355E-15, 1.224646799147353207E-16, -1.000000000000000000 ) ) ;
#304 =( NAMED_UNIT ( * ) SI_UNIT ( $, .STERADIAN. ) SOLID_ANGLE_UNIT ( ) );
#305 = DIRECTION ( 'NONE',  ( 0.0000000000000000000, 1.000000000000000000, 0.0000000000000000000 ) ) ;
#306 = AXIS2_PLACEMENT_3D ( 'NONE', #6, #269, #107 ) ;
#307 = EDGE_CURVE ( 'NONE', #176, #46, #236, .T. ) ;
#308 = LINE ( 'NONE', #99, #229 ) ;
#309 = FACE_OUTER_BOUND ( 'NONE', #202, .T. ) ;
#310 = SHAPE_DEFINITION_REPRESENTATION ( #152, #266 ) ;
#311 = EDGE_LOOP ( 'NONE', ( #290, #23, #125, #120 ) ) ;
#312 = AXIS2_PLACEMENT_3D ( 'NONE', #68, #286, #315 ) ;
#313 = ORIENTED_EDGE ( 'NONE', *, *, #52, .T. ) ;
#314 = DATE_TIME_ROLE ( 'classification_date' ) ;
#315 = DIRECTION ( 'NONE',  ( 0.0000000000000000000, 1.000000000000000000, 0.0000000000000000000 ) ) ;
#316 = DIRECTION ( 'NONE',  ( -4.275831445896958607E-31, -1.000000000000000000, -1.224646799147353207E-16 ) ) ;
#317 = CARTESIAN_POINT ( 'NONE',  ( 2.611688035833346509E-13, -2.900000000000011013, 92.39999999999999147 ) ) ;
#318 = DIRECTION ( 'NONE',  ( 5.312910191413085714E-31, 1.000000000000000000, 1.495451272393805212E-16 ) ) ;
#319 = DIRECTION ( 'NONE',  ( 3.491481338843133355E-15, -1.224646799147353207E-16, 1.000000000000000000 ) ) ;
#320 = DIRECTION ( 'NONE',  ( 4.275831445896958607E-31, 1.000000000000000000, 1.224646799147353207E-16 ) ) ;
#321 = APPROVAL ( #71, 'UNSPECIFIED' ) ;
#322 = CARTESIAN_POINT ( 'NONE',  ( 1.990144363140586139E-13, -6.980486755139912911E-15, 57.00000000000000000 ) ) ;
#323 = CC_DESIGN_APPROVAL ( #69, ( #34 ) ) ;
#324 = CARTESIAN_POINT ( 'NONE',  ( 0.0000000000000000000, 0.0000000000000000000, 0.0000000000000000000 ) ) ;
#325 = DIRECTION ( 'NONE',  ( -3.491481338843133355E-15, 1.224646799147353207E-16, -1.000000000000000000 ) ) ;
#326 = CARTESIAN_POINT ( 'NONE',  ( 3.247077645124113894E-13, 1.724723750061119554E-32, 93.00000000000000000 ) ) ;
#327 = APPROVAL_STATUS ( 'not_yet_approved' ) ;
#328 = ADVANCED_FACE ( 'NONE', ( #89 ), #12, .T. ) ;
#329 = EDGE_LOOP ( 'NONE', ( #48, #182, #179 ) ) ;
#330 = CALENDAR_DATE ( 2021, 2, 9 ) ;
#331 = EDGE_CURVE ( 'NONE', #26, #46, #197, .T. ) ;
#332 = ORIENTED_EDGE ( 'NONE', *, *, #307, .F. ) ;
#333 = CYLINDRICAL_SURFACE ( 'NONE', #225, 2.899999999999997691 ) ;
#334 = VECTOR ( 'NONE', #166, 1000.000000000000000 ) ;
#335 = APPROVAL_ROLE ( '' ) ;
#336 = VECTOR ( 'NONE', #7, 1000.000000000000000 ) ;
#337 = ORIENTED_EDGE ( 'NONE', *, *, #83, .T. ) ;
ENDSEC;
END-ISO-10303-21;
